  0
SECTION
  2
HEADER
  9
$ACADVER
  1
AC1024
  9
$ACADMAINTVER
 70
     6
  9
$DWGCODEPAGE
  3
ANSI_1252
  9
$INSBASE
 10
0.0
 20
0.0
 30
0.0
  9
$EXTMIN
 10
-262.500018
 20
-371.249941
 30
0.000000
  9
$EXTMAX
 10
237.500023
 20
346.250078
 30
0.000000
  9
$LIMMIN
 10
0.0
 20
0.0
  9
$LIMMAX
 10
420.0
 20
297.0
  9
$ORTHOMODE
 70
     0
  9
$REGENMODE
 70
     1
  9
$FILLMODE
 70
     1
  9
$QTEXTMODE
 70
     0
  9
$MIRRTEXT
 70
     0
  9
$LTSCALE
 40
25.000000
  9
$ATTMODE
 70
     1
  9
$TEXTSIZE
 40
2.5
  9
$TRACEWID
 40
1.0
  9
$TEXTSTYLE
  7
Standard
  9
$CLAYER
  8
0
  9
$CELTYPE
  6
ByLayer
  9
$CECOLOR
 62
   256
  9
$CELTSCALE
 40
1.0
  9
$DISPSILH
 70
     0
  9
$DIMSCALE
 40
1.0
  9
$DIMASZ
 40
2.5
  9
$DIMEXO
 40
0.625
  9
$DIMDLI
 40
3.75
  9
$DIMRND
 40
0.0
  9
$DIMDLE
 40
0.0
  9
$DIMEXE
 40
1.25
  9
$DIMTP
 40
0.0
  9
$DIMTM
 40
0.0
  9
$DIMTXT
 40
2.5
  9
$DIMCEN
 40
2.5
  9
$DIMTSZ
 40
0.0
  9
$DIMTOL
 70
     0
  9
$DIMLIM
 70
     0
  9
$DIMTIH
 70
     0
  9
$DIMTOH
 70
     0
  9
$DIMSE1
 70
     0
  9
$DIMSE2
 70
     0
  9
$DIMTAD
 70
     1
  9
$DIMZIN
 70
     8
  9
$DIMBLK
  1

  9
$DIMASO
 70
     1
  9
$DIMSHO
 70
     1
  9
$DIMPOST
  1

  9
$DIMAPOST
  1

  9
$DIMALT
 70
     0
  9
$DIMALTD
 70
     3
  9
$DIMALTF
 40
0.03937007874016
  9
$DIMLFAC
 40
1.0
  9
$DIMTOFL
 70
     1
  9
$DIMTVP
 40
0.0
  9
$DIMTIX
 70
     0
  9
$DIMSOXD
 70
     0
  9
$DIMSAH
 70
     0
  9
$DIMBLK1
  1

  9
$DIMBLK2
  1

  9
$DIMSTYLE
  2
ISO-25
  9
$DIMCLRD
 70
     0
  9
$DIMCLRE
 70
     0
  9
$DIMCLRT
 70
     0
  9
$DIMTFAC
 40
1.0
  9
$DIMGAP
 40
0.625
  9
$DIMJUST
 70
     0
  9
$DIMSD1
 70
     0
  9
$DIMSD2
 70
     0
  9
$DIMTOLJ
 70
     0
  9
$DIMTZIN
 70
     8
  9
$DIMALTZ
 70
     0
  9
$DIMALTTZ
 70
     0
  9
$DIMUPT
 70
     0
  9
$DIMDEC
 70
     2
  9
$DIMTDEC
 70
     2
  9
$DIMALTU
 70
     2
  9
$DIMALTTD
 70
     3
  9
$DIMTXSTY
  7
Standard
  9
$DIMAUNIT
 70
     0
  9
$DIMADEC
 70
     0
  9
$DIMALTRND
 40
0.0
  9
$DIMAZIN
 70
     0
  9
$DIMDSEP
 70
    44
  9
$DIMATFIT
 70
     3
  9
$DIMFRAC
 70
     0
  9
$DIMLDRBLK
  1

  9
$DIMLUNIT
 70
     2
  9
$DIMLWD
 70
    -2
  9
$DIMLWE
 70
    -2
  9
$DIMTMOVE
 70
     0
  9
$DIMFXL
 40
1.0
  9
$DIMFXLON
 70
     0
  9
$DIMJOGANG
 40
0.7853981633974483
  9
$DIMTFILL
 70
     0
  9
$DIMTFILLCLR
 70
     0
  9
$DIMARCSYM
 70
     0
  9
$DIMLTYPE
  6

  9
$DIMLTEX1
  6

  9
$DIMLTEX2
  6

  9
$DIMTXTDIRECTION
 70
     0
  9
$LUNITS
 70
     2
  9
$LUPREC
 70
     4
  9
$SKETCHINC
 40
1.0
  9
$FILLETRAD
 40
10.0
  9
$AUNITS
 70
     0
  9
$AUPREC
 70
     0
  9
$MENU
  1
.
  9
$ELEVATION
 40
0.0
  9
$PELEVATION
 40
0.0
  9
$THICKNESS
 40
0.0
  9
$LIMCHECK
 70
     0
  9
$CHAMFERA
 40
10.0
  9
$CHAMFERB
 40
10.0
  9
$CHAMFERC
 40
20.0
  9
$CHAMFERD
 40
0.0
  9
$SKPOLY
 70
     0
  9
$TDCREATE
 40
2452006.439837951
  9
$TDUCREATE
 40
2452006.356504618
  9
$TDUPDATE
 40
2452006.439963946
  9
$TDUUPDATE
 40
2452006.356630613
  9
$TDINDWG
 40
0.0001273843
  9
$TDUSRTIMER
 40
0.0001272685
  9
$USRTIMER
 70
     1
  9
$ANGBASE
 50
0.0
  9
$ANGDIR
 70
     0
  9
$PDMODE
 70
     0
  9
$PDSIZE
 40
0.0
  9
$PLINEWID
 40
0.0
  9
$SPLFRAME
 70
     0
  9
$SPLINETYPE
 70
     6
  9
$SPLINESEGS
 70
     8
  9
$HANDSEED
  5
8B3
  9
$SURFTAB1
 70
     6
  9
$SURFTAB2
 70
     6
  9
$SURFTYPE
 70
     6
  9
$SURFU
 70
     6
  9
$SURFV
 70
     6
  9
$UCSBASE
  2

  9
$UCSNAME
  2

  9
$UCSORG
 10
0.0
 20
0.0
 30
0.0
  9
$UCSXDIR
 10
1.0
 20
0.0
 30
0.0
  9
$UCSYDIR
 10
0.0
 20
1.0
 30
0.0
  9
$UCSORTHOREF
  2

  9
$UCSORTHOVIEW
 70
     0
  9
$UCSORGTOP
 10
0.0
 20
0.0
 30
0.0
  9
$UCSORGBOTTOM
 10
0.0
 20
0.0
 30
0.0
  9
$UCSORGLEFT
 10
0.0
 20
0.0
 30
0.0
  9
$UCSORGRIGHT
 10
0.0
 20
0.0
 30
0.0
  9
$UCSORGFRONT
 10
0.0
 20
0.0
 30
0.0
  9
$UCSORGBACK
 10
0.0
 20
0.0
 30
0.0
  9
$PUCSBASE
  2

  9
$PUCSNAME
  2

  9
$PUCSORG
 10
0.0
 20
0.0
 30
0.0
  9
$PUCSXDIR
 10
1.0
 20
0.0
 30
0.0
  9
$PUCSYDIR
 10
0.0
 20
1.0
 30
0.0
  9
$PUCSORTHOREF
  2

  9
$PUCSORTHOVIEW
 70
     0
  9
$PUCSORGTOP
 10
0.0
 20
0.0
 30
0.0
  9
$PUCSORGBOTTOM
 10
0.0
 20
0.0
 30
0.0
  9
$PUCSORGLEFT
 10
0.0
 20
0.0
 30
0.0
  9
$PUCSORGRIGHT
 10
0.0
 20
0.0
 30
0.0
  9
$PUCSORGFRONT
 10
0.0
 20
0.0
 30
0.0
  9
$PUCSORGBACK
 10
0.0
 20
0.0
 30
0.0
  9
$USERI1
 70
     0
  9
$USERI2
 70
     0
  9
$USERI3
 70
     0
  9
$USERI4
 70
     0
  9
$USERI5
 70
     0
  9
$USERR1
 40
0.0
  9
$USERR2
 40
0.0
  9
$USERR3
 40
0.0
  9
$USERR4
 40
0.0
  9
$USERR5
 40
0.0
  9
$WORLDVIEW
 70
     1
  9
$SHADEDGE
 70
     3
  9
$SHADEDIF
 70
    70
  9
$TILEMODE
 70
     1
  9
$MAXACTVP
 70
    64
  9
$PINSBASE
 10
0.0
 20
0.0
 30
0.0
  9
$PLIMCHECK
 70
     0
  9
$PEXTMIN
 10
1.000000000000000E+20
 20
1.000000000000000E+20
 30
1.000000000000000E+20
  9
$PEXTMAX
 10
-1.000000000000000E+20
 20
-1.000000000000000E+20
 30
-1.000000000000000E+20
  9
$PLIMMIN
 10
0.0
 20
0.0
  9
$PLIMMAX
 10
420.0
 20
297.0
  9
$UNITMODE
 70
     0
  9
$VISRETAIN
 70
     1
  9
$PLINEGEN
 70
     0
  9
$PSLTSCALE
 70
     1
  9
$TREEDEPTH
 70
  3020
  9
$CMLSTYLE
  2
Standard
  9
$CMLJUST
 70
     0
  9
$CMLSCALE
 40
20.0
  9
$PROXYGRAPHICS
 70
     1
  9
$MEASUREMENT
 70
     1
  9
$CELWEIGHT
370
    -1
  9
$ENDCAPS
280
     0
  9
$JOINSTYLE
280
     0
  9
$LWDISPLAY
290
     0
  9
$INSUNITS
 70
     4
  9
$HYPERLINKBASE
  1

  9
$STYLESHEET
  1

  9
$XEDIT
290
     1
  9
$CEPSNTYPE
380
     0
  9
$PSTYLEMODE
290
     1
  9
$FINGERPRINTGUID
  2

  9
$VERSIONGUID
  2

  9
$EXTNAMES
290
     1
  9
$PSVPSCALE
 40
0.0
  9
$OLESTARTUP
290
     0
  9
$SORTENTS
280
   127
  9
$INDEXCTL
280
     0
  9
$HIDETEXT
280
     1
  9
$XCLIPFRAME
280
     2
  9
$HALOGAP
280
     0
  9
$OBSCOLOR
 70
   257
  9
$OBSLTYPE
280
     0
  9
$INTERSECTIONDISPLAY
280
     0
  9
$INTERSECTIONCOLOR
 70
   257
  9
$DIMASSOC
280
     2
  9
$PROJECTNAME
  1

  9
$CAMERADISPLAY
290
     0
  9
$LENSLENGTH
 40
50.0
  9
$CAMERAHEIGHT
 40
0.0
  9
$STEPSPERSEC
 40
2.0
  9
$STEPSIZE
 40
6.0
  9
$3DDWFPREC
 40
2.0
  9
$PSOLWIDTH
 40
5.0
  9
$PSOLHEIGHT
 40
80.0
  9
$LOFTANG1
 40
1.570796326794896
  9
$LOFTANG2
 40
1.570796326794896
  9
$LOFTMAG1
 40
0.0
  9
$LOFTMAG2
 40
0.0
  9
$LOFTPARAM
 70
     7
  9
$LOFTNORMALS
280
     1
  9
$LATITUDE
 40
37.795
  9
$LONGITUDE
 40
-122.394
  9
$NORTHDIRECTION
 40
0.0
  9
$TIMEZONE
 70
 -8000
  9
$LIGHTGLYPHDISPLAY
280
     1
  9
$TILEMODELIGHTSYNCH
280
     1
  9
$CMATERIAL
347
EC
  9
$SOLIDHIST
280
     1
  9
$SHOWHIST
280
     1
  9
$DWFFRAME
280
     2
  9
$DGNFRAME
280
     0
  9
$REALWORLDSCALE
290
     1
  9
$INTERFERECOLOR
 62
     1
  9
$INTERFEREOBJVS
345
F9
  9
$INTERFEREVPVS
346
F6
  9
$CSHADOW
280
     0
  9
$SHADOWPLANELOCATION
 40
0.0
  0
ENDSEC
  0
SECTION
  2
CLASSES
  0
CLASS
  1
ACDBDICTIONARYWDFLT
  2
AcDbDictionaryWithDefault
  3
ObjectDBX Classes
 90
        0
 91
        1
280
     0
281
     0
  0
CLASS
  1
ACDBPLACEHOLDER
  2
AcDbPlaceHolder
  3
ObjectDBX Classes
 90
        0
 91
        1
280
     0
281
     0
  0
CLASS
  1
LAYOUT
  2
AcDbLayout
  3
ObjectDBX Classes
 90
        0
 91
        2
280
     0
281
     0
  0
CLASS
  1
DICTIONARYVAR
  2
AcDbDictionaryVar
  3
ObjectDBX Classes
 90
        0
 91
        7
280
     0
281
     0
  0
CLASS
  1
TABLESTYLE
  2
AcDbTableStyle
  3
ObjectDBX Classes
 90
     4095
 91
        1
280
     0
281
     0
  0
CLASS
  1
MATERIAL
  2
AcDbMaterial
  3
ObjectDBX Classes
 90
     1153
 91
        3
280
     0
281
     0
  0
CLASS
  1
VISUALSTYLE
  2
AcDbVisualStyle
  3
ObjectDBX Classes
 90
     4095
 91
       16
280
     0
281
     0
  0
CLASS
  1
SCALE
  2
AcDbScale
  3
ObjectDBX Classes
 90
     1153
 91
       17
280
     0
281
     0
  0
CLASS
  1
MLEADERSTYLE
  2
AcDbMLeaderStyle
  3
ACDB_MLEADERSTYLE_CLASS
 90
     4095
 91
        1
280
     0
281
     0
  0
CLASS
  1
CELLSTYLEMAP
  2
AcDbCellStyleMap
  3
ObjectDBX Classes
 90
     1152
 91
        2
280
     0
281
     0
  0
CLASS
  1
EXACXREFPANELOBJECT
  2
ExAcXREFPanelObject
  3
EXAC_ESW
 90
    33793
 91
        0
280
     0
281
     0
  0
CLASS
  1
NPOCOLLECTION
  2
AcDbImpNonPersistentObjectsCollection
  3
ObjectDBX Classes
 90
     1153
 91
        0
280
     0
281
     0
  0
CLASS
  1
LAYER_INDEX
  2
AcDbLayerIndex
  3
ObjectDBX Classes
 90
        0
 91
        0
280
     0
281
     0
  0
CLASS
  1
SPATIAL_INDEX
  2
AcDbSpatialIndex
  3
ObjectDBX Classes
 90
        0
 91
        0
280
     0
281
     0
  0
CLASS
  1
IDBUFFER
  2
AcDbIdBuffer
  3
ObjectDBX Classes
 90
        0
 91
        0
280
     0
281
     0
  0
CLASS
  1
RASTERVARIABLES
  2
AcDbRasterVariables
  3
ISM
 90
        0
 91
        2
280
     0
281
     0
  0
CLASS
  1
IMAGEDEF
  2
AcDbRasterImageDef
  3
ISM
 90
        0
 91
        5
280
     0
281
     0
  0
CLASS
  1
IMAGEDEF_REACTOR
  2
AcDbRasterImageDefReactor
  3
ISM
 90
        1
 91
        5
280
     0
281
     0
  0
CLASS
  1
IMAGE
  2
AcDbRasterImage
  3
ISM
 90
     2175
 91
        5
280
     0
281
     1
  0
CLASS
  1
LWPOLYLINE
  2
AcDbPolyline
  3
ObjectDBX Classes
 90
        0
 91
        0
280
     0
281
     1
  0
CLASS
  1
OLE2FRAME
  2
AcDbOle2Frame
  3
ObjectDBX Classes
 90
        0
 91
        0
280
     0
281
     1
  0
CLASS
  1
HATCH
  2
AcDbHatch
  3
ObjectDBX Classes
 90
        0
 91
        0
280
     0
281
     1
  0
CLASS
  1
XRECORD
  2
AcDbXrecord
  3
ObjectDBX Classes
 90
        0
 91
        9
280
     0
281
     0
  0
CLASS
  1
SORTENTSTABLE
  2
AcDbSortentsTable
  3
ObjectDBX Classes
 90
        0
 91
        0
280
     0
281
     0
  0
CLASS
  1
OBJECT_PTR
  2
CAseDLPNTableRecord
  3
"ASE-LPNTableRecord"
 90
    32769
 91
        0
280
     0
281
     0
  0
CLASS
  1
PLOTSETTINGS
  2
AcDbPlotSettings
  3
ObjectDBX Classes
 90
        0
 91
        0
280
     0
281
     0
  0
CLASS
  1
VBA_PROJECT
  2
AcDbVbaProject
  3
acad
 90
        0
 91
        0
280
     0
281
     0
  0
CLASS
  1
WIPEOUT
  2
AcDbWipeout
  3
WipeOut|AutoCAD Express Tool|expresstools@autodesk.com
 90
    32895
 91
        0
280
     0
281
     1
  0
CLASS
  1
WIPEOUTVARIABLES
  2
AcDbWipeoutVariables
  3
WipeOut|AutoCAD Express Tool|expresstools@autodesk.com
 90
    32768
 91
        0
280
     0
281
     0
  0
CLASS
  1
RTEXT
  2
RText
  3
RText|AutoCAD Express Tool|expresstools@autodesk.com
 90
    32768
 91
        0
280
     0
281
     1
  0
CLASS
  1
ARCALIGNEDTEXT
  2
AcDbArcAlignedText
  3
ATEXT|AutoCAD Express Tool|expresstools@autodesk.com
 90
    32768
 91
        0
280
     0
281
     1
  0
ENDSEC
  0
SECTION
  2
TABLES
  0
TABLE
  2
VPORT
  5
848
100
AcDbSymbolTable
 70
     1
  0
VPORT
  5
849
100
AcDbSymbolTableRecord
100
AcDbViewportTableRecord
  2
*ACTIVE
 70
     0
 10
0.000000
 20
0.000000
 11
1.000000
 21
1.000000
 12
50.000000
 22
50.000000
 13
0.000000
 23
0.000000
 14
1.000000
 24
1.000000
 15
10.000000
 25
10.000000
 16
0.000000
 26
0.000000
 36
1.000000
 17
0.000000
 27
0.000000
 37
0.000000
 40
100.000000
 41
1.387409
 42
50.000000
 43
0.000000
 44
0.000000
 50
0.000000
 51
0.000000
 71
     0
 72
   100
 73
     1
 74
     1
 75
     0
 76
     0
 77
     0
 78
     0
  0
ENDTAB
  0
TABLE
  2
LTYPE
  5
84A
330
0
100
AcDbSymbolTable
 70
     9
  0
LTYPE
  5
84B
330
84A
100
AcDbSymbolTableRecord
100
AcDbLinetypeTableRecord
  2
ByBlock
 70
     0
  3

 72
    65
 73
     0
 40
0.000000
  0
LTYPE
  5
84C
330
84A
100
AcDbSymbolTableRecord
100
AcDbLinetypeTableRecord
  2
ByLayer
 70
     0
  3

 72
    65
 73
     0
 40
0.000000
  0
LTYPE
  5
84D
330
84A
100
AcDbSymbolTableRecord
100
AcDbLinetypeTableRecord
  2
CONTINUOUS
 70
     0
  3
Solid line
 72
    65
 73
     0
 40
0.000000
  0
LTYPE
  5
84E
330
84A
100
AcDbSymbolTableRecord
100
AcDbLinetypeTableRecord
  2
HIDDEN
 70
     0
  3
_ _ _ _ _ _ _ _ _ _ _ _ _ _ _ _ _ _ _ _ _ _ _
 72
    65
 73
     2
 40
0.375000
 49
0.250000
 74
     0
 49
-0.125000
 74
     0
  0
LTYPE
  5
84F
330
84A
100
AcDbSymbolTableRecord
100
AcDbLinetypeTableRecord
  2
DOT
 70
     0
  3
...............................................
 72
    65
 73
     2
 40
0.250000
 49
0.000000
 74
     0
 49
-0.250000
 74
     0
  0
LTYPE
  5
850
330
84A
100
AcDbSymbolTableRecord
100
AcDbLinetypeTableRecord
  2
DASHED
 70
     0
  3
__ __ __ __ __ __ __ __ __ __ __ __ __ __ __ 
 72
    65
 73
     2
 40
0.750000
 49
0.500000
 74
     0
 49
-0.250000
 74
     0
  0
LTYPE
  5
851
330
84A
100
AcDbSymbolTableRecord
100
AcDbLinetypeTableRecord
  2
DIVIDE
 70
     0
  3
__ . . __ . . __ . . __ . . __ . . __ . . __
 72
    65
 73
     6
 40
1.250000
 49
0.500000
 74
     0
 49
-0.250000
 74
     0
 49
0.000000
 74
     0
 49
-0.250000
 74
     0
 49
0.000000
 74
     0
 49
-0.250000
 74
     0
  0
LTYPE
  5
852
330
84A
100
AcDbSymbolTableRecord
100
AcDbLinetypeTableRecord
  2
DASHDOT
 70
     0
  3
__ . __ . __ . __ . __ . __ . __ . __ . __ . __
 72
    65
 73
     4
 40
1.000000
 49
0.500000
 74
     0
 49
-0.250000
 74
     0
 49
0.000000
 74
     0
 49
-0.250000
 74
     0
  0
LTYPE
  5
853
330
84A
100
AcDbSymbolTableRecord
100
AcDbLinetypeTableRecord
  2
BORDER
 70
     0
  3
__ __ . __ __ . __ __ . __ __ . __ __ . __ __
 72
    65
 73
     6
 40
1.750000
 49
0.500000
 74
     0
 49
-0.250000
 74
     0
 49
0.500000
 74
     0
 49
-0.250000
 74
     0
 49
0.000000
 74
     0
 49
-0.250000
 74
     0
  0
LTYPE
  5
854
330
84A
100
AcDbSymbolTableRecord
100
AcDbLinetypeTableRecord
  2
CENTER
 70
     0
  3
____ _ ____ _ ____ _ ____ _ ____ _ ____ _ ____
 72
    65
 73
     4
 40
2.000000
 49
1.250000
 74
     0
 49
-0.250000
 74
     0
 49
0.250000
 74
     0
 49
-0.250000
 74
     0
  0
LTYPE
  5
855
330
84A
100
AcDbSymbolTableRecord
100
AcDbLinetypeTableRecord
  2
PHANTOM
 70
     0
  3
_____ _ _ _____ _ _ _____ _ _ _____ _ _ ____
 72
    65
 73
     6
 40
2.500000
 49
1.250000
 74
     0
 49
-0.250000
 74
     0
 49
0.250000
 74
     0
 49
-0.250000
 74
     0
 49
0.250000
 74
     0
 49
-0.250000
 74
     0
  0
ENDTAB
  0
TABLE
  2
LAYER
  5
856
100
AcDbSymbolTable
 70
     4
  0
LAYER
  5
857
100
AcDbSymbolTableRecord
100
AcDbLayerTableRecord
  2
0
 70
     0
 62
     7
  6
CONTINUOUS
370
    -3
390
     0
  0
LAYER
  5
858
100
AcDbSymbolTableRecord
100
AcDbLayerTableRecord
  2
SCHRAFF
 70
     0
 62
     7
  6
CONTINUOUS
370
    -3
390
     0
  0
LAYER
  5
859
100
AcDbSymbolTableRecord
100
AcDbLayerTableRecord
  2
L
 70
     0
 62
     7
  6
CONTINUOUS
370
    -3
390
     0
  0
LAYER
  5
85A
100
AcDbSymbolTableRecord
100
AcDbLayerTableRecord
  2
Detail
 70
     0
 62
     7
  6
CONTINUOUS
370
    -3
390
     0
  0
ENDTAB
  0
TABLE
  2
STYLE
  5
85B
100
AcDbSymbolTable
 70
     2
  0
STYLE
  5
201
100
AcDbSymbolTableRecord
100
AcDbTextStyleTableRecord
  2
STANDARD
 70
     0
 40
0.000000
 41
1.000000
 50
0.000000
 71
     0
 42
3.500000
  3
txt
  4

  0
STYLE
  5
3E9
100
AcDbSymbolTableRecord
100
AcDbTextStyleTableRecord
  2
Arial
 70
     0
 40
0.000000
 41
1.000000
 50
0.000000
 71
     0
 42
3.500000
  3
Arial.ttf
  4

1001
ACAD
1000
Arial
1071
     0
  0
ENDTAB
  0
TABLE
  2
DIMSTYLE
  5
85C
100
AcDbSymbolTable
 70
     0
100
AcDbDimStyleTable
  0
ENDTAB
  0
TABLE
  2
VIEW
  5
85D
100
AcDbSymbolTable
 70
     0
  0
ENDTAB
  0
TABLE
  2
UCS
  5
85E
100
AcDbSymbolTable
 70
     0
  0
ENDTAB
  0
TABLE
  2
APPID
  5
85F
100
AcDbSymbolTable
 70
     1
  0
APPID
  5
860
100
AcDbSymbolTableRecord
100
AcDbRegAppTableRecord
  2
ACAD
 70
     0
  0
ENDTAB
  0
TABLE
  2
BLOCK_RECORD
  5
861
100
AcDbSymbolTable
 70
    82
  0
BLOCK_RECORD
  5
202
102
{ACAD_XDICTIONARY
360
203
102
}
100
AcDbSymbolTableRecord
100
AcDbBlockTableRecord
  2
*Model_Space
  0
BLOCK_RECORD
  5
862
100
AcDbSymbolTableRecord
100
AcDbBlockTableRecord
  2
*Paper_Space
  0
BLOCK_RECORD
  5
863
100
AcDbSymbolTableRecord
100
AcDbBlockTableRecord
  2
*Paper_Space0
  0
BLOCK_RECORD
  5
864
100
AcDbSymbolTableRecord
100
AcDbBlockTableRecord
  2
B
  0
BLOCK_RECORD
  5
865
100
AcDbSymbolTableRecord
100
AcDbBlockTableRecord
  2
B-2
  0
BLOCK_RECORD
  5
866
100
AcDbSymbolTableRecord
100
AcDbBlockTableRecord
  2
B-3
  0
BLOCK_RECORD
  5
867
100
AcDbSymbolTableRecord
100
AcDbBlockTableRecord
  2
B-4
  0
BLOCK_RECORD
  5
868
100
AcDbSymbolTableRecord
100
AcDbBlockTableRecord
  2
B-5
  0
BLOCK_RECORD
  5
869
100
AcDbSymbolTableRecord
100
AcDbBlockTableRecord
  2
B-6
  0
BLOCK_RECORD
  5
86A
100
AcDbSymbolTableRecord
100
AcDbBlockTableRecord
  2
B-7
  0
BLOCK_RECORD
  5
86B
100
AcDbSymbolTableRecord
100
AcDbBlockTableRecord
  2
B-8
  0
BLOCK_RECORD
  5
86C
100
AcDbSymbolTableRecord
100
AcDbBlockTableRecord
  2
B-9
  0
BLOCK_RECORD
  5
86D
100
AcDbSymbolTableRecord
100
AcDbBlockTableRecord
  2
B-10
  0
BLOCK_RECORD
  5
86E
100
AcDbSymbolTableRecord
100
AcDbBlockTableRecord
  2
B-11
  0
BLOCK_RECORD
  5
86F
100
AcDbSymbolTableRecord
100
AcDbBlockTableRecord
  2
B-12
  0
BLOCK_RECORD
  5
870
100
AcDbSymbolTableRecord
100
AcDbBlockTableRecord
  2
B-13
  0
BLOCK_RECORD
  5
871
100
AcDbSymbolTableRecord
100
AcDbBlockTableRecord
  2
B-14
  0
BLOCK_RECORD
  5
872
100
AcDbSymbolTableRecord
100
AcDbBlockTableRecord
  2
B-15
  0
BLOCK_RECORD
  5
873
100
AcDbSymbolTableRecord
100
AcDbBlockTableRecord
  2
B-16
  0
BLOCK_RECORD
  5
874
100
AcDbSymbolTableRecord
100
AcDbBlockTableRecord
  2
B-17
  0
BLOCK_RECORD
  5
875
100
AcDbSymbolTableRecord
100
AcDbBlockTableRecord
  2
B-18
  0
BLOCK_RECORD
  5
876
100
AcDbSymbolTableRecord
100
AcDbBlockTableRecord
  2
B-19
  0
BLOCK_RECORD
  5
877
100
AcDbSymbolTableRecord
100
AcDbBlockTableRecord
  2
B-20
  0
BLOCK_RECORD
  5
878
100
AcDbSymbolTableRecord
100
AcDbBlockTableRecord
  2
B-21
  0
BLOCK_RECORD
  5
879
100
AcDbSymbolTableRecord
100
AcDbBlockTableRecord
  2
B-22
  0
BLOCK_RECORD
  5
87A
100
AcDbSymbolTableRecord
100
AcDbBlockTableRecord
  2
B-23
  0
BLOCK_RECORD
  5
87B
100
AcDbSymbolTableRecord
100
AcDbBlockTableRecord
  2
B-24
  0
BLOCK_RECORD
  5
87C
100
AcDbSymbolTableRecord
100
AcDbBlockTableRecord
  2
B-25
  0
BLOCK_RECORD
  5
87D
100
AcDbSymbolTableRecord
100
AcDbBlockTableRecord
  2
B-26
  0
BLOCK_RECORD
  5
87E
100
AcDbSymbolTableRecord
100
AcDbBlockTableRecord
  2
B-27
  0
BLOCK_RECORD
  5
87F
100
AcDbSymbolTableRecord
100
AcDbBlockTableRecord
  2
B-28
  0
BLOCK_RECORD
  5
880
100
AcDbSymbolTableRecord
100
AcDbBlockTableRecord
  2
B-29
  0
BLOCK_RECORD
  5
881
100
AcDbSymbolTableRecord
100
AcDbBlockTableRecord
  2
B-30
  0
BLOCK_RECORD
  5
882
100
AcDbSymbolTableRecord
100
AcDbBlockTableRecord
  2
B-31
  0
BLOCK_RECORD
  5
883
100
AcDbSymbolTableRecord
100
AcDbBlockTableRecord
  2
B-32
  0
BLOCK_RECORD
  5
884
100
AcDbSymbolTableRecord
100
AcDbBlockTableRecord
  2
B-33
  0
BLOCK_RECORD
  5
885
100
AcDbSymbolTableRecord
100
AcDbBlockTableRecord
  2
B-34
  0
BLOCK_RECORD
  5
886
100
AcDbSymbolTableRecord
100
AcDbBlockTableRecord
  2
B-35
  0
BLOCK_RECORD
  5
887
100
AcDbSymbolTableRecord
100
AcDbBlockTableRecord
  2
B-36
  0
BLOCK_RECORD
  5
888
100
AcDbSymbolTableRecord
100
AcDbBlockTableRecord
  2
B-37
  0
BLOCK_RECORD
  5
889
100
AcDbSymbolTableRecord
100
AcDbBlockTableRecord
  2
B-38
  0
BLOCK_RECORD
  5
88A
100
AcDbSymbolTableRecord
100
AcDbBlockTableRecord
  2
B-39
  0
BLOCK_RECORD
  5
88B
100
AcDbSymbolTableRecord
100
AcDbBlockTableRecord
  2
B-40
  0
BLOCK_RECORD
  5
88C
100
AcDbSymbolTableRecord
100
AcDbBlockTableRecord
  2
B-41
  0
BLOCK_RECORD
  5
88D
100
AcDbSymbolTableRecord
100
AcDbBlockTableRecord
  2
B-42
  0
BLOCK_RECORD
  5
88E
100
AcDbSymbolTableRecord
100
AcDbBlockTableRecord
  2
B-43
  0
BLOCK_RECORD
  5
88F
100
AcDbSymbolTableRecord
100
AcDbBlockTableRecord
  2
B-44
  0
BLOCK_RECORD
  5
890
100
AcDbSymbolTableRecord
100
AcDbBlockTableRecord
  2
B-45
  0
BLOCK_RECORD
  5
891
100
AcDbSymbolTableRecord
100
AcDbBlockTableRecord
  2
B-46
  0
BLOCK_RECORD
  5
892
100
AcDbSymbolTableRecord
100
AcDbBlockTableRecord
  2
B-47
  0
BLOCK_RECORD
  5
893
100
AcDbSymbolTableRecord
100
AcDbBlockTableRecord
  2
B-48
  0
BLOCK_RECORD
  5
894
100
AcDbSymbolTableRecord
100
AcDbBlockTableRecord
  2
B-49
  0
BLOCK_RECORD
  5
895
100
AcDbSymbolTableRecord
100
AcDbBlockTableRecord
  2
B-50
  0
BLOCK_RECORD
  5
896
100
AcDbSymbolTableRecord
100
AcDbBlockTableRecord
  2
B-51
  0
BLOCK_RECORD
  5
897
100
AcDbSymbolTableRecord
100
AcDbBlockTableRecord
  2
B-52
  0
BLOCK_RECORD
  5
898
100
AcDbSymbolTableRecord
100
AcDbBlockTableRecord
  2
B-53
  0
BLOCK_RECORD
  5
899
100
AcDbSymbolTableRecord
100
AcDbBlockTableRecord
  2
B-54
  0
BLOCK_RECORD
  5
89A
100
AcDbSymbolTableRecord
100
AcDbBlockTableRecord
  2
B-55
  0
BLOCK_RECORD
  5
89B
100
AcDbSymbolTableRecord
100
AcDbBlockTableRecord
  2
B-56
  0
BLOCK_RECORD
  5
89C
100
AcDbSymbolTableRecord
100
AcDbBlockTableRecord
  2
B-57
  0
BLOCK_RECORD
  5
89D
100
AcDbSymbolTableRecord
100
AcDbBlockTableRecord
  2
B-58
  0
BLOCK_RECORD
  5
89E
100
AcDbSymbolTableRecord
100
AcDbBlockTableRecord
  2
B-59
  0
BLOCK_RECORD
  5
89F
100
AcDbSymbolTableRecord
100
AcDbBlockTableRecord
  2
B-60
  0
BLOCK_RECORD
  5
8A0
100
AcDbSymbolTableRecord
100
AcDbBlockTableRecord
  2
B-61
  0
BLOCK_RECORD
  5
8A1
100
AcDbSymbolTableRecord
100
AcDbBlockTableRecord
  2
B-62
  0
BLOCK_RECORD
  5
8A2
100
AcDbSymbolTableRecord
100
AcDbBlockTableRecord
  2
B-63
  0
BLOCK_RECORD
  5
8A3
100
AcDbSymbolTableRecord
100
AcDbBlockTableRecord
  2
B-64
  0
BLOCK_RECORD
  5
8A4
100
AcDbSymbolTableRecord
100
AcDbBlockTableRecord
  2
B-65
  0
BLOCK_RECORD
  5
8A5
100
AcDbSymbolTableRecord
100
AcDbBlockTableRecord
  2
B-67
  0
BLOCK_RECORD
  5
8A6
100
AcDbSymbolTableRecord
100
AcDbBlockTableRecord
  2
B-68
  0
BLOCK_RECORD
  5
8A7
100
AcDbSymbolTableRecord
100
AcDbBlockTableRecord
  2
B-69
  0
BLOCK_RECORD
  5
8A8
100
AcDbSymbolTableRecord
100
AcDbBlockTableRecord
  2
B-70
  0
BLOCK_RECORD
  5
8A9
100
AcDbSymbolTableRecord
100
AcDbBlockTableRecord
  2
B-71
  0
BLOCK_RECORD
  5
8AA
100
AcDbSymbolTableRecord
100
AcDbBlockTableRecord
  2
B-72
  0
BLOCK_RECORD
  5
8AB
100
AcDbSymbolTableRecord
100
AcDbBlockTableRecord
  2
B-73
  0
BLOCK_RECORD
  5
8AC
100
AcDbSymbolTableRecord
100
AcDbBlockTableRecord
  2
B-74
  0
BLOCK_RECORD
  5
8AD
100
AcDbSymbolTableRecord
100
AcDbBlockTableRecord
  2
B-75
  0
BLOCK_RECORD
  5
8AE
100
AcDbSymbolTableRecord
100
AcDbBlockTableRecord
  2
B-76
  0
BLOCK_RECORD
  5
8AF
100
AcDbSymbolTableRecord
100
AcDbBlockTableRecord
  2
B-77
  0
BLOCK_RECORD
  5
8B0
100
AcDbSymbolTableRecord
100
AcDbBlockTableRecord
  2
B-78
  0
BLOCK_RECORD
  5
8B1
100
AcDbSymbolTableRecord
100
AcDbBlockTableRecord
  2
B-79
  0
BLOCK_RECORD
  5
8B2
100
AcDbSymbolTableRecord
100
AcDbBlockTableRecord
  2
B-80
  0
ENDTAB
  0
ENDSEC
  0
SECTION
  2
BLOCKS
  0
BLOCK
  5
204
100
AcDbEntity
  8
0
100
AcDbBlockBegin
  2
*Model_Space
 70
     0
 10
0.000000
 20
0.000000
 30
0.000000
  3
*Model_Space
  1

  0
ENDBLK
  5
205
100
AcDbEntity
  8
0
100
AcDbBlockEnd
  0
BLOCK
  5
206
100
AcDbEntity
 67
     1
  8
0
100
AcDbBlockBegin
  2
*Paper_Space
 70
     0
 10
0.000000
 20
0.000000
 30
0.000000
  3
*Paper_Space
  1

  0
ENDBLK
  5
207
100
AcDbEntity
 67
     1
  8
0
100
AcDbBlockEnd
  0
BLOCK
  5
208
100
AcDbEntity
 67
     1
  8
0
100
AcDbBlockBegin
  2
*Paper_Space0
 70
     0
 10
0.000000
 20
0.000000
 30
0.000000
  3
*Paper_Space0
  1

  0
ENDBLK
  5
209
100
AcDbEntity
 67
     1
  8
0
100
AcDbBlockEnd
  0
BLOCK
  5
20A
100
AcDbEntity
  8
SCHRAFF
100
AcDbBlockBegin
  2
B
 70
    66
 10
0.000000
 20
0.000000
 30
0.000000
  0
HATCH
  5
20B
100
AcDbEntity
  8
SCHRAFF
  6
CONTINUOUS
 62
     9
100
AcDbHatch
 10
0.000000
 20
0.000000
 30
0.000000
210
0.000000
220
0.000000
230
1.000000
  2
_U
 70
     0
 71
     1
 91
     1
 92
    18
 72
     1
 73
     0
 93
     5
 10
-82.500018
 20
-35.499931
 42
0.000000
 10
-212.500018
 20
-35.499931
 42
0.000000
 10
-212.500018
 20
-40.499931
 42
0.000000
 10
-82.500018
 20
-40.499931
 42
0.000000
 10
-82.500018
 20
-35.499931
 42
0.000000
 97
     0
 75
     0
 76
     0
 52
0.000000
 41
1.000000
 77
     0
 78
     2
 53
90.000000
 43
-0.000000
 44
0.000000
 45
-10.000000
 46
0.000000
 79
     0
 53
90.000000
 43
-5.000000
 44
0.000000
 45
-10.000000
 46
0.000000
 79
     0
 98
     0
  0
ENDBLK
  5
20C
100
AcDbEntity
  8
0
100
AcDbBlockEnd
  0
BLOCK
  5
20D
100
AcDbEntity
  8
SCHRAFF
100
AcDbBlockBegin
  2
B-2
 70
    66
 10
0.000000
 20
0.000000
 30
0.000000
  0
LWPOLYLINE
  5
20E
100
AcDbEntity
  8
SCHRAFF
  6
CONTINUOUS
 62
     9
100
AcDbPolyline
 90
     6
 10
-212.494851
 20
25.978909
 42
-0.188669
 10
-204.976735
 20
43.713941
 42
-0.188834
 10
-186.825679
 20
51.673729
 42
-0.095930
 10
-176.728012
 20
49.483077
 42
0.000000
 10
-134.598800
 20
27.344420
 42
0.109524
 10
-123.183598
 20
24.500217
 42
0.000000
  0
LWPOLYLINE
  5
215
100
AcDbEntity
  8
SCHRAFF
  6
CONTINUOUS
 62
     9
100
AcDbPolyline
 90
     3
 10
-123.152283
 20
24.500217
 42
0.188718
 10
-105.013430
 20
32.459519
 42
0.188669
 10
-97.495314
 20
50.194548
 42
0.000000
  0
LWPOLYLINE
  5
219
100
AcDbEntity
  8
SCHRAFF
  6
CONTINUOUS
 62
     9
100
AcDbPolyline
 90
     8
 10
-97.495371
 20
53.156244
 42
0.188669
 10
-105.014189
 20
70.891061
 42
0.188833
 10
-123.165515
 20
78.850134
 42
0.109702
 10
-134.599730
 20
76.005003
 42
0.000000
 10
-175.391503
 20
54.518850
 42
-0.109701
 10
-186.825679
 20
51.673739
 42
-0.188834
 10
-204.977013
 20
59.632825
 42
-0.203214
 10
-212.495845
 20
78.848430
 42
0.000000
  0
LWPOLYLINE
  5
222
100
AcDbEntity
  8
SCHRAFF
  6
CONTINUOUS
 62
     9
100
AcDbPolyline
 90
    15
 10
-212.495862
 20
78.848432
 42
-0.206325
 10
-204.977774
 20
98.064353
 42
-0.191521
 10
-186.826718
 20
106.024141
 42
-0.096318
 10
-176.729051
 20
103.833489
 42
0.000000
 10
-134.599839
 20
81.694832
 42
0.110276
 10
-123.165515
 20
78.850138
 42
0.191521
 10
-105.014469
 20
86.809931
 42
0.206325
 10
-97.496381
 20
106.025859
 42
0.206325
 10
-105.015228
 20
125.241473
 42
0.191520
 10
-123.166554
 20
133.200546
 42
0.110276
 10
-134.600769
 20
130.355414
 42
0.000000
 10
-175.392542
 20
108.869262
 42
-0.110275
 10
-186.826718
 20
106.024151
 42
-0.191520
 10
-204.978052
 20
113.983236
 42
-0.206325
 10
-212.496884
 20
133.198842
 42
0.000000
  0
LWPOLYLINE
  5
232
100
AcDbEntity
  8
SCHRAFF
  6
CONTINUOUS
 62
     9
100
AcDbPolyline
 90
    15
 10
-212.496901
 20
133.198844
 42
-0.206325
 10
-204.978813
 20
152.414764
 42
-0.191521
 10
-186.827757
 20
160.374553
 42
-0.096318
 10
-176.730090
 20
158.183901
 42
0.000000
 10
-134.600878
 20
136.045244
 42
0.110276
 10
-123.166554
 20
133.200550
 42
0.191521
 10
-105.015508
 20
141.160343
 42
0.206325
 10
-97.497420
 20
160.376271
 42
0.206325
 10
-105.016267
 20
179.591885
 42
0.191520
 10
-123.167593
 20
187.550958
 42
0.110276
 10
-134.601808
 20
184.705826
 42
0.000000
 10
-175.393581
 20
163.219674
 42
-0.110275
 10
-186.827757
 20
160.374563
 42
-0.191520
 10
-204.979091
 20
168.333648
 42
-0.206325
 10
-212.497923
 20
187.549254
 42
0.000000
  0
LWPOLYLINE
  5
242
100
AcDbEntity
  8
SCHRAFF
  6
CONTINUOUS
 62
     9
100
AcDbPolyline
 90
    15
 10
-212.497940
 20
187.549256
 42
-0.206325
 10
-204.979852
 20
206.765176
 42
-0.191521
 10
-186.828796
 20
214.724965
 42
-0.096318
 10
-176.731129
 20
212.534313
 42
0.000000
 10
-134.601917
 20
190.395656
 42
0.110276
 10
-123.167593
 20
187.550962
 42
0.191521
 10
-105.016547
 20
195.510755
 42
0.206325
 10
-97.498459
 20
214.726683
 42
0.206325
 10
-105.017306
 20
233.942297
 42
0.191520
 10
-123.168632
 20
241.901370
 42
0.110276
 10
-134.602847
 20
239.056238
 42
0.000000
 10
-175.394620
 20
217.570086
 42
-0.110275
 10
-186.828796
 20
214.724975
 42
-0.191520
 10
-204.980130
 20
222.684060
 42
-0.206325
 10
-212.498962
 20
241.899666
 42
0.000000
  0
LWPOLYLINE
  5
252
100
AcDbEntity
  8
SCHRAFF
  6
CONTINUOUS
 62
     9
100
AcDbPolyline
 90
     8
 10
-212.499007
 20
243.380557
 42
-0.188669
 10
-204.980891
 20
261.115588
 42
-0.188834
 10
-186.829835
 20
269.075377
 42
-0.095930
 10
-176.732169
 20
266.884725
 42
0.000000
 10
-134.602956
 20
244.746068
 42
0.109702
 10
-123.168632
 20
241.901374
 42
0.188834
 10
-105.017586
 20
249.861167
 42
0.188669
 10
-97.499470
 20
267.596196
 42
0.000000
  0
LWPOLYLINE
  5
25B
100
AcDbEntity
  8
SCHRAFF
  6
CONTINUOUS
 62
     9
100
AcDbPolyline
 90
     3
 10
-97.499527
 20
270.557892
 42
0.188669
 10
-105.018345
 20
288.292709
 42
0.188435
 10
-123.127870
 20
296.250078
 42
0.000000
  0
LWPOLYLINE
  5
25F
100
AcDbEntity
  8
SCHRAFF
  6
CONTINUOUS
 62
     9
100
AcDbPolyline
 90
     6
 10
-123.233882
 20
296.250078
 42
0.109104
 10
-134.603886
 20
293.406650
 42
0.000000
 10
-175.395659
 20
271.920498
 42
-0.109701
 10
-186.829835
 20
269.075387
 42
-0.188834
 10
-204.981169
 20
277.034472
 42
-0.203214
 10
-212.500001
 20
296.250078
 42
0.000000
  0
ENDBLK
  5
266
100
AcDbEntity
  8
0
100
AcDbBlockEnd
  0
BLOCK
  5
267
100
AcDbEntity
  8
L
100
AcDbBlockBegin
  2
B-3
 70
    66
 10
0.000000
 20
0.000000
 30
0.000000
  0
LWPOLYLINE
  5
268
100
AcDbEntity
  8
L
  6
CONTINUOUS
 62
     3
100
AcDbPolyline
 90
     2
 10
-97.494823
 20
-35.499783
 42
0.000000
 10
-212.494823
 20
22.000217
 42
0.000000
  0
LWPOLYLINE
  5
26B
100
AcDbEntity
  8
L
  6
CONTINUOUS
 62
     3
100
AcDbPolyline
 90
     2
 10
-97.494823
 20
24.500217
 42
0.000000
 10
-212.494823
 20
-32.999783
 42
0.000000
  0
ENDBLK
  5
26E
100
AcDbEntity
  8
0
100
AcDbBlockEnd
  0
BLOCK
  5
26F
100
AcDbEntity
  8
SCHRAFF
100
AcDbBlockBegin
  2
B-4
 70
    66
 10
0.000000
 20
0.000000
 30
0.000000
  0
HATCH
  5
270
100
AcDbEntity
  8
SCHRAFF
  6
CONTINUOUS
 62
     9
100
AcDbHatch
 10
0.000000
 20
0.000000
 30
0.000000
210
0.000000
220
0.000000
230
1.000000
  2
_U
 70
     0
 71
     1
 91
     1
 92
    18
 72
     1
 73
     0
 93
     6
 10
-97.500018
 20
296.250078
 42
0.000000
 10
-97.494823
 20
-35.499783
 42
0.000000
 10
-82.500018
 20
-35.499931
 42
0.000000
 10
-82.494823
 20
-35.499783
 42
0.000000
 10
-82.500018
 20
296.250078
 42
0.000000
 10
-97.500018
 20
296.250078
 42
0.000000
 97
     0
 75
     0
 76
     0
 52
0.000000
 41
1.000000
 77
     0
 78
     3
 53
45.000000
 43
-0.000000
 44
0.000000
 45
-12.374369
 46
12.374369
 79
     0
 53
45.000000
 43
-1.767767
 44
1.767767
 45
-12.374369
 46
12.374369
 79
     0
 53
45.000000
 43
-3.535534
 44
3.535534
 45
-12.374369
 46
12.374369
 79
     0
 98
     0
  0
ENDBLK
  5
271
100
AcDbEntity
  8
0
100
AcDbBlockEnd
  0
BLOCK
  5
272
100
AcDbEntity
  8
SCHRAFF
100
AcDbBlockBegin
  2
B-5
 70
    66
 10
0.000000
 20
0.000000
 30
0.000000
  0
HATCH
  5
273
100
AcDbEntity
  8
SCHRAFF
  6
CONTINUOUS
 62
     9
100
AcDbHatch
 10
0.000000
 20
0.000000
 30
0.000000
210
0.000000
220
0.000000
230
1.000000
  2
_U
 70
     0
 71
     1
 91
     1
 92
    18
 72
     1
 73
     0
 93
     5
 10
-82.500018
 20
-40.499931
 42
0.000000
 10
-82.500018
 20
-196.249941
 42
0.000000
 10
-212.500018
 20
-196.249941
 42
0.000000
 10
-212.500018
 20
-40.499931
 42
0.000000
 10
-82.500018
 20
-40.499931
 42
0.000000
 97
     0
 75
     0
 76
     0
 52
0.000000
 41
1.000000
 77
     0
 78
     1
 53
45.000000
 43
-0.000000
 44
0.000000
 45
-17.677670
 46
17.677670
 79
     0
 98
     0
  0
ENDBLK
  5
274
100
AcDbEntity
  8
0
100
AcDbBlockEnd
  0
BLOCK
  5
275
100
AcDbEntity
  8
SCHRAFF
100
AcDbBlockBegin
  2
B-6
 70
    66
 10
0.000000
 20
0.000000
 30
0.000000
  0
HATCH
  5
276
100
AcDbEntity
  8
SCHRAFF
 62
   254
440
     0
100
AcDbHatch
 10
0.000000
 20
0.000000
 30
0.000000
210
0.000000
220
0.000000
230
1.000000
  2
SOLID
 70
     1
 71
     1
 91
     1
 92
    18
 72
     1
 73
     0
 93
     5
 10
-80.500018
 20
-44.999931
 42
0.000000
 10
-80.500018
 20
-30.999931
 42
0.000000
 10
-82.500018
 20
-30.999931
 42
0.000000
 10
-82.500018
 20
-44.999931
 42
0.000000
 10
-80.500018
 20
-44.999931
 42
0.000000
 97
     0
 75
     0
 76
     1
 98
     0
  0
HATCH
  5
277
100
AcDbEntity
  8
SCHRAFF
 62
   254
440
     0
100
AcDbHatch
 10
0.000000
 20
0.000000
 30
0.000000
210
0.000000
220
0.000000
230
1.000000
  2
SOLID
 70
     1
 71
     1
 91
     1
 92
    18
 72
     1
 73
     0
 93
     5
 10
-3.500018
 20
-42.999931
 42
0.000000
 10
-80.500018
 20
-42.999931
 42
0.000000
 10
-80.500018
 20
-44.999931
 42
0.000000
 10
-3.500018
 20
-44.999931
 42
0.000000
 10
-3.500018
 20
-42.999931
 42
0.000000
 97
     0
 75
     0
 76
     1
 98
     0
  0
HATCH
  5
278
100
AcDbEntity
  8
SCHRAFF
 62
   254
440
     0
100
AcDbHatch
 10
0.000000
 20
0.000000
 30
0.000000
210
0.000000
220
0.000000
230
1.000000
  2
SOLID
 70
     1
 71
     1
 91
     1
 92
    18
 72
     1
 73
     0
 93
     5
 10
-3.500018
 20
-30.999931
 42
0.000000
 10
-80.500018
 20
-30.999931
 42
0.000000
 10
-80.500018
 20
-32.999931
 42
0.000000
 10
-3.500018
 20
-32.999931
 42
0.000000
 10
-3.500018
 20
-30.999931
 42
0.000000
 97
     0
 75
     0
 76
     1
 98
     0
  0
ENDBLK
  5
279
100
AcDbEntity
  8
0
100
AcDbBlockEnd
  0
BLOCK
  5
27A
100
AcDbEntity
  8
Detail
100
AcDbBlockBegin
  2
B-7
 70
    66
 10
0.000000
 20
0.000000
 30
0.000000
  0
LWPOLYLINE
  5
27B
100
AcDbEntity
  8
Detail
  6
CONTINUOUS
 62
     6
100
AcDbPolyline
 90
     5
 10
-82.500018
 20
-44.999931
 42
0.000000
 10
-80.500018
 20
-44.999931
 42
0.000000
 10
-80.500018
 20
-30.999931
 42
0.000000
 10
-82.500018
 20
-30.999931
 42
0.000000
 10
-82.500018
 20
-44.999931
 42
0.000000
  0
LWPOLYLINE
  5
281
100
AcDbEntity
  8
Detail
  6
CONTINUOUS
 62
     6
100
AcDbPolyline
 90
     5
 10
-80.500018
 20
-44.999931
 42
0.000000
 10
-3.500018
 20
-44.999931
 42
0.000000
 10
-3.500018
 20
-42.999931
 42
0.000000
 10
-80.500018
 20
-42.999931
 42
0.000000
 10
-80.500018
 20
-44.999931
 42
0.000000
  0
LWPOLYLINE
  5
287
100
AcDbEntity
  8
Detail
  6
CONTINUOUS
 62
     6
100
AcDbPolyline
 90
     5
 10
-80.500018
 20
-30.999931
 42
0.000000
 10
-3.500018
 20
-30.999931
 42
0.000000
 10
-3.500018
 20
-32.999931
 42
0.000000
 10
-80.500018
 20
-32.999931
 42
0.000000
 10
-80.500018
 20
-30.999931
 42
0.000000
  0
ENDBLK
  5
28D
100
AcDbEntity
  8
0
100
AcDbBlockEnd
  0
BLOCK
  5
28E
100
AcDbEntity
  8
SCHRAFF
100
AcDbBlockBegin
  2
B-8
 70
    66
 10
0.000000
 20
0.000000
 30
0.000000
  0
HATCH
  5
28F
100
AcDbEntity
  8
SCHRAFF
 62
    21
440
     0
100
AcDbHatch
 10
0.000000
 20
0.000000
 30
0.000000
210
0.000000
220
0.000000
230
1.000000
  2
SOLID
 70
     1
 71
     1
 91
     1
 92
    18
 72
     1
 73
     0
 93
   367
 10
6.499982
 20
296.250078
 42
0.000000
 10
6.499982
 20
-64.037621
 42
0.000000
 10
8.499982
 20
-66.037621
 42
0.000000
 10
8.499982
 20
-65.171504
 42
0.000000
 10
8.999982
 20
-64.171504
 42
0.000000
 10
8.499982
 20
-63.171504
 42
0.000000
 10
8.499982
 20
-62.171504
 42
0.000000
 10
7.999982
 20
-61.171504
 42
0.000000
 10
8.499982
 20
-60.171504
 42
0.000000
 10
8.499982
 20
-59.171504
 42
0.000000
 10
8.999982
 20
-58.171504
 42
0.000000
 10
8.499982
 20
-57.171504
 42
0.000000
 10
8.499982
 20
-56.171504
 42
0.000000
 10
7.999982
 20
-55.171504
 42
0.000000
 10
8.499982
 20
-54.171504
 42
0.000000
 10
8.499982
 20
-53.179171
 42
0.000000
 10
8.999982
 20
-52.171504
 42
0.000000
 10
8.499982
 20
-51.171504
 42
0.000000
 10
8.499982
 20
-50.171504
 42
0.000000
 10
7.999982
 20
-49.171504
 42
0.000000
 10
8.499982
 20
-48.171504
 42
0.000000
 10
8.499982
 20
-47.171504
 42
0.000000
 10
8.999982
 20
-46.171504
 42
0.000000
 10
8.499982
 20
-45.171504
 42
0.000000
 10
8.499982
 20
-44.171504
 42
0.000000
 10
7.999982
 20
-43.171504
 42
0.000000
 10
8.499982
 20
-42.171504
 42
0.000000
 10
8.499982
 20
-41.171504
 42
0.000000
 10
8.999982
 20
-40.171504
 42
0.000000
 10
8.499982
 20
-39.171504
 42
0.000000
 10
8.499982
 20
-38.171504
 42
0.000000
 10
7.999982
 20
-37.171504
 42
0.000000
 10
8.499982
 20
-36.171504
 42
0.000000
 10
8.499982
 20
-35.171504
 42
0.000000
 10
8.999982
 20
-34.171504
 42
0.000000
 10
8.499982
 20
-33.171504
 42
0.000000
 10
8.499982
 20
-32.171504
 42
0.000000
 10
7.999982
 20
-31.171504
 42
0.000000
 10
8.499982
 20
-30.171504
 42
0.000000
 10
8.499982
 20
-29.171504
 42
0.000000
 10
8.999982
 20
-28.171504
 42
0.000000
 10
8.499982
 20
-27.171504
 42
0.000000
 10
8.499982
 20
-26.171504
 42
0.000000
 10
7.999982
 20
-25.171504
 42
0.000000
 10
8.499982
 20
-24.171504
 42
0.000000
 10
8.499982
 20
-23.171504
 42
0.000000
 10
8.999982
 20
-22.171504
 42
0.000000
 10
8.499982
 20
-21.171504
 42
0.000000
 10
8.499982
 20
-20.171504
 42
0.000000
 10
7.999982
 20
-19.171504
 42
0.000000
 10
8.499982
 20
-18.171504
 42
0.000000
 10
8.499982
 20
-17.171504
 42
0.000000
 10
8.999982
 20
-16.171504
 42
0.000000
 10
8.499982
 20
-15.171504
 42
0.000000
 10
8.499982
 20
-14.171504
 42
0.000000
 10
7.999982
 20
-13.171504
 42
0.000000
 10
8.499982
 20
-12.171504
 42
0.000000
 10
8.499982
 20
-11.171504
 42
0.000000
 10
8.999982
 20
-10.171504
 42
0.000000
 10
8.499982
 20
-9.171504
 42
0.000000
 10
8.499982
 20
-8.171504
 42
0.000000
 10
7.999982
 20
-7.171504
 42
0.000000
 10
8.499982
 20
-6.171504
 42
0.000000
 10
8.499982
 20
-5.171504
 42
0.000000
 10
8.999982
 20
-4.171504
 42
0.000000
 10
8.499982
 20
-3.171504
 42
0.000000
 10
8.499982
 20
-2.171504
 42
0.000000
 10
7.999982
 20
-1.171504
 42
0.000000
 10
8.499982
 20
-0.171504
 42
0.000000
 10
8.499982
 20
0.828496
 42
0.000000
 10
8.999982
 20
1.828496
 42
0.000000
 10
8.499982
 20
2.828496
 42
0.000000
 10
8.499982
 20
3.828496
 42
0.000000
 10
7.999982
 20
4.828496
 42
0.000000
 10
8.499982
 20
5.828496
 42
0.000000
 10
8.499982
 20
6.828496
 42
0.000000
 10
8.999982
 20
7.828496
 42
0.000000
 10
8.499982
 20
8.828496
 42
0.000000
 10
8.499982
 20
9.828496
 42
0.000000
 10
7.999982
 20
10.828496
 42
0.000000
 10
8.499982
 20
11.828496
 42
0.000000
 10
8.499982
 20
12.828496
 42
0.000000
 10
8.999982
 20
13.828496
 42
0.000000
 10
8.499982
 20
14.828496
 42
0.000000
 10
8.499982
 20
15.828496
 42
0.000000
 10
7.999982
 20
16.828496
 42
0.000000
 10
8.499982
 20
17.828496
 42
0.000000
 10
8.499982
 20
18.828496
 42
0.000000
 10
8.999982
 20
19.828496
 42
0.000000
 10
8.499982
 20
20.828496
 42
0.000000
 10
8.499982
 20
21.828496
 42
0.000000
 10
7.999982
 20
22.828496
 42
0.000000
 10
8.499982
 20
23.828496
 42
0.000000
 10
8.499982
 20
24.828496
 42
0.000000
 10
8.999982
 20
25.828496
 42
0.000000
 10
8.499982
 20
26.828496
 42
0.000000
 10
8.499982
 20
27.828496
 42
0.000000
 10
7.999982
 20
28.828496
 42
0.000000
 10
8.499982
 20
29.828496
 42
0.000000
 10
8.499982
 20
30.828496
 42
0.000000
 10
8.999982
 20
31.828496
 42
0.000000
 10
8.499982
 20
32.828496
 42
0.000000
 10
8.499982
 20
33.828496
 42
0.000000
 10
7.999982
 20
34.828496
 42
0.000000
 10
8.499982
 20
35.828496
 42
0.000000
 10
8.499982
 20
36.828496
 42
0.000000
 10
8.999982
 20
37.828496
 42
0.000000
 10
8.499982
 20
38.828496
 42
0.000000
 10
8.499982
 20
39.828496
 42
0.000000
 10
7.999982
 20
40.828496
 42
0.000000
 10
8.499982
 20
41.828496
 42
0.000000
 10
8.499982
 20
42.828496
 42
0.000000
 10
8.999982
 20
43.828496
 42
0.000000
 10
8.499982
 20
44.828496
 42
0.000000
 10
8.499982
 20
45.828496
 42
0.000000
 10
7.999982
 20
46.828496
 42
0.000000
 10
8.499982
 20
47.828496
 42
0.000000
 10
8.499982
 20
48.828496
 42
0.000000
 10
8.999982
 20
49.828496
 42
0.000000
 10
8.499982
 20
50.828496
 42
0.000000
 10
8.499982
 20
51.828496
 42
0.000000
 10
7.999982
 20
52.828496
 42
0.000000
 10
8.499982
 20
53.828496
 42
0.000000
 10
8.499982
 20
54.828496
 42
0.000000
 10
8.999982
 20
55.828496
 42
0.000000
 10
8.499982
 20
56.828496
 42
0.000000
 10
8.499982
 20
57.828496
 42
0.000000
 10
7.999982
 20
58.828496
 42
0.000000
 10
8.499982
 20
59.828496
 42
0.000000
 10
8.499982
 20
60.828496
 42
0.000000
 10
8.999982
 20
61.828496
 42
0.000000
 10
8.499982
 20
62.828496
 42
0.000000
 10
8.499982
 20
63.828496
 42
0.000000
 10
7.999982
 20
64.828496
 42
0.000000
 10
8.499982
 20
65.828496
 42
0.000000
 10
8.499982
 20
66.828496
 42
0.000000
 10
8.999982
 20
67.828496
 42
0.000000
 10
8.499982
 20
68.828496
 42
0.000000
 10
8.499982
 20
69.828496
 42
0.000000
 10
7.999982
 20
70.828496
 42
0.000000
 10
8.499982
 20
71.828496
 42
0.000000
 10
8.499982
 20
72.828496
 42
0.000000
 10
8.999982
 20
73.828496
 42
0.000000
 10
8.499982
 20
74.828496
 42
0.000000
 10
8.499982
 20
75.828496
 42
0.000000
 10
7.999982
 20
76.828496
 42
0.000000
 10
8.499982
 20
77.828496
 42
0.000000
 10
8.499982
 20
78.828496
 42
0.000000
 10
8.999982
 20
79.828496
 42
0.000000
 10
8.499982
 20
80.828496
 42
0.000000
 10
8.499982
 20
81.828496
 42
0.000000
 10
7.999982
 20
82.828496
 42
0.000000
 10
8.499982
 20
83.828496
 42
0.000000
 10
8.499982
 20
84.820829
 42
0.000000
 10
8.999982
 20
85.828496
 42
0.000000
 10
8.499982
 20
86.828496
 42
0.000000
 10
8.499982
 20
87.828496
 42
0.000000
 10
7.999982
 20
88.828496
 42
0.000000
 10
8.499982
 20
89.828496
 42
0.000000
 10
8.499982
 20
90.828496
 42
0.000000
 10
8.999982
 20
91.828496
 42
0.000000
 10
8.499982
 20
92.828496
 42
0.000000
 10
8.499982
 20
93.828496
 42
0.000000
 10
7.999982
 20
94.828496
 42
0.000000
 10
8.499982
 20
95.828496
 42
0.000000
 10
8.499982
 20
96.828496
 42
0.000000
 10
8.999982
 20
97.828496
 42
0.000000
 10
8.499982
 20
98.828496
 42
0.000000
 10
8.499982
 20
99.828496
 42
0.000000
 10
7.999982
 20
100.828496
 42
0.000000
 10
8.499982
 20
101.828496
 42
0.000000
 10
8.499982
 20
102.828496
 42
0.000000
 10
8.999982
 20
103.828496
 42
0.000000
 10
8.499982
 20
104.828496
 42
0.000000
 10
8.499982
 20
105.828496
 42
0.000000
 10
7.999982
 20
106.828496
 42
0.000000
 10
8.499982
 20
107.828496
 42
0.000000
 10
8.499982
 20
108.828496
 42
0.000000
 10
8.999982
 20
109.828496
 42
0.000000
 10
8.499982
 20
110.828496
 42
0.000000
 10
8.499982
 20
111.828496
 42
0.000000
 10
7.999982
 20
112.828496
 42
0.000000
 10
8.499982
 20
113.828496
 42
0.000000
 10
8.499982
 20
114.828496
 42
0.000000
 10
8.999982
 20
115.828496
 42
0.000000
 10
8.504380
 20
116.819699
 42
0.000000
 10
8.499982
 20
117.828496
 42
0.000000
 10
7.999982
 20
118.828496
 42
0.000000
 10
8.499982
 20
119.828496
 42
0.000000
 10
8.499982
 20
120.828496
 42
0.000000
 10
8.999982
 20
121.828496
 42
0.000000
 10
8.499982
 20
122.828496
 42
0.000000
 10
8.499982
 20
123.828496
 42
0.000000
 10
7.999982
 20
124.828496
 42
0.000000
 10
8.499982
 20
125.828496
 42
0.000000
 10
8.499982
 20
126.828496
 42
0.000000
 10
8.999982
 20
127.828496
 42
0.000000
 10
8.499982
 20
128.828496
 42
0.000000
 10
8.499982
 20
129.828496
 42
0.000000
 10
7.999982
 20
130.828496
 42
0.000000
 10
8.499982
 20
131.828496
 42
0.000000
 10
8.499982
 20
132.828496
 42
0.000000
 10
8.999982
 20
133.828496
 42
0.000000
 10
8.499982
 20
134.828496
 42
0.000000
 10
8.499982
 20
135.828496
 42
0.000000
 10
7.999982
 20
136.828496
 42
0.000000
 10
8.499982
 20
137.828496
 42
0.000000
 10
8.499982
 20
138.828496
 42
0.000000
 10
8.999982
 20
139.828496
 42
0.000000
 10
8.499982
 20
140.828496
 42
0.000000
 10
8.499982
 20
141.828496
 42
0.000000
 10
7.999982
 20
142.828496
 42
0.000000
 10
8.499982
 20
143.828496
 42
0.000000
 10
8.499982
 20
144.828496
 42
0.000000
 10
8.999982
 20
145.828496
 42
0.000000
 10
8.499982
 20
146.828496
 42
0.000000
 10
8.499982
 20
147.828496
 42
0.000000
 10
7.999982
 20
148.828496
 42
0.000000
 10
8.499982
 20
149.828496
 42
0.000000
 10
8.499982
 20
150.828496
 42
0.000000
 10
8.999982
 20
151.828496
 42
0.000000
 10
8.499982
 20
152.828496
 42
0.000000
 10
8.499982
 20
153.828496
 42
0.000000
 10
7.999982
 20
154.828496
 42
0.000000
 10
8.499982
 20
155.828496
 42
0.000000
 10
8.499982
 20
156.828496
 42
0.000000
 10
8.999982
 20
157.828496
 42
0.000000
 10
8.499982
 20
158.828496
 42
0.000000
 10
8.499982
 20
159.828496
 42
0.000000
 10
7.999982
 20
160.828496
 42
0.000000
 10
8.499982
 20
161.828496
 42
0.000000
 10
8.499982
 20
162.828496
 42
0.000000
 10
8.999982
 20
163.828496
 42
0.000000
 10
8.499982
 20
164.828496
 42
0.000000
 10
8.499982
 20
165.828496
 42
0.000000
 10
7.999982
 20
166.828496
 42
0.000000
 10
8.499982
 20
167.828496
 42
0.000000
 10
8.499982
 20
168.828496
 42
0.000000
 10
8.999982
 20
169.828496
 42
0.000000
 10
8.499982
 20
170.828496
 42
0.000000
 10
8.499982
 20
171.828496
 42
0.000000
 10
7.999982
 20
172.828496
 42
0.000000
 10
8.499982
 20
173.828496
 42
0.000000
 10
8.499982
 20
174.828496
 42
0.000000
 10
8.999982
 20
175.828496
 42
0.000000
 10
8.499982
 20
176.828496
 42
0.000000
 10
8.499982
 20
177.828496
 42
0.000000
 10
7.999982
 20
178.828496
 42
0.000000
 10
8.499982
 20
179.828496
 42
0.000000
 10
8.499982
 20
180.828496
 42
0.000000
 10
8.999982
 20
181.828496
 42
0.000000
 10
8.499982
 20
182.828496
 42
0.000000
 10
8.499982
 20
183.828496
 42
0.000000
 10
7.999982
 20
184.828496
 42
0.000000
 10
8.499982
 20
185.828496
 42
0.000000
 10
8.499982
 20
186.828496
 42
0.000000
 10
8.999982
 20
187.828496
 42
0.000000
 10
8.499982
 20
188.828496
 42
0.000000
 10
8.499982
 20
189.828496
 42
0.000000
 10
7.999982
 20
190.828496
 42
0.000000
 10
8.499982
 20
191.828496
 42
0.000000
 10
8.499982
 20
192.820829
 42
0.000000
 10
8.999982
 20
193.828496
 42
0.000000
 10
8.499982
 20
194.828496
 42
0.000000
 10
8.499982
 20
195.828496
 42
0.000000
 10
7.999982
 20
196.828496
 42
0.000000
 10
8.499982
 20
197.828496
 42
0.000000
 10
8.499982
 20
198.828496
 42
0.000000
 10
8.999982
 20
199.828496
 42
0.000000
 10
8.499982
 20
200.828496
 42
0.000000
 10
8.499982
 20
201.828496
 42
0.000000
 10
7.999982
 20
202.828496
 42
0.000000
 10
8.499982
 20
203.828496
 42
0.000000
 10
8.499982
 20
204.828496
 42
0.000000
 10
8.999982
 20
205.828496
 42
0.000000
 10
8.499982
 20
206.828496
 42
0.000000
 10
8.499982
 20
207.828496
 42
0.000000
 10
7.999982
 20
208.828496
 42
0.000000
 10
8.499982
 20
209.828496
 42
0.000000
 10
8.499982
 20
210.828496
 42
0.000000
 10
8.999982
 20
211.828496
 42
0.000000
 10
8.499982
 20
212.828496
 42
0.000000
 10
8.499982
 20
213.828496
 42
0.000000
 10
7.999982
 20
214.828496
 42
0.000000
 10
8.499982
 20
215.828496
 42
0.000000
 10
8.499982
 20
216.828496
 42
0.000000
 10
8.999982
 20
217.828496
 42
0.000000
 10
8.499982
 20
218.828496
 42
0.000000
 10
8.499982
 20
219.828496
 42
0.000000
 10
7.999982
 20
220.828496
 42
0.000000
 10
8.499982
 20
221.828496
 42
0.000000
 10
8.499982
 20
222.828496
 42
0.000000
 10
8.999982
 20
223.828496
 42
0.000000
 10
8.499982
 20
224.828496
 42
0.000000
 10
8.499982
 20
225.828496
 42
0.000000
 10
7.999982
 20
226.828496
 42
0.000000
 10
8.499982
 20
227.828496
 42
0.000000
 10
8.499982
 20
228.820829
 42
0.000000
 10
8.999982
 20
229.828496
 42
0.000000
 10
8.499982
 20
230.828496
 42
0.000000
 10
8.499982
 20
231.828496
 42
0.000000
 10
7.999982
 20
232.828496
 42
0.000000
 10
8.499982
 20
233.828496
 42
0.000000
 10
8.499982
 20
234.828496
 42
0.000000
 10
8.999982
 20
235.828496
 42
0.000000
 10
8.499982
 20
236.828496
 42
0.000000
 10
8.499982
 20
237.828496
 42
0.000000
 10
7.999982
 20
238.828496
 42
0.000000
 10
8.499982
 20
239.828496
 42
0.000000
 10
8.499982
 20
240.828396
 42
0.000000
 10
8.999982
 20
241.828396
 42
0.000000
 10
8.499982
 20
242.828496
 42
0.000000
 10
8.499982
 20
243.828496
 42
0.000000
 10
7.999982
 20
244.828496
 42
0.000000
 10
8.499982
 20
245.828496
 42
0.000000
 10
8.499982
 20
246.828496
 42
0.000000
 10
8.999982
 20
247.828496
 42
0.000000
 10
8.499982
 20
248.828496
 42
0.000000
 10
8.499982
 20
249.828496
 42
0.000000
 10
7.999982
 20
250.828496
 42
0.000000
 10
8.499982
 20
251.828496
 42
0.000000
 10
8.499982
 20
252.828496
 42
0.000000
 10
8.999982
 20
253.828496
 42
0.000000
 10
8.499982
 20
254.828496
 42
0.000000
 10
8.499982
 20
255.814488
 42
0.000000
 10
7.999982
 20
256.828496
 42
0.000000
 10
8.499982
 20
257.828496
 42
0.000000
 10
8.499982
 20
258.820829
 42
0.000000
 10
8.999982
 20
259.828496
 42
0.000000
 10
8.499982
 20
260.828496
 42
0.000000
 10
8.499982
 20
261.828496
 42
0.000000
 10
7.999982
 20
262.828496
 42
0.000000
 10
8.499982
 20
263.828496
 42
0.000000
 10
8.499982
 20
264.828496
 42
0.000000
 10
8.999982
 20
265.828496
 42
0.000000
 10
8.499982
 20
266.828496
 42
0.000000
 10
8.499982
 20
267.828496
 42
0.000000
 10
7.999982
 20
268.828496
 42
0.000000
 10
8.499982
 20
269.828496
 42
0.000000
 10
8.499982
 20
270.828496
 42
0.000000
 10
8.999982
 20
271.828496
 42
0.000000
 10
8.499982
 20
272.828496
 42
0.000000
 10
8.499982
 20
273.828496
 42
0.000000
 10
7.999982
 20
274.828496
 42
0.000000
 10
8.499982
 20
275.828496
 42
0.000000
 10
8.499982
 20
276.828496
 42
0.000000
 10
8.999982
 20
277.828496
 42
0.000000
 10
8.499982
 20
278.828496
 42
0.000000
 10
8.499982
 20
279.828496
 42
0.000000
 10
7.999982
 20
280.828496
 42
0.000000
 10
8.499982
 20
281.828496
 42
0.000000
 10
8.499982
 20
282.828496
 42
0.000000
 10
8.999982
 20
283.828496
 42
0.000000
 10
8.499982
 20
284.828496
 42
0.000000
 10
8.499982
 20
285.828496
 42
0.000000
 10
7.999982
 20
286.828496
 42
0.000000
 10
8.499982
 20
287.828496
 42
0.000000
 10
8.499982
 20
288.828496
 42
0.000000
 10
8.999982
 20
289.828496
 42
0.000000
 10
8.499982
 20
290.828496
 42
0.000000
 10
8.499982
 20
291.828496
 42
0.000000
 10
7.999982
 20
292.828496
 42
0.000000
 10
8.499982
 20
293.828496
 42
0.000000
 10
8.499982
 20
294.820829
 42
0.000000
 10
8.999982
 20
295.828496
 42
0.000000
 10
8.789191
 20
296.250078
 42
0.000000
 10
6.499982
 20
296.250078
 42
0.000000
 97
     0
 75
     0
 76
     1
 98
     0
  0
ENDBLK
  5
290
100
AcDbEntity
  8
0
100
AcDbBlockEnd
  0
BLOCK
  5
291
100
AcDbEntity
  8
SCHRAFF
100
AcDbBlockBegin
  2
B-9
 70
    66
 10
0.000000
 20
0.000000
 30
0.000000
  0
HATCH
  5
292
100
AcDbEntity
  8
SCHRAFF
 62
     9
440
     0
100
AcDbHatch
 10
0.000000
 20
0.000000
 30
0.000000
210
0.000000
220
0.000000
230
1.000000
  2
SOLID
 70
     1
 71
     1
 91
     1
 92
    18
 72
     1
 73
     0
 93
     8
 10
6.499982
 20
-28.999931
 42
0.000000
 10
6.499982
 20
296.250078
 42
0.000000
 10
2.499982
 20
296.250078
 42
0.000000
 10
2.499982
 20
-28.999931
 42
0.000000
 10
5.749982
 20
-28.999931
 42
0.000000
 10
5.749982
 20
-63.287621
 42
0.000000
 10
6.499982
 20
-64.037621
 42
0.000000
 10
6.499982
 20
-28.999931
 42
0.000000
 97
     0
 75
     0
 76
     1
 98
     0
  0
ENDBLK
  5
293
100
AcDbEntity
  8
0
100
AcDbBlockEnd
  0
BLOCK
  5
294
100
AcDbEntity
  8
SCHRAFF
100
AcDbBlockBegin
  2
B-10
 70
    66
 10
0.000000
 20
0.000000
 30
0.000000
  0
HATCH
  5
295
100
AcDbEntity
  8
SCHRAFF
 62
    21
440
     0
100
AcDbHatch
 10
0.000000
 20
0.000000
 30
0.000000
210
0.000000
220
0.000000
230
1.000000
  2
SOLID
 70
     1
 71
     1
 91
     1
 92
    18
 72
     1
 73
     0
 93
   120
 10
6.499982
 20
-77.749931
 42
0.000000
 10
6.499982
 20
-196.249941
 42
0.000000
 10
8.499982
 20
-196.249941
 42
0.000000
 10
8.499982
 20
-195.999931
 42
0.000000
 10
7.999982
 20
-194.999931
 42
0.000000
 10
8.499982
 20
-193.999931
 42
0.000000
 10
8.499982
 20
-192.999931
 42
0.000000
 10
8.999982
 20
-191.999931
 42
0.000000
 10
8.499982
 20
-190.999931
 42
0.000000
 10
8.499982
 20
-189.999931
 42
0.000000
 10
7.999982
 20
-188.999931
 42
0.000000
 10
8.499982
 20
-187.999931
 42
0.000000
 10
8.499982
 20
-186.999931
 42
0.000000
 10
8.999982
 20
-185.999931
 42
0.000000
 10
8.499982
 20
-184.999931
 42
0.000000
 10
8.499982
 20
-183.999931
 42
0.000000
 10
7.999982
 20
-182.999931
 42
0.000000
 10
8.499982
 20
-181.999931
 42
0.000000
 10
8.499982
 20
-180.999931
 42
0.000000
 10
8.999982
 20
-179.999931
 42
0.000000
 10
8.499982
 20
-178.999931
 42
0.000000
 10
8.499982
 20
-177.999931
 42
0.000000
 10
7.999982
 20
-176.999931
 42
0.000000
 10
8.499982
 20
-175.999931
 42
0.000000
 10
8.499982
 20
-174.999931
 42
0.000000
 10
8.999982
 20
-173.999931
 42
0.000000
 10
8.499982
 20
-172.999931
 42
0.000000
 10
8.499982
 20
-171.999931
 42
0.000000
 10
7.999982
 20
-170.999931
 42
0.000000
 10
8.499982
 20
-169.999931
 42
0.000000
 10
8.499982
 20
-168.999931
 42
0.000000
 10
8.999982
 20
-167.999931
 42
0.000000
 10
8.499982
 20
-166.999931
 42
0.000000
 10
8.499982
 20
-165.999931
 42
0.000000
 10
7.999982
 20
-164.999931
 42
0.000000
 10
8.499982
 20
-163.999931
 42
0.000000
 10
8.499982
 20
-162.999931
 42
0.000000
 10
8.999982
 20
-161.999931
 42
0.000000
 10
8.499982
 20
-160.999931
 42
0.000000
 10
8.499982
 20
-159.999931
 42
0.000000
 10
7.999982
 20
-158.999931
 42
0.000000
 10
8.499982
 20
-157.999931
 42
0.000000
 10
8.499982
 20
-156.999931
 42
0.000000
 10
8.999982
 20
-155.999931
 42
0.000000
 10
8.499982
 20
-154.999931
 42
0.000000
 10
8.499982
 20
-153.999931
 42
0.000000
 10
7.999982
 20
-152.999931
 42
0.000000
 10
8.499982
 20
-151.999931
 42
0.000000
 10
8.499982
 20
-150.999931
 42
0.000000
 10
8.999982
 20
-149.999931
 42
0.000000
 10
8.499982
 20
-148.999931
 42
0.000000
 10
8.499982
 20
-147.999931
 42
0.000000
 10
7.999982
 20
-146.999931
 42
0.000000
 10
8.499982
 20
-145.999931
 42
0.000000
 10
8.499982
 20
-144.999931
 42
0.000000
 10
8.999982
 20
-143.999931
 42
0.000000
 10
8.499982
 20
-142.999931
 42
0.000000
 10
8.499982
 20
-141.999931
 42
0.000000
 10
7.999982
 20
-140.999931
 42
0.000000
 10
8.499982
 20
-139.999931
 42
0.000000
 10
8.499982
 20
-138.999931
 42
0.000000
 10
8.999982
 20
-137.999931
 42
0.000000
 10
8.499982
 20
-136.999931
 42
0.000000
 10
8.499982
 20
-135.999931
 42
0.000000
 10
7.999982
 20
-134.999931
 42
0.000000
 10
8.499982
 20
-133.999931
 42
0.000000
 10
8.499982
 20
-132.999931
 42
0.000000
 10
8.999982
 20
-131.999931
 42
0.000000
 10
8.499982
 20
-130.999931
 42
0.000000
 10
8.499982
 20
-129.999931
 42
0.000000
 10
7.999982
 20
-128.999931
 42
0.000000
 10
8.499982
 20
-127.999931
 42
0.000000
 10
8.499982
 20
-126.999931
 42
0.000000
 10
8.999982
 20
-125.999931
 42
0.000000
 10
8.499982
 20
-124.992265
 42
0.000000
 10
8.499982
 20
-123.999931
 42
0.000000
 10
7.999982
 20
-122.999931
 42
0.000000
 10
8.499982
 20
-121.999931
 42
0.000000
 10
8.499982
 20
-120.999931
 42
0.000000
 10
8.999982
 20
-119.999931
 42
0.000000
 10
8.499982
 20
-118.999931
 42
0.000000
 10
8.499982
 20
-117.999931
 42
0.000000
 10
7.999982
 20
-116.999931
 42
0.000000
 10
8.499982
 20
-115.999931
 42
0.000000
 10
8.499982
 20
-114.999931
 42
0.000000
 10
8.999982
 20
-113.999931
 42
0.000000
 10
8.499982
 20
-112.999931
 42
0.000000
 10
8.499982
 20
-111.999931
 42
0.000000
 10
7.999982
 20
-110.999931
 42
0.000000
 10
8.499982
 20
-109.999931
 42
0.000000
 10
8.499982
 20
-108.999931
 42
0.000000
 10
8.999982
 20
-107.999931
 42
0.000000
 10
8.499982
 20
-106.999931
 42
0.000000
 10
8.499982
 20
-105.999931
 42
0.000000
 10
7.999982
 20
-104.999931
 42
0.000000
 10
8.499982
 20
-103.999931
 42
0.000000
 10
8.499982
 20
-102.999931
 42
0.000000
 10
8.992904
 20
-101.985775
 42
0.000000
 10
8.499982
 20
-100.999931
 42
0.000000
 10
8.499982
 20
-99.999931
 42
0.000000
 10
7.999982
 20
-98.999931
 42
0.000000
 10
8.499982
 20
-97.999931
 42
0.000000
 10
8.499982
 20
-96.999931
 42
0.000000
 10
8.999982
 20
-95.999931
 42
0.000000
 10
8.499982
 20
-94.999931
 42
0.000000
 10
8.499982
 20
-93.999931
 42
0.000000
 10
7.999982
 20
-92.999931
 42
0.000000
 10
8.499982
 20
-91.999931
 42
0.000000
 10
8.499982
 20
-90.999931
 42
0.000000
 10
8.992904
 20
-89.985775
 42
0.000000
 10
8.499982
 20
-88.999931
 42
0.000000
 10
8.499982
 20
-87.999931
 42
0.000000
 10
7.999982
 20
-86.999931
 42
0.000000
 10
8.499982
 20
-85.999931
 42
0.000000
 10
8.499982
 20
-84.999931
 42
0.000000
 10
8.992904
 20
-83.985775
 42
0.000000
 10
8.499982
 20
-82.999931
 42
0.000000
 10
8.499982
 20
-79.724941
 42
0.000000
 10
8.499982
 20
-79.749931
 42
0.000000
 10
6.499982
 20
-77.749931
 42
0.000000
 97
     0
 75
     0
 76
     1
 98
     0
  0
ENDBLK
  5
296
100
AcDbEntity
  8
0
100
AcDbBlockEnd
  0
BLOCK
  5
297
100
AcDbEntity
  8
Detail
100
AcDbBlockBegin
  2
B-11
 70
    66
 10
0.000000
 20
0.000000
 30
0.000000
  0
LWPOLYLINE
  5
298
100
AcDbEntity
  8
Detail
  6
CONTINUOUS
 62
     6
100
AcDbPolyline
 90
     7
 10
2.499982
 20
296.250078
 42
0.000000
 10
2.499982
 20
-28.999931
 42
0.000000
 10
5.749982
 20
-28.999931
 42
0.000000
 10
5.749982
 20
-63.287621
 42
0.000000
 10
6.499982
 20
-64.037621
 42
0.000000
 10
6.499982
 20
-28.999931
 42
0.000000
 10
6.499982
 20
296.250078
 42
0.000000
  0
ENDBLK
  5
2A0
100
AcDbEntity
  8
0
100
AcDbBlockEnd
  0
BLOCK
  5
2A1
100
AcDbEntity
  8
SCHRAFF
100
AcDbBlockBegin
  2
B-12
 70
    66
 10
0.000000
 20
0.000000
 30
0.000000
  0
HATCH
  5
2A2
100
AcDbEntity
  8
SCHRAFF
 62
     9
440
     0
100
AcDbHatch
 10
0.000000
 20
0.000000
 30
0.000000
210
0.000000
220
0.000000
230
1.000000
  2
SOLID
 70
     1
 71
     1
 91
     1
 92
    18
 72
     1
 73
     0
 93
     5
 10
6.499982
 20
-196.249941
 42
0.000000
 10
6.499982
 20
-77.749931
 42
0.000000
 10
2.499982
 20
-73.749931
 42
0.000000
 10
2.499982
 20
-196.249941
 42
0.000000
 10
6.499982
 20
-196.249941
 42
0.000000
 97
     0
 75
     0
 76
     1
 98
     0
  0
ENDBLK
  5
2A3
100
AcDbEntity
  8
0
100
AcDbBlockEnd
  0
BLOCK
  5
2A4
100
AcDbEntity
  8
SCHRAFF
100
AcDbBlockBegin
  2
B-13
 70
    66
 10
0.000000
 20
0.000000
 30
0.000000
  0
HATCH
  5
2A5
100
AcDbEntity
  8
SCHRAFF
 62
    51
440
     0
100
AcDbHatch
 10
0.000000
 20
0.000000
 30
0.000000
210
0.000000
220
0.000000
230
1.000000
  2
SOLID
 70
     1
 71
     1
 91
     1
 92
    18
 72
     1
 73
     0
 93
     7
 10
2.499982
 20
-196.249941
 42
0.000000
 10
2.499982
 20
-179.999882
 42
0.000000
 10
2.499982
 20
-119.999882
 42
0.000000
 10
2.499982
 20
-44.999931
 42
0.000000
 10
-77.500018
 20
-44.999931
 42
0.000000
 10
-77.500018
 20
-196.249941
 42
0.000000
 10
2.499982
 20
-196.249941
 42
0.000000
 97
     0
 75
     0
 76
     1
 98
     0
  0
HATCH
  5
2A6
100
AcDbEntity
  8
SCHRAFF
  6
CONTINUOUS
 62
     9
100
AcDbHatch
 10
0.000000
 20
0.000000
 30
0.000000
210
0.000000
220
0.000000
230
1.000000
  2
_U
 70
     0
 71
     1
 91
     1
 92
    18
 72
     1
 73
     0
 93
     7
 10
-77.500018
 20
-44.999931
 42
0.000000
 10
-77.500018
 20
-196.249941
 42
0.000000
 10
2.499982
 20
-196.249941
 42
0.000000
 10
2.499982
 20
-179.999882
 42
0.000000
 10
2.499982
 20
-119.999882
 42
0.000000
 10
2.499982
 20
-44.999931
 42
0.000000
 10
-77.500018
 20
-44.999931
 42
0.000000
 97
     0
 75
     0
 76
     0
 52
0.000000
 41
1.000000
 77
     0
 78
     1
 53
90.000000
 43
-0.000000
 44
0.000000
 45
-13.750000
 46
0.000000
 79
     0
 98
     0
  0
ENDBLK
  5
2A7
100
AcDbEntity
  8
0
100
AcDbBlockEnd
  0
BLOCK
  5
2A8
100
AcDbEntity
  8
SCHRAFF
100
AcDbBlockBegin
  2
B-14
 70
    66
 10
0.000000
 20
0.000000
 30
0.000000
  0
IMAGE
  5
2A9
100
AcDbEntity
  8
SCHRAFF
100
AcDbRasterImage
 10
140.969928
 20
-349.249941
 30
0.000000
 11
0.204938
 21
-0.000000
 31
0.000000
 12
-0.000000
 22
0.204938
 32
-0.000000
 13
395.000000
 23
405.000000
340
2AA
 70
     7
280
     0
281
    50
282
    50
283
     0
360
2AB
 71
     1
 91
     2
 14
-0.500000
 24
-0.500000
 14
394.500000
 24
404.500000
  0
ENDBLK
  5
2AC
100
AcDbEntity
  8
0
100
AcDbBlockEnd
  0
BLOCK
  5
2AD
100
AcDbEntity
  8
SCHRAFF
100
AcDbBlockBegin
  2
B-15
 70
    66
 10
0.000000
 20
0.000000
 30
0.000000
  0
HATCH
  5
2AE
100
AcDbEntity
  8
SCHRAFF
 62
    51
440
     0
100
AcDbHatch
 10
0.000000
 20
0.000000
 30
0.000000
210
0.000000
220
0.000000
230
1.000000
  2
SOLID
 70
     1
 71
     1
 91
     1
 92
    18
 72
     1
 73
     0
 93
     7
 10
-77.500018
 20
296.250078
 42
0.000000
 10
-77.500018
 20
-28.999931
 42
0.000000
 10
2.499982
 20
-28.999931
 42
0.000000
 10
2.499982
 20
144.500068
 42
0.000000
 10
2.499982
 20
204.500068
 42
0.000000
 10
2.499982
 20
296.250078
 42
0.000000
 10
-77.500018
 20
296.250078
 42
0.000000
 97
     0
 75
     0
 76
     1
 98
     0
  0
HATCH
  5
2AF
100
AcDbEntity
  8
SCHRAFF
  6
CONTINUOUS
 62
     9
100
AcDbHatch
 10
0.000000
 20
0.000000
 30
0.000000
210
0.000000
220
0.000000
230
1.000000
  2
_U
 70
     0
 71
     1
 91
     1
 92
    18
 72
     1
 73
     0
 93
     7
 10
2.499982
 20
-28.999931
 42
0.000000
 10
2.499982
 20
144.500068
 42
0.000000
 10
2.499982
 20
204.500068
 42
0.000000
 10
2.499982
 20
296.250078
 42
0.000000
 10
-77.500018
 20
296.250078
 42
0.000000
 10
-77.500018
 20
-28.999931
 42
0.000000
 10
2.499982
 20
-28.999931
 42
0.000000
 97
     0
 75
     0
 76
     0
 52
0.000000
 41
1.000000
 77
     0
 78
     1
 53
90.000000
 43
-0.000000
 44
0.000000
 45
-13.750000
 46
0.000000
 79
     0
 98
     0
  0
ENDBLK
  5
2B0
100
AcDbEntity
  8
0
100
AcDbBlockEnd
  0
BLOCK
  5
2B1
100
AcDbEntity
  8
SCHRAFF
100
AcDbBlockBegin
  2
B-16
 70
    66
 10
0.000000
 20
0.000000
 30
0.000000
  0
HATCH
  5
2B2
100
AcDbEntity
  8
SCHRAFF
 62
    61
440
     0
100
AcDbHatch
 10
0.000000
 20
0.000000
 30
0.000000
210
0.000000
220
0.000000
230
1.000000
  2
SOLID
 70
     1
 71
     1
 91
     1
 92
    18
 72
     1
 73
     0
 93
     5
 10
-3.500018
 20
-32.999931
 42
0.000000
 10
-80.500018
 20
-32.999931
 42
0.000000
 10
-80.500018
 20
-42.999931
 42
0.000000
 10
-3.500018
 20
-42.999931
 42
0.000000
 10
-3.500018
 20
-32.999931
 42
0.000000
 97
     0
 75
     0
 76
     1
 98
     0
  0
LWPOLYLINE
  5
2B3
100
AcDbEntity
  8
SCHRAFF
  6
CONTINUOUS
 62
     9
100
AcDbPolyline
 90
    15
 10
-3.500018
 20
-42.999931
 42
-0.200795
 10
-5.101407
 20
-42.346153
 42
-0.197031
 10
-5.764725
 20
-40.767787
 42
-0.100103
 10
-5.582146
 20
-39.889733
 42
0.000000
 10
-3.737105
 20
-36.226360
 42
0.114475
 10
-3.500018
 20
-35.232075
 42
0.197031
 10
-4.163336
 20
-33.653710
 42
0.200795
 10
-5.764726
 20
-32.999931
 42
0.200795
 10
-7.366114
 20
-33.653712
 42
0.197031
 10
-8.029429
 20
-35.232075
 42
0.114475
 10
-7.792342
 20
-36.226360
 42
0.000000
 10
-6.001811
 20
-39.773506
 42
-0.114474
 10
-5.764726
 20
-40.767787
 42
-0.197031
 10
-6.428043
 20
-42.346151
 42
-0.200795
 10
-8.029430
 20
-42.999930
 42
0.000000
  0
LWPOLYLINE
  5
2C3
100
AcDbEntity
  8
SCHRAFF
  6
CONTINUOUS
 62
     9
100
AcDbPolyline
 90
    15
 10
-8.029430
 20
-42.999931
 42
-0.200795
 10
-9.630819
 20
-42.346153
 42
-0.197031
 10
-10.294137
 20
-40.767787
 42
-0.100103
 10
-10.111558
 20
-39.889733
 42
0.000000
 10
-8.266517
 20
-36.226360
 42
0.114475
 10
-8.029430
 20
-35.232075
 42
0.197031
 10
-8.692748
 20
-33.653710
 42
0.200795
 10
-10.294138
 20
-32.999931
 42
0.200795
 10
-11.895525
 20
-33.653712
 42
0.197031
 10
-12.558841
 20
-35.232075
 42
0.114475
 10
-12.321754
 20
-36.226360
 42
0.000000
 10
-10.531223
 20
-39.773506
 42
-0.114474
 10
-10.294138
 20
-40.767787
 42
-0.197031
 10
-10.957455
 20
-42.346151
 42
-0.200795
 10
-12.558842
 20
-42.999930
 42
0.000000
  0
LWPOLYLINE
  5
2D3
100
AcDbEntity
  8
SCHRAFF
  6
CONTINUOUS
 62
     9
100
AcDbPolyline
 90
    15
 10
-12.558842
 20
-42.999931
 42
-0.200795
 10
-14.160231
 20
-42.346153
 42
-0.197031
 10
-14.823549
 20
-40.767787
 42
-0.100103
 10
-14.640970
 20
-39.889733
 42
0.000000
 10
-12.795929
 20
-36.226360
 42
0.114475
 10
-12.558842
 20
-35.232075
 42
0.197031
 10
-13.222160
 20
-33.653710
 42
0.200795
 10
-14.823549
 20
-32.999931
 42
0.200795
 10
-16.424937
 20
-33.653712
 42
0.197031
 10
-17.088253
 20
-35.232075
 42
0.114475
 10
-16.851166
 20
-36.226360
 42
0.000000
 10
-15.060635
 20
-39.773506
 42
-0.114474
 10
-14.823549
 20
-40.767787
 42
-0.197031
 10
-15.486866
 20
-42.346151
 42
-0.200795
 10
-17.088253
 20
-42.999930
 42
0.000000
  0
LWPOLYLINE
  5
2E3
100
AcDbEntity
  8
SCHRAFF
  6
CONTINUOUS
 62
     9
100
AcDbPolyline
 90
    15
 10
-17.088253
 20
-42.999931
 42
-0.200795
 10
-18.689643
 20
-42.346153
 42
-0.197031
 10
-19.352960
 20
-40.767787
 42
-0.100103
 10
-19.170381
 20
-39.889733
 42
0.000000
 10
-17.325340
 20
-36.226360
 42
0.114475
 10
-17.088253
 20
-35.232075
 42
0.197031
 10
-17.751571
 20
-33.653710
 42
0.200795
 10
-19.352961
 20
-32.999931
 42
0.200795
 10
-20.954349
 20
-33.653712
 42
0.197031
 10
-21.617665
 20
-35.232075
 42
0.114475
 10
-21.380578
 20
-36.226360
 42
0.000000
 10
-19.590047
 20
-39.773506
 42
-0.114474
 10
-19.352961
 20
-40.767787
 42
-0.197031
 10
-20.016278
 20
-42.346151
 42
-0.200795
 10
-21.617665
 20
-42.999930
 42
0.000000
  0
LWPOLYLINE
  5
2F3
100
AcDbEntity
  8
SCHRAFF
  6
CONTINUOUS
 62
     9
100
AcDbPolyline
 90
    15
 10
-21.617665
 20
-42.999931
 42
-0.200795
 10
-23.219054
 20
-42.346153
 42
-0.197031
 10
-23.882372
 20
-40.767787
 42
-0.100103
 10
-23.699793
 20
-39.889733
 42
0.000000
 10
-21.854752
 20
-36.226360
 42
0.114475
 10
-21.617665
 20
-35.232075
 42
0.197031
 10
-22.280983
 20
-33.653710
 42
0.200795
 10
-23.882373
 20
-32.999931
 42
0.200795
 10
-25.483761
 20
-33.653712
 42
0.197031
 10
-26.147076
 20
-35.232075
 42
0.114475
 10
-25.909989
 20
-36.226360
 42
0.000000
 10
-24.119458
 20
-39.773506
 42
-0.114474
 10
-23.882373
 20
-40.767787
 42
-0.197031
 10
-24.545690
 20
-42.346151
 42
-0.200795
 10
-26.147077
 20
-42.999930
 42
0.000000
  0
LWPOLYLINE
  5
303
100
AcDbEntity
  8
SCHRAFF
  6
CONTINUOUS
 62
     9
100
AcDbPolyline
 90
    15
 10
-26.147077
 20
-42.999931
 42
-0.200795
 10
-27.748466
 20
-42.346153
 42
-0.197031
 10
-28.411784
 20
-40.767787
 42
-0.100103
 10
-28.229205
 20
-39.889733
 42
0.000000
 10
-26.384164
 20
-36.226360
 42
0.114475
 10
-26.147077
 20
-35.232075
 42
0.197031
 10
-26.810395
 20
-33.653710
 42
0.200795
 10
-28.411785
 20
-32.999931
 42
0.200795
 10
-30.013172
 20
-33.653712
 42
0.197031
 10
-30.676488
 20
-35.232075
 42
0.114475
 10
-30.439401
 20
-36.226360
 42
0.000000
 10
-28.648870
 20
-39.773506
 42
-0.114474
 10
-28.411785
 20
-40.767787
 42
-0.197031
 10
-29.075102
 20
-42.346151
 42
-0.200795
 10
-30.676489
 20
-42.999930
 42
0.000000
  0
LWPOLYLINE
  5
313
100
AcDbEntity
  8
SCHRAFF
  6
CONTINUOUS
 62
     9
100
AcDbPolyline
 90
    15
 10
-30.676489
 20
-42.999931
 42
-0.200795
 10
-32.277878
 20
-42.346153
 42
-0.197031
 10
-32.941196
 20
-40.767787
 42
-0.100103
 10
-32.758617
 20
-39.889733
 42
0.000000
 10
-30.913576
 20
-36.226360
 42
0.114475
 10
-30.676489
 20
-35.232075
 42
0.197031
 10
-31.339807
 20
-33.653710
 42
0.200795
 10
-32.941196
 20
-32.999931
 42
0.200795
 10
-34.542584
 20
-33.653712
 42
0.197031
 10
-35.205900
 20
-35.232075
 42
0.114475
 10
-34.968813
 20
-36.226360
 42
0.000000
 10
-33.178282
 20
-39.773506
 42
-0.114474
 10
-32.941196
 20
-40.767787
 42
-0.197031
 10
-33.604513
 20
-42.346151
 42
-0.200795
 10
-35.205900
 20
-42.999930
 42
0.000000
  0
LWPOLYLINE
  5
323
100
AcDbEntity
  8
SCHRAFF
  6
CONTINUOUS
 62
     9
100
AcDbPolyline
 90
    15
 10
-35.205900
 20
-42.999931
 42
-0.200795
 10
-36.807290
 20
-42.346153
 42
-0.197031
 10
-37.470607
 20
-40.767787
 42
-0.100103
 10
-37.288028
 20
-39.889733
 42
0.000000
 10
-35.442987
 20
-36.226360
 42
0.114475
 10
-35.205900
 20
-35.232075
 42
0.197031
 10
-35.869218
 20
-33.653710
 42
0.200795
 10
-37.470608
 20
-32.999931
 42
0.200795
 10
-39.071996
 20
-33.653712
 42
0.197031
 10
-39.735312
 20
-35.232075
 42
0.114475
 10
-39.498225
 20
-36.226360
 42
0.000000
 10
-37.707694
 20
-39.773506
 42
-0.114474
 10
-37.470608
 20
-40.767787
 42
-0.197031
 10
-38.133925
 20
-42.346151
 42
-0.200795
 10
-39.735312
 20
-42.999930
 42
0.000000
  0
LWPOLYLINE
  5
333
100
AcDbEntity
  8
SCHRAFF
  6
CONTINUOUS
 62
     9
100
AcDbPolyline
 90
    15
 10
-39.735312
 20
-42.999931
 42
-0.200795
 10
-41.336701
 20
-42.346153
 42
-0.197031
 10
-42.000019
 20
-40.767787
 42
-0.100103
 10
-41.817440
 20
-39.889733
 42
0.000000
 10
-39.972399
 20
-36.226360
 42
0.114475
 10
-39.735312
 20
-35.232075
 42
0.197031
 10
-40.398630
 20
-33.653710
 42
0.200795
 10
-42.000020
 20
-32.999931
 42
0.200795
 10
-43.601408
 20
-33.653712
 42
0.197031
 10
-44.264724
 20
-35.232075
 42
0.114475
 10
-44.027636
 20
-36.226360
 42
0.000000
 10
-42.237105
 20
-39.773506
 42
-0.114474
 10
-42.000020
 20
-40.767787
 42
-0.197031
 10
-42.663337
 20
-42.346151
 42
-0.200795
 10
-44.264724
 20
-42.999930
 42
0.000000
  0
LWPOLYLINE
  5
343
100
AcDbEntity
  8
SCHRAFF
  6
CONTINUOUS
 62
     9
100
AcDbPolyline
 90
    15
 10
-44.264724
 20
-42.999931
 42
-0.200795
 10
-45.866113
 20
-42.346153
 42
-0.197031
 10
-46.529431
 20
-40.767787
 42
-0.100103
 10
-46.346852
 20
-39.889733
 42
0.000000
 10
-44.501811
 20
-36.226360
 42
0.114475
 10
-44.264724
 20
-35.232075
 42
0.197031
 10
-44.928042
 20
-33.653710
 42
0.200795
 10
-46.529432
 20
-32.999931
 42
0.200795
 10
-48.130819
 20
-33.653712
 42
0.197031
 10
-48.794135
 20
-35.232075
 42
0.114475
 10
-48.557048
 20
-36.226360
 42
0.000000
 10
-46.766517
 20
-39.773506
 42
-0.114474
 10
-46.529432
 20
-40.767787
 42
-0.197031
 10
-47.192749
 20
-42.346151
 42
-0.200795
 10
-48.794136
 20
-42.999930
 42
0.000000
  0
LWPOLYLINE
  5
353
100
AcDbEntity
  8
SCHRAFF
  6
CONTINUOUS
 62
     9
100
AcDbPolyline
 90
    15
 10
-48.794136
 20
-42.999931
 42
-0.200795
 10
-50.395525
 20
-42.346153
 42
-0.197031
 10
-51.058843
 20
-40.767787
 42
-0.100103
 10
-50.876264
 20
-39.889733
 42
0.000000
 10
-49.031223
 20
-36.226360
 42
0.114475
 10
-48.794136
 20
-35.232075
 42
0.197031
 10
-49.457454
 20
-33.653710
 42
0.200795
 10
-51.058844
 20
-32.999931
 42
0.200795
 10
-52.660231
 20
-33.653712
 42
0.197031
 10
-53.323547
 20
-35.232075
 42
0.114475
 10
-53.086460
 20
-36.226360
 42
0.000000
 10
-51.295929
 20
-39.773506
 42
-0.114474
 10
-51.058844
 20
-40.767787
 42
-0.197031
 10
-51.722160
 20
-42.346151
 42
-0.200795
 10
-53.323547
 20
-42.999930
 42
0.000000
  0
LWPOLYLINE
  5
363
100
AcDbEntity
  8
SCHRAFF
  6
CONTINUOUS
 62
     9
100
AcDbPolyline
 90
    15
 10
-53.323548
 20
-42.999931
 42
-0.200795
 10
-54.924937
 20
-42.346153
 42
-0.197031
 10
-55.588254
 20
-40.767787
 42
-0.100103
 10
-55.405676
 20
-39.889733
 42
0.000000
 10
-53.560634
 20
-36.226360
 42
0.114475
 10
-53.323547
 20
-35.232075
 42
0.197031
 10
-53.986865
 20
-33.653710
 42
0.200795
 10
-55.588255
 20
-32.999931
 42
0.200795
 10
-57.189643
 20
-33.653712
 42
0.197031
 10
-57.852959
 20
-35.232075
 42
0.114475
 10
-57.615872
 20
-36.226360
 42
0.000000
 10
-55.825341
 20
-39.773506
 42
-0.114474
 10
-55.588255
 20
-40.767787
 42
-0.197031
 10
-56.251572
 20
-42.346151
 42
-0.200795
 10
-57.852959
 20
-42.999930
 42
0.000000
  0
LWPOLYLINE
  5
373
100
AcDbEntity
  8
SCHRAFF
  6
CONTINUOUS
 62
     9
100
AcDbPolyline
 90
    15
 10
-57.852959
 20
-42.999931
 42
-0.200795
 10
-59.454349
 20
-42.346153
 42
-0.197031
 10
-60.117666
 20
-40.767787
 42
-0.100103
 10
-59.935087
 20
-39.889733
 42
0.000000
 10
-58.090046
 20
-36.226360
 42
0.114475
 10
-57.852959
 20
-35.232075
 42
0.197031
 10
-58.516277
 20
-33.653710
 42
0.200795
 10
-60.117667
 20
-32.999931
 42
0.200795
 10
-61.719055
 20
-33.653712
 42
0.197031
 10
-62.382371
 20
-35.232075
 42
0.114475
 10
-62.145283
 20
-36.226360
 42
0.000000
 10
-60.354752
 20
-39.773506
 42
-0.114474
 10
-60.117667
 20
-40.767787
 42
-0.197031
 10
-60.780984
 20
-42.346151
 42
-0.200795
 10
-62.382371
 20
-42.999930
 42
0.000000
  0
LWPOLYLINE
  5
383
100
AcDbEntity
  8
SCHRAFF
  6
CONTINUOUS
 62
     9
100
AcDbPolyline
 90
    15
 10
-62.382371
 20
-42.999931
 42
-0.200795
 10
-63.983760
 20
-42.346153
 42
-0.197031
 10
-64.647078
 20
-40.767787
 42
-0.100103
 10
-64.464499
 20
-39.889733
 42
0.000000
 10
-62.619458
 20
-36.226360
 42
0.114475
 10
-62.382371
 20
-35.232075
 42
0.197031
 10
-63.045689
 20
-33.653710
 42
0.200795
 10
-64.647079
 20
-32.999931
 42
0.200795
 10
-66.248466
 20
-33.653712
 42
0.197031
 10
-66.911782
 20
-35.232075
 42
0.114475
 10
-66.674695
 20
-36.226360
 42
0.000000
 10
-64.884164
 20
-39.773506
 42
-0.114474
 10
-64.647079
 20
-40.767787
 42
-0.197031
 10
-65.310396
 20
-42.346151
 42
-0.200795
 10
-66.911783
 20
-42.999930
 42
0.000000
  0
LWPOLYLINE
  5
393
100
AcDbEntity
  8
SCHRAFF
  6
CONTINUOUS
 62
     9
100
AcDbPolyline
 90
    15
 10
-66.911783
 20
-42.999931
 42
-0.200795
 10
-68.513172
 20
-42.346153
 42
-0.197031
 10
-69.176490
 20
-40.767787
 42
-0.100103
 10
-68.993911
 20
-39.889733
 42
0.000000
 10
-67.148870
 20
-36.226360
 42
0.114475
 10
-66.911783
 20
-35.232075
 42
0.197031
 10
-67.575101
 20
-33.653710
 42
0.200795
 10
-69.176491
 20
-32.999931
 42
0.200795
 10
-70.777878
 20
-33.653712
 42
0.197031
 10
-71.441194
 20
-35.232075
 42
0.114475
 10
-71.204107
 20
-36.226360
 42
0.000000
 10
-69.413576
 20
-39.773506
 42
-0.114474
 10
-69.176491
 20
-40.767787
 42
-0.197031
 10
-69.839807
 20
-42.346151
 42
-0.200795
 10
-71.441194
 20
-42.999930
 42
0.000000
  0
LWPOLYLINE
  5
3A3
100
AcDbEntity
  8
SCHRAFF
  6
CONTINUOUS
 62
     9
100
AcDbPolyline
 90
    15
 10
-71.441195
 20
-42.999931
 42
-0.200795
 10
-73.042584
 20
-42.346153
 42
-0.197031
 10
-73.705902
 20
-40.767787
 42
-0.100103
 10
-73.523323
 20
-39.889733
 42
0.000000
 10
-71.678282
 20
-36.226360
 42
0.114475
 10
-71.441194
 20
-35.232075
 42
0.197031
 10
-72.104512
 20
-33.653710
 42
0.200795
 10
-73.705902
 20
-32.999931
 42
0.200795
 10
-75.307290
 20
-33.653712
 42
0.197031
 10
-75.970606
 20
-35.232075
 42
0.114475
 10
-75.733519
 20
-36.226360
 42
0.000000
 10
-73.942988
 20
-39.773506
 42
-0.114474
 10
-73.705902
 20
-40.767787
 42
-0.197031
 10
-74.369219
 20
-42.346151
 42
-0.200795
 10
-75.970606
 20
-42.999930
 42
0.000000
  0
LWPOLYLINE
  5
3B3
100
AcDbEntity
  8
SCHRAFF
  6
CONTINUOUS
 62
     9
100
AcDbPolyline
 90
    15
 10
-75.970606
 20
-42.999931
 42
-0.200795
 10
-77.571996
 20
-42.346153
 42
-0.197031
 10
-78.235313
 20
-40.767787
 42
-0.100103
 10
-78.052734
 20
-39.889733
 42
0.000000
 10
-76.207693
 20
-36.226360
 42
0.114475
 10
-75.970606
 20
-35.232075
 42
0.197031
 10
-76.633924
 20
-33.653710
 42
0.200795
 10
-78.235314
 20
-32.999931
 42
0.200795
 10
-79.836702
 20
-33.653712
 42
0.197031
 10
-80.500018
 20
-35.232075
 42
0.114475
 10
-80.262931
 20
-36.226360
 42
0.000000
 10
-78.472400
 20
-39.773506
 42
-0.114474
 10
-78.235314
 20
-40.767787
 42
-0.197031
 10
-78.898631
 20
-42.346151
 42
-0.200795
 10
-80.500018
 20
-42.999930
 42
0.000000
  0
ENDBLK
  5
3C3
100
AcDbEntity
  8
0
100
AcDbBlockEnd
  0
BLOCK
  5
3C4
100
AcDbEntity
  8
SCHRAFF
100
AcDbBlockBegin
  2
B-17
 70
    66
 10
0.000000
 20
0.000000
 30
0.000000
  0
HATCH
  5
3C5
100
AcDbEntity
  8
SCHRAFF
 62
   254
440
     0
100
AcDbHatch
 10
0.000000
 20
0.000000
 30
0.000000
210
0.000000
220
0.000000
230
1.000000
  2
SOLID
 70
     1
 71
     1
 91
     1
 92
    18
 72
     1
 73
     0
 93
     5
 10
-82.500018
 20
-44.999931
 42
0.000000
 10
-77.500018
 20
-44.999931
 42
0.000000
 10
-77.500018
 20
-196.249941
 42
0.000000
 10
-82.500018
 20
-196.249941
 42
0.000000
 10
-82.500018
 20
-44.999931
 42
0.000000
 97
     0
 75
     0
 76
     1
 98
     0
  0
HATCH
  5
3C6
100
AcDbEntity
  8
SCHRAFF
 62
   254
440
     0
100
AcDbHatch
 10
0.000000
 20
0.000000
 30
0.000000
210
0.000000
220
0.000000
230
1.000000
  2
SOLID
 70
     1
 71
     1
 91
     1
 92
    18
 72
     1
 73
     0
 93
     5
 10
-82.500018
 20
-30.999931
 42
0.000000
 10
-77.500018
 20
-30.999931
 42
0.000000
 10
-77.500018
 20
296.250078
 42
0.000000
 10
-82.500018
 20
296.250078
 42
0.000000
 10
-82.500018
 20
-30.999931
 42
0.000000
 97
     0
 75
     0
 76
     1
 98
     0
  0
ENDBLK
  5
3C7
100
AcDbEntity
  8
0
100
AcDbBlockEnd
  0
BLOCK
  5
3C8
100
AcDbEntity
  8
Detail
100
AcDbBlockBegin
  2
B-18
 70
    66
 10
0.000000
 20
0.000000
 30
0.000000
  0
POLYLINE
  5
3C9
100
AcDbEntity
  8
Detail
 66
     1
  6
CONTINUOUS
 62
     3
100
AcDb2dPolyline
  0
VERTEX
  5
3CA
100
AcDbEntity
  8
Detail
100
AcDbVertex
100
AcDb2dVertex
 10
-82.500018
 20
-196.249941
 42
0.000000
  0
VERTEX
  5
3CB
100
AcDbEntity
  8
Detail
100
AcDbVertex
100
AcDb2dVertex
 10
-82.500018
 20
-44.999931
 42
0.000000
  0
VERTEX
  5
3CC
100
AcDbEntity
  8
Detail
 62
     6
100
AcDbVertex
100
AcDb2dVertex
 10
-77.500018
 20
-44.999931
 42
0.000000
  0
VERTEX
  5
3CD
100
AcDbEntity
  8
Detail
100
AcDbVertex
100
AcDb2dVertex
 10
-77.500018
 20
-196.249941
 42
0.000000
  0
SEQEND
  5
3CE
100
AcDbEntity
  8
Detail
  0
POLYLINE
  5
3CF
100
AcDbEntity
  8
Detail
 66
     1
  6
CONTINUOUS
 62
     3
100
AcDb2dPolyline
  0
VERTEX
  5
3D0
100
AcDbEntity
  8
Detail
100
AcDbVertex
100
AcDb2dVertex
 10
-82.500018
 20
296.250078
 42
0.000000
  0
VERTEX
  5
3D1
100
AcDbEntity
  8
Detail
100
AcDbVertex
100
AcDb2dVertex
 10
-82.500018
 20
-30.999931
 42
0.000000
  0
VERTEX
  5
3D2
100
AcDbEntity
  8
Detail
 62
     6
100
AcDbVertex
100
AcDb2dVertex
 10
-77.500018
 20
-30.999931
 42
0.000000
  0
VERTEX
  5
3D3
100
AcDbEntity
  8
Detail
100
AcDbVertex
100
AcDb2dVertex
 10
-77.500018
 20
296.250078
 42
0.000000
  0
SEQEND
  5
3D4
100
AcDbEntity
  8
Detail
  0
ENDBLK
  5
3D5
100
AcDbEntity
  8
0
100
AcDbBlockEnd
  0
BLOCK
  5
3D6
100
AcDbEntity
  8
Detail
100
AcDbBlockBegin
  2
B-19
 70
    66
 10
0.000000
 20
0.000000
 30
0.000000
  0
ENDBLK
  5
3D7
100
AcDbEntity
  8
0
100
AcDbBlockEnd
  0
BLOCK
  5
3D8
100
AcDbEntity
  8
Detail
100
AcDbBlockBegin
  2
B-20
 70
    66
 10
0.000000
 20
0.000000
 30
0.000000
  0
ENDBLK
  5
3D9
100
AcDbEntity
  8
0
100
AcDbBlockEnd
  0
BLOCK
  5
3DA
100
AcDbEntity
  8
L
100
AcDbBlockBegin
  2
B-21
 70
    66
 10
0.000000
 20
0.000000
 30
0.000000
  0
LWPOLYLINE
  5
3DB
100
AcDbEntity
  8
L
  6
CONTINUOUS
 62
     3
100
AcDbPolyline
 90
     6
 10
2.499982
 20
296.250078
 42
0.000000
 10
2.499982
 20
204.500068
 42
0.000000
 10
2.499982
 20
144.500068
 42
0.000000
 10
2.499982
 20
-28.999931
 42
0.000000
 10
-77.500018
 20
-28.999931
 42
0.000000
 10
-77.500018
 20
296.250078
 42
0.000000
  0
ENDBLK
  5
3E2
100
AcDbEntity
  8
0
100
AcDbBlockEnd
  0
BLOCK
  5
3E3
100
AcDbEntity
  8
Detail
100
AcDbBlockBegin
  2
B-22
 70
    66
 10
0.000000
 20
0.000000
 30
0.000000
  0
LWPOLYLINE
  5
3E4
100
AcDbEntity
  8
Detail
  6
HIDDEN
 62
     9
100
AcDbPolyline
 90
     2
 10
5.499982
 20
296.250078
 42
0.000000
 10
5.499982
 20
-9.749931
 42
0.000000
  0
ENDBLK
  5
3E7
100
AcDbEntity
  8
0
100
AcDbBlockEnd
  0
BLOCK
  5
3E8
100
AcDbEntity
  8
Detail
100
AcDbBlockBegin
  2
B-23
 70
    66
 10
0.000000
 20
0.000000
 30
0.000000
  0
MTEXT
  5
3EA
100
AcDbEntity
  8
Detail
 62
     7
100
AcDbMText
 10
79.375019
 20
52.000065
 30
0.000000
 40
4.999990
 41
87.674790
 71
     1
 72
     5
  1
Befestigung Sockelschiene
  7
Arial
 50
0.000000
  0
ENDBLK
  5
3EB
100
AcDbEntity
  8
0
100
AcDbBlockEnd
  0
BLOCK
  5
3EC
100
AcDbEntity
  8
Detail
100
AcDbBlockBegin
  2
B-24
 70
    66
 10
0.000000
 20
0.000000
 30
0.000000
  0
MTEXT
  5
3ED
100
AcDbEntity
  8
Detail
 62
     7
100
AcDbMText
 10
79.375019
 20
27.000068
 30
0.000000
 40
4.999990
 41
47.092387
 71
     1
 72
     5
  1
Sockelschiene
  7
Arial
 50
0.000000
  0
ENDBLK
  5
3EE
100
AcDbEntity
  8
0
100
AcDbBlockEnd
  0
BLOCK
  5
3EF
100
AcDbEntity
  8
Detail
100
AcDbBlockBegin
  2
B-25
 70
    66
 10
0.000000
 20
0.000000
 30
0.000000
  0
MTEXT
  5
3F0
100
AcDbEntity
  8
Detail
 62
     7
100
AcDbMText
 10
79.375020
 20
102.000064
 30
0.000000
 40
4.999987
 41
62.107339
 71
     1
 72
     5
  1
Armierungsschicht 
  7
Arial
 50
0.000000
  0
ENDBLK
  5
3F1
100
AcDbEntity
  8
0
100
AcDbBlockEnd
  0
BLOCK
  5
3F2
100
AcDbEntity
  8
Detail
100
AcDbBlockBegin
  2
B-26
 70
    66
 10
0.000000
 20
0.000000
 30
0.000000
  0
MTEXT
  5
3F3
100
AcDbEntity
  8
Detail
 62
     7
100
AcDbMText
 10
79.375020
 20
77.000066
 30
0.000000
 40
4.999987
 41
30.449921
 71
     1
 72
     5
  1
Deckputz
  7
Arial
 50
0.000000
  0
ENDBLK
  5
3F4
100
AcDbEntity
  8
0
100
AcDbBlockEnd
  0
BLOCK
  5
3F5
100
AcDbEntity
  8
Detail
100
AcDbBlockBegin
  2
B-27
 70
    66
 10
0.000000
 20
0.000000
 30
0.000000
  0
LWPOLYLINE
  5
3F6
100
AcDbEntity
  8
Detail
  6
CONTINUOUS
 62
     6
100
AcDbPolyline
 90
     3
 10
2.499982
 20
-73.749931
 42
0.000000
 10
6.499982
 20
-77.749931
 42
0.000000
 10
6.499982
 20
-196.249941
 42
0.000000
  0
LWPOLYLINE
  5
3FA
100
AcDbEntity
  8
Detail
  6
HIDDEN
 62
     9
100
AcDbPolyline
 90
     2
 10
5.499982
 20
-76.749931
 42
0.000000
 10
5.499982
 20
-196.249941
 42
0.000000
  0
ENDBLK
  5
3FD
100
AcDbEntity
  8
0
100
AcDbBlockEnd
  0
BLOCK
  5
3FE
100
AcDbEntity
  8
Detail
100
AcDbBlockBegin
  2
B-28
 70
    66
 10
0.000000
 20
0.000000
 30
0.000000
  0
LWPOLYLINE
  5
3FF
100
AcDbEntity
  8
Detail
  6
HIDDEN
 62
     9
100
AcDbPolyline
 90
     2
 10
3.499982
 20
-10.999931
 42
0.000000
 10
3.499982
 20
69.000069
 42
0.000000
  0
ENDBLK
  5
402
100
AcDbEntity
  8
0
100
AcDbBlockEnd
  0
BLOCK
  5
403
100
AcDbEntity
  8
Detail
100
AcDbBlockBegin
  2
B-29
 70
    66
 10
0.000000
 20
0.000000
 30
0.000000
  0
MTEXT
  5
404
100
AcDbEntity
  8
Detail
 62
     7
100
AcDbMText
 10
79.375020
 20
127.000063
 30
0.000000
 40
4.999990
 41
59.482357
 71
     1
 72
     5
  1
WDVS-Dämmstoff
  7
Arial
 50
0.000000
  0
ENDBLK
  5
405
100
AcDbEntity
  8
0
100
AcDbBlockEnd
  0
BLOCK
  5
406
100
AcDbEntity
  8
SCHRAFF
100
AcDbBlockBegin
  2
B-30
 70
    66
 10
0.000000
 20
0.000000
 30
0.000000
  0
HATCH
  5
407
100
AcDbEntity
  8
SCHRAFF
 62
     7
440
     0
100
AcDbHatch
 10
0.000000
 20
0.000000
 30
0.000000
210
0.000000
220
0.000000
230
1.000000
  2
SOLID
 70
     1
 71
     1
 91
     1
 92
    18
 72
     1
 73
     0
 93
     3
 10
-37.000018
 20
124.500067
 42
1.000000
 10
-38.000018
 20
124.500067
 42
1.000000
 10
-37.000018
 20
124.500067
 42
0.000000
 97
     0
 75
     0
 76
     1
 98
     0
  0
CIRCLE
  5
408
100
AcDbEntity
  8
Detail
  6
CONTINUOUS
 62
     7
100
AcDbCircle
 10
-37.500018
 20
124.500067
 40
0.500000
  0
ENDBLK
  5
409
100
AcDbEntity
  8
0
100
AcDbBlockEnd
  0
BLOCK
  5
40A
100
AcDbEntity
  8
SCHRAFF
100
AcDbBlockBegin
  2
B-31
 70
    66
 10
0.000000
 20
0.000000
 30
0.000000
  0
HATCH
  5
40B
100
AcDbEntity
  8
SCHRAFF
 62
     7
440
     0
100
AcDbHatch
 10
0.000000
 20
0.000000
 30
0.000000
210
0.000000
220
0.000000
230
1.000000
  2
SOLID
 70
     1
 71
     1
 91
     1
 92
    18
 72
     1
 73
     0
 93
     3
 10
4.999982
 20
99.500067
 42
1.000000
 10
3.999982
 20
99.500067
 42
1.000000
 10
4.999982
 20
99.500067
 42
0.000000
 97
     0
 75
     0
 76
     1
 98
     0
  0
CIRCLE
  5
40C
100
AcDbEntity
  8
Detail
  6
CONTINUOUS
 62
     7
100
AcDbCircle
 10
4.499982
 20
99.500067
 40
0.500000
  0
ENDBLK
  5
40D
100
AcDbEntity
  8
0
100
AcDbBlockEnd
  0
BLOCK
  5
40E
100
AcDbEntity
  8
SCHRAFF
100
AcDbBlockBegin
  2
B-32
 70
    66
 10
0.000000
 20
0.000000
 30
0.000000
  0
HATCH
  5
40F
100
AcDbEntity
  8
SCHRAFF
 62
     7
440
     0
100
AcDbHatch
 10
0.000000
 20
0.000000
 30
0.000000
210
0.000000
220
0.000000
230
1.000000
  2
SOLID
 70
     1
 71
     1
 91
     1
 92
    18
 72
     1
 73
     0
 93
     3
 10
7.999982
 20
74.500067
 42
1.000000
 10
6.999982
 20
74.500067
 42
1.000000
 10
7.999982
 20
74.500067
 42
0.000000
 97
     0
 75
     0
 76
     1
 98
     0
  0
CIRCLE
  5
410
100
AcDbEntity
  8
Detail
  6
CONTINUOUS
 62
     7
100
AcDbCircle
 10
7.499982
 20
74.500067
 40
0.500000
  0
ENDBLK
  5
411
100
AcDbEntity
  8
0
100
AcDbBlockEnd
  0
BLOCK
  5
412
100
AcDbEntity
  8
Detail
100
AcDbBlockBegin
  2
B-33
 70
    66
 10
0.000000
 20
0.000000
 30
0.000000
  0
MTEXT
  5
413
100
AcDbEntity
  8
Detail
 62
     7
100
AcDbMText
 10
-211.093768
 20
-225.937528
 30
0.000000
 40
3.749990
 41
353.428963
 71
     7
 72
     5
  1
Capatect Details sind allgemeine planerische Vorschläge. Sie stellen schematisch die Ausführung dar. Ihnen zugrunde liegen die entsprechenden 
  7
Arial
 50
0.000000
  0
MTEXT
  5
414
100
AcDbEntity
  8
Detail
 62
     7
100
AcDbMText
 10
-211.093768
 20
-231.562513
 30
0.000000
 40
3.749990
 41
392.764473
 71
     7
 72
     5
  1
Produktdatenblätter sowie Systemzulassungen. Die Möglichkeit der Detailanwendung sowie deren Vollständigkeit sind im speziellen Anwendungsfall vom Planer / 
  7
Arial
 50
0.000000
  0
MTEXT
  5
415
100
AcDbEntity
  8
Detail
 62
     7
100
AcDbMText
 10
-211.093768
 20
-237.187498
 30
0.000000
 40
3.749990
 41
107.887184
 71
     7
 72
     5
  1
Unternehmer eigenverantwortlich zu prüfen. 
  7
Arial
 50
0.000000
  0
ENDBLK
  5
416
100
AcDbEntity
  8
0
100
AcDbBlockEnd
  0
BLOCK
  5
417
100
AcDbEntity
  8
Detail
100
AcDbBlockBegin
  2
B-34
 70
    66
 10
0.000000
 20
0.000000
 30
0.000000
  0
LWPOLYLINE
  5
418
100
AcDbEntity
  8
Detail
  6
CONTINUOUS
 62
     6
100
AcDbPolyline
 90
     2
 10
237.500023
 20
-246.249941
 42
0.000000
 10
-237.500018
 20
-246.249941
 42
0.000000
  0
ENDBLK
  5
41B
100
AcDbEntity
  8
0
100
AcDbBlockEnd
  0
BLOCK
  5
41C
100
AcDbEntity
  8
Detail
100
AcDbBlockBegin
  2
B-35
 70
    66
 10
0.000000
 20
0.000000
 30
0.000000
  0
MTEXT
  5
41D
100
AcDbEntity
  8
Detail
 62
     7
100
AcDbMText
 10
-210.625002
 20
-252.656291
 30
0.000000
 40
5.625000
 41
103.950000
 71
     1
 72
     5
  1
System:	WDVS mit Putz
  7
Arial
 50
0.000000
  0
ENDBLK
  5
41E
100
AcDbEntity
  8
0
100
AcDbBlockEnd
  0
BLOCK
  5
41F
100
AcDbEntity
  8
Detail
100
AcDbBlockBegin
  2
B-36
 70
    66
 10
0.000000
 20
0.000000
 30
0.000000
  0
MTEXT
  5
420
100
AcDbEntity
  8
Detail
 62
     7
100
AcDbMText
 10
-210.625002
 20
-290.156291
 30
0.000000
 40
5.625000
 41
106.607813
 71
     1
 72
     5
  1
Detail:	Horizontales Gleitlager
  7
Arial
 50
0.000000
  0
ENDBLK
  5
421
100
AcDbEntity
  8
0
100
AcDbBlockEnd
  0
BLOCK
  5
422
100
AcDbEntity
  8
Detail
100
AcDbBlockBegin
  2
B-37
 70
    66
 10
0.000000
 20
0.000000
 30
0.000000
  0
MTEXT
  5
423
100
AcDbEntity
  8
Detail
 62
     7
100
AcDbMText
 10
6.314834
 20
-252.500041
 30
0.000000
 40
5.000000
 41
93.712500
 71
     1
 72
     5
  1
Plannummer:	105-1330
  7
Arial
 50
0.000000
  0
ENDBLK
  5
424
100
AcDbEntity
  8
0
100
AcDbBlockEnd
  0
BLOCK
  5
425
100
AcDbEntity
  8
Detail
100
AcDbBlockBegin
  2
B-38
 70
    66
 10
0.000000
 20
0.000000
 30
0.000000
  0
MTEXT
  5
426
100
AcDbEntity
  8
Detail
 62
     7
100
AcDbMText
 10
6.314834
 20
-277.500041
 30
0.000000
 40
5.000000
 41
91.035000
 71
     1
 72
     5
  1
Massstab:		ca. 1:2,5
  7
Arial
 50
0.000000
  0
ENDBLK
  5
427
100
AcDbEntity
  8
0
100
AcDbBlockEnd
  0
BLOCK
  5
428
100
AcDbEntity
  8
Detail
100
AcDbBlockBegin
  2
B-39
 70
    66
 10
0.000000
 20
0.000000
 30
0.000000
  0
MTEXT
  5
429
100
AcDbEntity
  8
Detail
 62
     7
100
AcDbMText
 10
6.314834
 20
-302.500041
 30
0.000000
 40
5.000000
 41
99.435000
 71
     1
 72
     5
  1
Aktualisierung:	03.08.2016
  7
Arial
 50
0.000000
  0
ENDBLK
  5
42A
100
AcDbEntity
  8
0
100
AcDbBlockEnd
  0
BLOCK
  5
42B
100
AcDbEntity
  8
Detail
100
AcDbBlockBegin
  2
B-40
 70
    66
 10
0.000000
 20
0.000000
 30
0.000000
  0
LWPOLYLINE
  5
42C
100
AcDbEntity
  8
Detail
  6
CONTINUOUS
 62
     6
100
AcDbPolyline
 90
     2
 10
-20.560166
 20
-321.249941
 42
0.000000
 10
-20.560166
 20
-246.249941
 42
0.000000
  0
LWPOLYLINE
  5
42F
100
AcDbEntity
  8
Detail
  6
CONTINUOUS
 62
     6
100
AcDbPolyline
 90
     2
 10
-237.500018
 20
-321.249941
 42
0.000000
 10
120.969928
 20
-321.249941
 42
0.000000
  0
LWPOLYLINE
  5
432
100
AcDbEntity
  8
Detail
  6
CONTINUOUS
 62
     6
100
AcDbPolyline
 90
     2
 10
-20.560166
 20
-271.249941
 42
0.000000
 10
120.969928
 20
-271.249941
 42
0.000000
  0
LWPOLYLINE
  5
435
100
AcDbEntity
  8
Detail
  6
CONTINUOUS
 62
     6
100
AcDbPolyline
 90
     2
 10
-20.560166
 20
-296.249941
 42
0.000000
 10
120.969928
 20
-296.249941
 42
0.000000
  0
ENDBLK
  5
438
100
AcDbEntity
  8
0
100
AcDbBlockEnd
  0
BLOCK
  5
439
100
AcDbEntity
  8
Detail
100
AcDbBlockBegin
  2
B-41
 70
    66
 10
0.000000
 20
0.000000
 30
0.000000
  0
LWPOLYLINE
  5
43A
100
AcDbEntity
  8
Detail
  6
CONTINUOUS
 62
     6
100
AcDbPolyline
 90
     2
 10
-20.560166
 20
-283.749941
 42
0.000000
 10
-237.500018
 20
-283.749941
 42
0.000000
  0
ENDBLK
  5
43D
100
AcDbEntity
  8
0
100
AcDbBlockEnd
  0
BLOCK
  5
43E
100
AcDbEntity
  8
Detail
100
AcDbBlockBegin
  2
B-42
 70
    66
 10
0.000000
 20
0.000000
 30
0.000000
  0
MTEXT
  5
43F
100
AcDbEntity
  8
Detail
 62
     7
100
AcDbMText
 10
-85.625009
 20
-332.500016
 30
0.000000
 40
4.999980
 41
72.134711
 71
     7
 72
     5
  1
Telefon 043 399 42 22
  7
Arial
 50
0.000000
  0
MTEXT
  5
440
100
AcDbEntity
  8
Detail
 62
     7
100
AcDbMText
 10
-85.625009
 20
-339.999986
 30
0.000000
 40
4.999980
 41
71.767213
 71
     7
 72
     5
  1
Telefax 043 399 42 23
  7
Arial
 50
0.000000
  0
ENDBLK
  5
441
100
AcDbEntity
  8
0
100
AcDbBlockEnd
  0
BLOCK
  5
442
100
AcDbEntity
  8
Detail
100
AcDbBlockBegin
  2
B-43
 70
    66
 10
0.000000
 20
0.000000
 30
0.000000
  0
MTEXT
  5
443
100
AcDbEntity
  8
Detail
 62
     7
100
AcDbMText
 10
39.374992
 20
-332.500019
 30
0.000000
 40
4.999982
 41
51.922313
 71
     7
 72
     5
  1
info@daw.swiss
  7
Arial
 50
0.000000
  0
MTEXT
  5
444
100
AcDbEntity
  8
Detail
 62
     7
100
AcDbMText
 10
39.374992
 20
-339.999993
 30
0.000000
 40
4.999982
 41
54.599803
 71
     7
 72
     5
  1
www.capatect.ch
  7
Arial
 50
0.000000
  0
ENDBLK
  5
445
100
AcDbEntity
  8
0
100
AcDbBlockEnd
  0
BLOCK
  5
446
100
AcDbEntity
  8
Detail
100
AcDbBlockBegin
  2
B-44
 70
    66
 10
0.000000
 20
0.000000
 30
0.000000
  0
LWPOLYLINE
  5
447
100
AcDbEntity
  8
Detail
  6
CONTINUOUS
 62
     6
100
AcDbPolyline
 90
     2
 10
120.969928
 20
-346.249941
 42
0.000000
 10
120.969928
 20
-246.249941
 42
0.000000
  0
ENDBLK
  5
44A
100
AcDbEntity
  8
0
100
AcDbBlockEnd
  0
BLOCK
  5
44B
100
AcDbEntity
  8
Detail
100
AcDbBlockBegin
  2
B-45
 70
    66
 10
0.000000
 20
0.000000
 30
0.000000
  0
LWPOLYLINE
  5
44C
100
AcDbEntity
  8
Detail
  6
CONTINUOUS
 62
     6
100
AcDbPolyline
 90
     5
 10
-237.500018
 20
-346.249941
 42
0.000000
 10
237.500023
 20
-346.249941
 42
0.000000
 10
237.500023
 20
346.250078
 42
0.000000
 10
-237.500018
 20
346.250078
 42
0.000000
 10
-237.500018
 20
-346.249941
 42
0.000000
  0
ENDBLK
  5
452
100
AcDbEntity
  8
0
100
AcDbBlockEnd
  0
BLOCK
  5
453
100
AcDbEntity
  8
Detail
100
AcDbBlockBegin
  2
B-46
 70
    66
 10
0.000000
 20
0.000000
 30
0.000000
  0
LWPOLYLINE
  5
454
100
AcDbEntity
  8
Detail
  6
CONTINUOUS
 62
     7
100
AcDbPolyline
 90
     2
 10
77.500023
 20
99.500067
 42
0.000000
 10
4.499982
 20
99.500067
 42
0.000000
  0
LWPOLYLINE
  5
457
100
AcDbEntity
  8
Detail
  6
CONTINUOUS
 62
     7
100
AcDbPolyline
 90
     2
 10
77.500023
 20
74.500067
 42
0.000000
 10
7.499982
 20
74.500067
 42
0.000000
  0
ENDBLK
  5
45A
100
AcDbEntity
  8
0
100
AcDbBlockEnd
  0
BLOCK
  5
45B
100
AcDbEntity
  8
Detail
100
AcDbBlockBegin
  2
B-47
 70
    66
 10
0.000000
 20
0.000000
 30
0.000000
  0
LWPOLYLINE
  5
45C
100
AcDbEntity
  8
Detail
  6
CONTINUOUS
 62
     7
100
AcDbPolyline
 90
     2
 10
77.500024
 20
124.500068
 42
0.000000
 10
-37.500018
 20
124.500067
 42
0.000000
  0
ENDBLK
  5
45F
100
AcDbEntity
  8
0
100
AcDbBlockEnd
  0
BLOCK
  5
460
100
AcDbEntity
  8
Detail
100
AcDbBlockBegin
  2
B-48
 70
    66
 10
0.000000
 20
0.000000
 30
0.000000
  0
MTEXT
  5
461
100
AcDbEntity
  8
Detail
 62
     7
100
AcDbMText
 10
79.375020
 20
152.000063
 30
0.000000
 40
4.999990
 41
77.804813
 71
     1
 72
     5
  1
Capatect Rollkleber 615
  7
Arial
 50
0.000000
  0
ENDBLK
  5
462
100
AcDbEntity
  8
0
100
AcDbBlockEnd
  0
BLOCK
  5
463
100
AcDbEntity
  8
Detail
100
AcDbBlockBegin
  2
B-49
 70
    66
 10
0.000000
 20
0.000000
 30
0.000000
  0
LWPOLYLINE
  5
464
100
AcDbEntity
  8
Detail
  6
CONTINUOUS
 62
     7
100
AcDbPolyline
 90
     2
 10
77.500024
 20
149.500069
 42
0.000000
 10
-80.000018
 20
149.500067
 42
0.000000
  0
ENDBLK
  5
467
100
AcDbEntity
  8
0
100
AcDbBlockEnd
  0
BLOCK
  5
468
100
AcDbEntity
  8
SCHRAFF
100
AcDbBlockBegin
  2
B-50
 70
    66
 10
0.000000
 20
0.000000
 30
0.000000
  0
HATCH
  5
469
100
AcDbEntity
  8
SCHRAFF
 62
     7
440
     0
100
AcDbHatch
 10
0.000000
 20
0.000000
 30
0.000000
210
0.000000
220
0.000000
230
1.000000
  2
SOLID
 70
     1
 71
     1
 91
     1
 92
    18
 72
     1
 73
     0
 93
     3
 10
-79.500018
 20
149.500067
 42
1.000000
 10
-80.500018
 20
149.500067
 42
1.000000
 10
-79.500018
 20
149.500067
 42
0.000000
 97
     0
 75
     0
 76
     1
 98
     0
  0
CIRCLE
  5
46A
100
AcDbEntity
  8
Detail
  6
CONTINUOUS
 62
     7
100
AcDbCircle
 10
-80.000018
 20
149.500067
 40
0.500000
  0
ENDBLK
  5
46B
100
AcDbEntity
  8
0
100
AcDbBlockEnd
  0
BLOCK
  5
46C
100
AcDbEntity
  8
Detail
100
AcDbBlockBegin
  2
B-51
 70
    66
 10
0.000000
 20
0.000000
 30
0.000000
  0
MTEXT
  5
46D
100
AcDbEntity
  8
Detail
 62
     7
100
AcDbMText
 10
-210.625009
 20
-332.500016
 30
0.000000
 40
4.999980
 41
58.117268
 71
     7
 72
     5
  1
DAW Schweiz AG
  7
Arial
 50
0.000000
  0
MTEXT
  5
46E
100
AcDbEntity
  8
Detail
 62
     7
100
AcDbMText
 10
-210.625009
 20
-339.999986
 30
0.000000
 40
4.999980
 41
108.149567
 71
     7
 72
     5
  1
Gewerbestrasse 6, 8606 Nänikon
  7
Arial
 50
0.000000
  0
ENDBLK
  5
46F
100
AcDbEntity
  8
0
100
AcDbBlockEnd
  0
BLOCK
  5
470
100
AcDbEntity
  8
L
100
AcDbBlockBegin
  2
B-52
 70
    66
 10
0.000000
 20
0.000000
 30
0.000000
  0
LWPOLYLINE
  5
471
100
AcDbEntity
  8
L
  6
CONTINUOUS
 62
     3
100
AcDbPolyline
 90
     5
 10
-3.500018
 20
-42.999931
 42
0.000000
 10
-80.500018
 20
-42.999931
 42
0.000000
 10
-80.500018
 20
-32.999931
 42
0.000000
 10
-3.500018
 20
-32.999931
 42
0.000000
 10
-3.500018
 20
-42.999931
 42
0.000000
  0
ENDBLK
  5
477
100
AcDbEntity
  8
0
100
AcDbBlockEnd
  0
BLOCK
  5
478
100
AcDbEntity
  8
Detail
100
AcDbBlockBegin
  2
B-53
 70
    66
 10
0.000000
 20
0.000000
 30
0.000000
  0
LWPOLYLINE
  5
479
100
AcDbEntity
  8
Detail
  6
CONTINUOUS
 62
     6
100
AcDbPolyline
 90
     4
 10
2.499982
 20
-196.249841
 42
0.000000
 10
2.499982
 20
-73.749931
 42
0.000000
 10
6.499982
 20
-77.749931
 42
0.000000
 10
6.499982
 20
-196.249841
 42
0.000000
  0
ENDBLK
  5
47E
100
AcDbEntity
  8
0
100
AcDbBlockEnd
  0
BLOCK
  5
47F
100
AcDbEntity
  8
Detail
100
AcDbBlockBegin
  2
B-54
 70
    66
 10
0.000000
 20
0.000000
 30
0.000000
  0
LWPOLYLINE
  5
480
100
AcDbEntity
  8
Detail
  6
CONTINUOUS
 62
     6
100
AcDbPolyline
 90
   116
 10
8.499982
 20
-196.249941
 42
0.000000
 10
8.499982
 20
-195.999931
 42
0.000000
 10
7.999982
 20
-194.999931
 42
0.000000
 10
8.499982
 20
-193.999931
 42
0.000000
 10
8.499982
 20
-192.999931
 42
0.000000
 10
8.999982
 20
-191.999931
 42
0.000000
 10
8.499982
 20
-190.999931
 42
0.000000
 10
8.499982
 20
-189.999931
 42
0.000000
 10
7.999982
 20
-188.999931
 42
0.000000
 10
8.499982
 20
-187.999931
 42
0.000000
 10
8.499982
 20
-186.999931
 42
0.000000
 10
8.999982
 20
-185.999931
 42
0.000000
 10
8.499982
 20
-184.999931
 42
0.000000
 10
8.499982
 20
-183.999931
 42
0.000000
 10
7.999982
 20
-182.999931
 42
0.000000
 10
8.499982
 20
-181.999931
 42
0.000000
 10
8.499982
 20
-180.999931
 42
0.000000
 10
8.999982
 20
-179.999931
 42
0.000000
 10
8.499982
 20
-178.999931
 42
0.000000
 10
8.499982
 20
-177.999931
 42
0.000000
 10
7.999982
 20
-176.999931
 42
0.000000
 10
8.499982
 20
-175.999931
 42
0.000000
 10
8.499982
 20
-174.999931
 42
0.000000
 10
8.999982
 20
-173.999931
 42
0.000000
 10
8.499982
 20
-172.999931
 42
0.000000
 10
8.499982
 20
-171.999931
 42
0.000000
 10
7.999982
 20
-170.999931
 42
0.000000
 10
8.499982
 20
-169.999931
 42
0.000000
 10
8.499982
 20
-168.999931
 42
0.000000
 10
8.999982
 20
-167.999931
 42
0.000000
 10
8.499982
 20
-166.999931
 42
0.000000
 10
8.499982
 20
-165.999931
 42
0.000000
 10
7.999982
 20
-164.999931
 42
0.000000
 10
8.499982
 20
-163.999931
 42
0.000000
 10
8.499982
 20
-162.999931
 42
0.000000
 10
8.999982
 20
-161.999931
 42
0.000000
 10
8.499982
 20
-160.999931
 42
0.000000
 10
8.499982
 20
-159.999931
 42
0.000000
 10
7.999982
 20
-158.999931
 42
0.000000
 10
8.499982
 20
-157.999931
 42
0.000000
 10
8.499982
 20
-156.999931
 42
0.000000
 10
8.999982
 20
-155.999931
 42
0.000000
 10
8.499982
 20
-154.999931
 42
0.000000
 10
8.499982
 20
-153.999931
 42
0.000000
 10
7.999982
 20
-152.999931
 42
0.000000
 10
8.499982
 20
-151.999931
 42
0.000000
 10
8.499982
 20
-150.999931
 42
0.000000
 10
8.999982
 20
-149.999931
 42
0.000000
 10
8.499982
 20
-148.999931
 42
0.000000
 10
8.499982
 20
-147.999931
 42
0.000000
 10
7.999982
 20
-146.999931
 42
0.000000
 10
8.499982
 20
-145.999931
 42
0.000000
 10
8.499982
 20
-144.999931
 42
0.000000
 10
8.999982
 20
-143.999931
 42
0.000000
 10
8.499982
 20
-142.999931
 42
0.000000
 10
8.499982
 20
-141.999931
 42
0.000000
 10
7.999982
 20
-140.999931
 42
0.000000
 10
8.499982
 20
-139.999931
 42
0.000000
 10
8.499982
 20
-138.999931
 42
0.000000
 10
8.999982
 20
-137.999931
 42
0.000000
 10
8.499982
 20
-136.999931
 42
0.000000
 10
8.499982
 20
-135.999931
 42
0.000000
 10
7.999982
 20
-134.999931
 42
0.000000
 10
8.499982
 20
-133.999931
 42
0.000000
 10
8.499982
 20
-132.999931
 42
0.000000
 10
8.999982
 20
-131.999931
 42
0.000000
 10
8.499982
 20
-130.999931
 42
0.000000
 10
8.499982
 20
-129.999931
 42
0.000000
 10
7.999982
 20
-128.999931
 42
0.000000
 10
8.499982
 20
-127.999931
 42
0.000000
 10
8.499982
 20
-126.999931
 42
0.000000
 10
8.999982
 20
-125.999931
 42
0.000000
 10
8.499982
 20
-124.992265
 42
0.000000
 10
8.499982
 20
-123.999931
 42
0.000000
 10
7.999982
 20
-122.999931
 42
0.000000
 10
8.499982
 20
-121.999931
 42
0.000000
 10
8.499982
 20
-120.999931
 42
0.000000
 10
8.999982
 20
-119.999931
 42
0.000000
 10
8.499982
 20
-118.999931
 42
0.000000
 10
8.499982
 20
-117.999931
 42
0.000000
 10
7.999982
 20
-116.999931
 42
0.000000
 10
8.499982
 20
-115.999931
 42
0.000000
 10
8.499982
 20
-114.999931
 42
0.000000
 10
8.999982
 20
-113.999931
 42
0.000000
 10
8.499982
 20
-112.999931
 42
0.000000
 10
8.499982
 20
-111.999931
 42
0.000000
 10
7.999982
 20
-110.999931
 42
0.000000
 10
8.499982
 20
-109.999931
 42
0.000000
 10
8.499982
 20
-108.999931
 42
0.000000
 10
8.999982
 20
-107.999931
 42
0.000000
 10
8.499982
 20
-106.999931
 42
0.000000
 10
8.499982
 20
-105.999931
 42
0.000000
 10
7.999982
 20
-104.999931
 42
0.000000
 10
8.499982
 20
-103.999931
 42
0.000000
 10
8.499982
 20
-102.999931
 42
0.000000
 10
8.992904
 20
-101.985775
 42
0.000000
 10
8.499982
 20
-100.999931
 42
0.000000
 10
8.499982
 20
-99.999931
 42
0.000000
 10
7.999982
 20
-98.999931
 42
0.000000
 10
8.499982
 20
-97.999931
 42
0.000000
 10
8.499982
 20
-96.999931
 42
0.000000
 10
8.999982
 20
-95.999931
 42
0.000000
 10
8.499982
 20
-94.999931
 42
0.000000
 10
8.499982
 20
-93.999931
 42
0.000000
 10
7.999982
 20
-92.999931
 42
0.000000
 10
8.499982
 20
-91.999931
 42
0.000000
 10
8.499982
 20
-90.999931
 42
0.000000
 10
8.992904
 20
-89.985775
 42
0.000000
 10
8.499982
 20
-88.999931
 42
0.000000
 10
8.499982
 20
-87.999931
 42
0.000000
 10
7.999982
 20
-86.999931
 42
0.000000
 10
8.499982
 20
-85.999931
 42
0.000000
 10
8.499982
 20
-84.999931
 42
0.000000
 10
8.992904
 20
-83.985775
 42
0.000000
 10
8.499982
 20
-82.999931
 42
0.000000
 10
8.499982
 20
-79.749931
 42
0.000000
  0
ENDBLK
  5
4F5
100
AcDbEntity
  8
0
100
AcDbBlockEnd
  0
BLOCK
  5
4F6
100
AcDbEntity
  8
L
100
AcDbBlockBegin
  2
B-55
 70
    66
 10
0.000000
 20
0.000000
 30
0.000000
  0
LWPOLYLINE
  5
4F7
100
AcDbEntity
  8
L
  6
CONTINUOUS
 62
     3
100
AcDbPolyline
 90
     6
 10
-77.500018
 20
-196.249941
 42
0.000000
 10
-77.500018
 20
-44.999931
 42
0.000000
 10
2.499982
 20
-44.999931
 42
0.000000
 10
2.499982
 20
-119.999882
 42
0.000000
 10
2.499982
 20
-179.999882
 42
0.000000
 10
2.499982
 20
-196.249941
 42
0.000000
  0
ENDBLK
  5
4FE
100
AcDbEntity
  8
0
100
AcDbBlockEnd
  0
BLOCK
  5
4FF
100
AcDbEntity
  8
SCHRAFF
100
AcDbBlockBegin
  2
B-56
 70
    66
 10
0.000000
 20
0.000000
 30
0.000000
  0
HATCH
  5
500
100
AcDbEntity
  8
SCHRAFF
 62
   250
440
     0
100
AcDbHatch
 10
0.000000
 20
0.000000
 30
0.000000
210
0.000000
220
0.000000
230
1.000000
  2
SOLID
 70
     1
 71
     1
 91
     1
 92
    18
 72
     1
 73
     0
 93
    11
 10
-77.500018
 20
-28.999931
 42
0.000000
 10
-1.500018
 20
-28.999931
 42
0.000000
 10
2.499982
 20
-28.999931
 42
0.000000
 10
2.499982
 20
-10.999931
 42
0.000000
 10
4.499982
 20
-10.999931
 42
0.000000
 10
4.499982
 20
-30.999931
 42
0.000000
 10
-3.500018
 20
-30.999931
 42
0.000000
 10
-79.500018
 20
-30.999931
 42
0.000000
 10
-79.500018
 20
19.000069
 42
0.000000
 10
-77.500018
 20
19.000069
 42
0.000000
 10
-77.500018
 20
-28.999931
 42
0.000000
 97
     0
 75
     0
 76
     1
 98
     0
  0
ENDBLK
  5
501
100
AcDbEntity
  8
0
100
AcDbBlockEnd
  0
BLOCK
  5
502
100
AcDbEntity
  8
SCHRAFF
100
AcDbBlockBegin
  2
B-57
 70
    66
 10
0.000000
 20
0.000000
 30
0.000000
  0
HATCH
  5
503
100
AcDbEntity
  8
SCHRAFF
 62
   250
440
     0
100
AcDbHatch
 10
0.000000
 20
0.000000
 30
0.000000
210
0.000000
220
0.000000
230
1.000000
  2
SOLID
 70
     1
 71
     1
 91
     1
 92
    18
 72
     1
 73
     0
 93
    11
 10
4.499982
 20
-63.805388
 42
0.000000
 10
8.499982
 20
-67.805388
 42
0.000000
 10
8.499982
 20
-66.037621
 42
0.000000
 10
5.749982
 20
-63.287621
 42
0.000000
 10
5.749982
 20
-9.749931
 42
0.000000
 10
1.249982
 20
-9.749931
 42
0.000000
 10
1.249982
 20
-20.999931
 42
0.000000
 10
2.499982
 20
-20.999931
 42
0.000000
 10
2.499982
 20
-10.999931
 42
0.000000
 10
4.499982
 20
-10.999931
 42
0.000000
 10
4.499982
 20
-63.805388
 42
0.000000
 97
     0
 75
     0
 76
     1
 98
     0
  0
ENDBLK
  5
504
100
AcDbEntity
  8
0
100
AcDbBlockEnd
  0
BLOCK
  5
505
100
AcDbEntity
  8
Detail
100
AcDbBlockBegin
  2
B-58
 70
    66
 10
0.000000
 20
0.000000
 30
0.000000
  0
LWPOLYLINE
  5
506
100
AcDbEntity
  8
Detail
  6
CONTINUOUS
 62
     4
100
AcDbPolyline
 90
    11
 10
-79.500018
 20
-30.999931
 42
0.000000
 10
-3.500018
 20
-30.999931
 42
0.000000
 10
4.499982
 20
-30.999931
 42
0.000000
 10
4.499982
 20
-10.999931
 42
0.000000
 10
2.499982
 20
-10.999931
 42
0.000000
 10
2.499982
 20
-28.999931
 42
0.000000
 10
-1.500018
 20
-28.999931
 42
0.000000
 10
-77.500018
 20
-28.999931
 42
0.000000
 10
-77.500018
 20
19.000069
 42
0.000000
 10
-79.500018
 20
19.000069
 42
0.000000
 10
-79.500018
 20
-30.999931
 42
0.000000
  0
ENDBLK
  5
512
100
AcDbEntity
  8
0
100
AcDbBlockEnd
  0
BLOCK
  5
513
100
AcDbEntity
  8
Detail
100
AcDbBlockBegin
  2
B-59
 70
    66
 10
0.000000
 20
0.000000
 30
0.000000
  0
LWPOLYLINE
  5
514
100
AcDbEntity
  8
Detail
  6
CONTINUOUS
 62
     4
100
AcDbPolyline
 90
    11
 10
1.249982
 20
-20.999931
 42
0.000000
 10
2.499982
 20
-20.999931
 42
0.000000
 10
2.499982
 20
-10.999931
 42
0.000000
 10
4.499982
 20
-10.999931
 42
0.000000
 10
4.499982
 20
-63.805388
 42
0.000000
 10
8.499982
 20
-67.805388
 42
0.000000
 10
8.499982
 20
-66.037621
 42
0.000000
 10
5.749982
 20
-63.287621
 42
0.000000
 10
5.749982
 20
-9.749931
 42
0.000000
 10
1.249982
 20
-9.749931
 42
0.000000
 10
1.249982
 20
-20.999931
 42
0.000000
  0
ENDBLK
  5
520
100
AcDbEntity
  8
0
100
AcDbBlockEnd
  0
BLOCK
  5
521
100
AcDbEntity
  8
L
100
AcDbBlockBegin
  2
B-60
 70
    66
 10
0.000000
 20
0.000000
 30
0.000000
  0
LWPOLYLINE
  5
522
100
AcDbEntity
  8
L
  6
CONTINUOUS
 62
     2
100
AcDbPolyline
 90
     3
 10
-212.494823
 20
-35.499783
 42
0.000000
 10
-82.494823
 20
-35.499783
 42
0.000000
 10
-82.500018
 20
296.250078
 42
0.000000
  0
ENDBLK
  5
526
100
AcDbEntity
  8
0
100
AcDbBlockEnd
  0
BLOCK
  5
527
100
AcDbEntity
  8
SCHRAFF
100
AcDbBlockBegin
  2
B-61
 70
    66
 10
0.000000
 20
0.000000
 30
0.000000
  0
HATCH
  5
528
100
AcDbEntity
  8
SCHRAFF
 62
   250
440
     0
100
AcDbHatch
 10
0.000000
 20
0.000000
 30
0.000000
210
0.000000
220
0.000000
230
1.000000
  2
SOLID
 70
     1
 71
     1
 91
     1
 92
    18
 72
     1
 73
     0
 93
     9
 10
2.499982
 20
-73.749931
 42
0.000000
 10
8.499982
 20
-79.749931
 42
0.000000
 10
8.499982
 20
-77.805388
 42
0.000000
 10
3.749982
 20
-73.055388
 42
0.000000
 10
3.749982
 20
-43.749931
 42
0.000000
 10
-27.500018
 20
-43.749931
 42
0.000000
 10
-27.500018
 20
-44.999931
 42
0.000000
 10
2.499982
 20
-44.999931
 42
0.000000
 10
2.499982
 20
-73.749931
 42
0.000000
 97
     0
 75
     0
 76
     1
 98
     0
  0
ENDBLK
  5
529
100
AcDbEntity
  8
0
100
AcDbBlockEnd
  0
BLOCK
  5
52A
100
AcDbEntity
  8
Detail
100
AcDbBlockBegin
  2
B-62
 70
    66
 10
0.000000
 20
0.000000
 30
0.000000
  0
LWPOLYLINE
  5
52B
100
AcDbEntity
  8
Detail
  6
CONTINUOUS
 62
     4
100
AcDbPolyline
 90
     9
 10
-27.500018
 20
-44.999931
 42
0.000000
 10
2.499982
 20
-44.999931
 42
0.000000
 10
2.499982
 20
-73.749931
 42
0.000000
 10
8.499982
 20
-79.749931
 42
0.000000
 10
8.499982
 20
-77.805388
 42
0.000000
 10
3.749982
 20
-73.055388
 42
0.000000
 10
3.749982
 20
-43.749931
 42
0.000000
 10
-27.500018
 20
-43.749931
 42
0.000000
 10
-27.500018
 20
-44.999931
 42
0.000000
  0
ENDBLK
  5
535
100
AcDbEntity
  8
0
100
AcDbBlockEnd
  0
BLOCK
  5
536
100
AcDbEntity
  8
SCHRAFF
100
AcDbBlockBegin
  2
B-63
 70
    66
 10
0.000000
 20
0.000000
 30
0.000000
  0
HATCH
  5
537
100
AcDbEntity
  8
SCHRAFF
 62
   250
440
     0
100
AcDbHatch
 10
0.000000
 20
0.000000
 30
0.000000
210
0.000000
220
0.000000
230
1.000000
  2
SOLID
 70
     1
 71
     1
 91
     1
 92
    18
 72
     1
 73
     0
 93
     5
 10
-82.500018
 20
19.000069
 42
0.000000
 10
-82.500018
 20
-30.999931
 42
0.000000
 10
-79.500018
 20
-30.999931
 42
0.000000
 10
-79.500018
 20
19.000069
 42
0.000000
 10
-82.500018
 20
19.000069
 42
0.000000
 97
     0
 75
     0
 76
     1
 98
     0
  0
ENDBLK
  5
538
100
AcDbEntity
  8
0
100
AcDbBlockEnd
  0
BLOCK
  5
539
100
AcDbEntity
  8
Detail
100
AcDbBlockBegin
  2
B-64
 70
    66
 10
0.000000
 20
0.000000
 30
0.000000
  0
LWPOLYLINE
  5
53A
100
AcDbEntity
  8
Detail
  6
CONTINUOUS
 62
     4
100
AcDbPolyline
 90
     5
 10
-79.500018
 20
19.000069
 42
0.000000
 10
-82.500018
 20
19.000069
 42
0.000000
 10
-82.500018
 20
-30.999931
 42
0.000000
 10
-79.500018
 20
-30.999931
 42
0.000000
 10
-79.500018
 20
19.000069
 42
0.000000
  0
ENDBLK
  5
540
100
AcDbEntity
  8
0
100
AcDbBlockEnd
  0
BLOCK
  5
541
100
AcDbEntity
  8
Detail
100
AcDbBlockBegin
  2
B-65
 70
    66
 10
0.000000
 20
0.000000
 30
0.000000
  0
LWPOLYLINE
  5
542
100
AcDbEntity
  8
Detail
  6
CONTINUOUS
 62
     9
100
AcDbPolyline
 90
   171
 10
-133.764215
 20
-13.499931
 42
0.000000
 10
-131.651139
 20
-13.124667
 42
0.000000
 10
-131.149564
 20
-12.255913
 42
0.000000
 10
-130.760889
 20
-12.755913
 42
0.000000
 10
-129.680552
 20
-12.308423
 42
0.000000
 10
-129.178977
 20
-11.439669
 42
0.000000
 10
-128.790302
 20
-11.939669
 42
0.000000
 10
-128.211525
 20
-11.699931
 42
0.000000
 10
-127.610486
 20
-11.699931
 42
0.000000
 10
-127.321811
 20
-11.199931
 42
0.000000
 10
-126.933136
 20
-11.699931
 42
0.000000
 10
-125.800486
 20
-11.699931
 42
0.000000
 10
-125.511811
 20
-11.199931
 42
0.000000
 10
-125.123136
 20
-11.699931
 42
0.000000
 10
-123.990486
 20
-11.699931
 42
0.000000
 10
-123.701811
 20
-11.199931
 42
0.000000
 10
-123.313136
 20
-11.699931
 42
0.000000
 10
-122.180486
 20
-11.699931
 42
0.000000
 10
-121.891811
 20
-11.199931
 42
0.000000
 10
-121.503136
 20
-11.699931
 42
0.000000
 10
-120.370486
 20
-11.699931
 42
0.000000
 10
-120.081811
 20
-11.199931
 42
0.000000
 10
-119.693136
 20
-11.699931
 42
0.000000
 10
-118.560486
 20
-11.699931
 42
0.000000
 10
-118.271811
 20
-11.199931
 42
0.000000
 10
-117.883136
 20
-11.699931
 42
0.000000
 10
-116.750486
 20
-11.699931
 42
0.000000
 10
-116.461811
 20
-11.199931
 42
0.000000
 10
-116.073136
 20
-11.699931
 42
0.000000
 10
-114.940486
 20
-11.699931
 42
0.000000
 10
-114.651811
 20
-11.199931
 42
0.000000
 10
-114.263136
 20
-11.699931
 42
0.000000
 10
-113.130486
 20
-11.699931
 42
0.000000
 10
-112.841811
 20
-11.199931
 42
0.000000
 10
-112.453136
 20
-11.699931
 42
0.000000
 10
-111.320486
 20
-11.699931
 42
0.000000
 10
-111.031811
 20
-11.199931
 42
0.000000
 10
-110.643136
 20
-11.699931
 42
0.000000
 10
-109.510486
 20
-11.699931
 42
0.000000
 10
-109.221811
 20
-11.199931
 42
0.000000
 10
-108.833136
 20
-11.699931
 42
0.000000
 10
-107.700486
 20
-11.699931
 42
0.000000
 10
-107.411811
 20
-11.199931
 42
0.000000
 10
-107.023136
 20
-11.699931
 42
0.000000
 10
-105.890486
 20
-11.699931
 42
0.000000
 10
-105.601811
 20
-11.199931
 42
0.000000
 10
-105.213136
 20
-11.699931
 42
0.000000
 10
-104.080486
 20
-11.699931
 42
0.000000
 10
-103.791811
 20
-11.199931
 42
0.000000
 10
-103.403136
 20
-11.699931
 42
0.000000
 10
-102.270486
 20
-11.699931
 42
0.000000
 10
-101.981811
 20
-11.199931
 42
0.000000
 10
-101.593136
 20
-11.699931
 42
0.000000
 10
-100.460486
 20
-11.699931
 42
0.000000
 10
-100.171811
 20
-11.199931
 42
0.000000
 10
-99.783136
 20
-11.699931
 42
0.000000
 10
-98.650486
 20
-11.699931
 42
0.000000
 10
-98.361811
 20
-11.199931
 42
0.000000
 10
-97.950622
 20
-11.699931
 42
0.000000
 10
-96.840486
 20
-11.699931
 42
0.000000
 10
-96.551811
 20
-11.199931
 42
0.000000
 10
-96.163136
 20
-11.699931
 42
0.000000
 10
-95.030486
 20
-11.699931
 42
0.000000
 10
-94.741811
 20
-11.199931
 42
0.000000
 10
-94.353136
 20
-11.699931
 42
0.000000
 10
-93.220486
 20
-11.699931
 42
0.000000
 10
-92.931811
 20
-11.199931
 42
0.000000
 10
-92.543136
 20
-11.699931
 42
0.000000
 10
-91.410486
 20
-11.699931
 42
0.000000
 10
-91.121811
 20
-11.199931
 42
0.000000
 10
-90.733136
 20
-11.699931
 42
0.000000
 10
-89.600486
 20
-11.699931
 42
0.000000
 10
-89.311811
 20
-11.199931
 42
0.000000
 10
-88.923136
 20
-11.699931
 42
0.000000
 10
-87.790486
 20
-11.699931
 42
0.000000
 10
-87.501811
 20
-11.199931
 42
0.000000
 10
-87.113136
 20
-11.699931
 42
0.000000
 10
-85.980486
 20
-11.699931
 42
0.000000
 10
-85.691811
 20
-11.199931
 42
0.000000
 10
-85.303136
 20
-11.699931
 42
0.000000
 10
-84.170486
 20
-11.699931
 42
0.000000
 10
-83.881811
 20
-11.199931
 42
0.000000
 10
-83.493136
 20
-11.699931
 42
0.000000
 10
-82.792525
 20
-11.699931
 42
0.000000
 10
-77.500018
 20
-9.620042
 42
0.000000
 10
-77.500018
 20
-17.379821
 42
0.000000
 10
-82.588136
 20
-15.299931
 42
0.000000
 10
-82.976811
 20
-15.799931
 42
0.000000
 10
-83.265486
 20
-15.299931
 42
0.000000
 10
-84.398136
 20
-15.299931
 42
0.000000
 10
-84.786811
 20
-15.799931
 42
0.000000
 10
-85.075486
 20
-15.299931
 42
0.000000
 10
-86.208136
 20
-15.299931
 42
0.000000
 10
-86.596811
 20
-15.799931
 42
0.000000
 10
-86.885486
 20
-15.299931
 42
0.000000
 10
-88.018136
 20
-15.299931
 42
0.000000
 10
-88.406811
 20
-15.799931
 42
0.000000
 10
-88.695486
 20
-15.299931
 42
0.000000
 10
-89.828136
 20
-15.299931
 42
0.000000
 10
-90.216811
 20
-15.799931
 42
0.000000
 10
-90.505486
 20
-15.299931
 42
0.000000
 10
-91.638136
 20
-15.299931
 42
0.000000
 10
-92.026811
 20
-15.799931
 42
0.000000
 10
-92.315486
 20
-15.299931
 42
0.000000
 10
-93.448136
 20
-15.299931
 42
0.000000
 10
-93.836811
 20
-15.799931
 42
0.000000
 10
-94.125486
 20
-15.299931
 42
0.000000
 10
-95.258136
 20
-15.299931
 42
0.000000
 10
-95.646811
 20
-15.799931
 42
0.000000
 10
-95.935486
 20
-15.299931
 42
0.000000
 10
-97.068136
 20
-15.299931
 42
0.000000
 10
-97.456811
 20
-15.799931
 42
0.000000
 10
-97.745486
 20
-15.299931
 42
0.000000
 10
-98.878136
 20
-15.299931
 42
0.000000
 10
-99.266811
 20
-15.799931
 42
0.000000
 10
-99.555486
 20
-15.299931
 42
0.000000
 10
-100.688136
 20
-15.299931
 42
0.000000
 10
-101.076811
 20
-15.799931
 42
0.000000
 10
-101.365486
 20
-15.299931
 42
0.000000
 10
-102.498136
 20
-15.299931
 42
0.000000
 10
-102.886811
 20
-15.799931
 42
0.000000
 10
-103.175486
 20
-15.299931
 42
0.000000
 10
-104.308136
 20
-15.299931
 42
0.000000
 10
-104.696811
 20
-15.799931
 42
0.000000
 10
-104.985486
 20
-15.299931
 42
0.000000
 10
-106.118136
 20
-15.299931
 42
0.000000
 10
-106.506811
 20
-15.799931
 42
0.000000
 10
-106.795486
 20
-15.299931
 42
0.000000
 10
-107.928136
 20
-15.299931
 42
0.000000
 10
-108.316811
 20
-15.799931
 42
0.000000
 10
-108.605486
 20
-15.299931
 42
0.000000
 10
-109.738136
 20
-15.299931
 42
0.000000
 10
-110.126811
 20
-15.799931
 42
0.000000
 10
-110.415486
 20
-15.299931
 42
0.000000
 10
-111.548136
 20
-15.299931
 42
0.000000
 10
-111.936811
 20
-15.799931
 42
0.000000
 10
-112.225486
 20
-15.299931
 42
0.000000
 10
-113.358136
 20
-15.299931
 42
0.000000
 10
-113.746811
 20
-15.799931
 42
0.000000
 10
-114.035486
 20
-15.299931
 42
0.000000
 10
-115.168136
 20
-15.299931
 42
0.000000
 10
-115.556811
 20
-15.799931
 42
0.000000
 10
-115.845486
 20
-15.299931
 42
0.000000
 10
-116.978136
 20
-15.299931
 42
0.000000
 10
-117.366811
 20
-15.799931
 42
0.000000
 10
-117.655486
 20
-15.299931
 42
0.000000
 10
-118.788136
 20
-15.299931
 42
0.000000
 10
-119.176811
 20
-15.799931
 42
0.000000
 10
-119.465486
 20
-15.299931
 42
0.000000
 10
-120.598136
 20
-15.299931
 42
0.000000
 10
-120.986811
 20
-15.799931
 42
0.000000
 10
-121.275486
 20
-15.299931
 42
0.000000
 10
-122.408136
 20
-15.299931
 42
0.000000
 10
-122.796811
 20
-15.799931
 42
0.000000
 10
-123.085486
 20
-15.299931
 42
0.000000
 10
-124.218136
 20
-15.299931
 42
0.000000
 10
-124.606811
 20
-15.799931
 42
0.000000
 10
-124.895486
 20
-15.299931
 42
0.000000
 10
-126.028136
 20
-15.299931
 42
0.000000
 10
-126.416811
 20
-15.799931
 42
0.000000
 10
-126.705486
 20
-15.299931
 42
0.000000
 10
-127.838136
 20
-15.299931
 42
0.000000
 10
-128.226811
 20
-15.799931
 42
0.000000
 10
-128.611026
 20
-15.134452
 42
0.000000
 10
-129.539885
 20
-14.749706
 42
0.000000
 10
-129.928560
 20
-15.249706
 42
0.000000
 10
-130.430135
 20
-14.380952
 42
0.000000
 10
-131.213499
 20
-14.056472
 42
0.000000
 10
-131.602174
 20
-14.556472
 42
0.000000
 10
-132.103749
 20
-13.687719
 42
0.000000
 10
-133.764215
 20
-13.499931
 42
0.000000
  0
LWPOLYLINE
  5
5EE
100
AcDbEntity
  8
Detail
  6
CONTINUOUS
 62
     9
100
AcDbPolyline
 90
    73
 10
-77.500018
 20
-20.399054
 42
0.000000
 10
-76.000018
 20
-18.134629
 42
0.000000
 10
-76.000018
 20
-8.865234
 42
0.000000
 10
-77.500018
 20
-6.600809
 42
0.000000
 10
-77.500018
 20
-9.620042
 42
0.000000
 10
-92.212215
 20
-10.039931
 42
0.000000
 10
-93.578158
 20
-10.286941
 42
0.000000
 10
-93.653911
 20
-10.039931
 42
0.000000
 10
-96.436215
 20
-10.039931
 42
0.000000
 10
-97.802158
 20
-10.286941
 42
0.000000
 10
-97.877911
 20
-10.039931
 42
0.000000
 10
-100.660215
 20
-10.039931
 42
0.000000
 10
-102.026158
 20
-10.286941
 42
0.000000
 10
-102.101827
 20
-10.044731
 42
0.000000
 10
-104.884215
 20
-10.039931
 42
0.000000
 10
-106.250158
 20
-10.286941
 42
0.000000
 10
-106.325911
 20
-10.039931
 42
0.000000
 10
-109.108215
 20
-10.039931
 42
0.000000
 10
-110.474158
 20
-10.286941
 42
0.000000
 10
-110.549911
 20
-10.039931
 42
0.000000
 10
-113.332215
 20
-10.039931
 42
0.000000
 10
-114.698158
 20
-10.286941
 42
0.000000
 10
-114.773911
 20
-10.039931
 42
0.000000
 10
-117.556215
 20
-10.039931
 42
0.000000
 10
-118.922158
 20
-10.286941
 42
0.000000
 10
-118.997911
 20
-10.039931
 42
0.000000
 10
-121.780215
 20
-10.039931
 42
0.000000
 10
-123.146158
 20
-10.286941
 42
0.000000
 10
-123.221911
 20
-10.039931
 42
0.000000
 10
-126.004215
 20
-10.039931
 42
0.000000
 10
-127.208372
 20
-10.322364
 42
0.000000
 10
-127.667355
 20
-10.159932
 42
0.000000
 10
-128.644215
 20
-10.594188
 42
0.000000
 10
-128.884215
 20
-11.119931
 42
0.000000
 10
-129.652215
 20
-11.119931
 42
0.000000
 10
-131.170108
 20
-11.660899
 42
0.000000
 10
-132.003725
 20
-13.039931
 42
0.000000
 10
-133.764215
 20
-13.499931
 42
0.000000
 10
-132.003725
 20
-13.959931
 42
0.000000
 10
-131.170108
 20
-15.338964
 42
0.000000
 10
-129.907414
 20
-15.866325
 42
0.000000
 10
-128.884215
 20
-15.879931
 42
0.000000
 10
-128.644215
 20
-16.405675
 42
0.000000
 10
-127.892059
 20
-16.839931
 42
0.000000
 10
-127.442646
 20
-16.839931
 42
0.000000
 10
-127.208372
 20
-16.677499
 42
0.000000
 10
-126.004215
 20
-16.959931
 42
0.000000
 10
-123.221911
 20
-16.959931
 42
0.000000
 10
-123.146158
 20
-16.712922
 42
0.000000
 10
-121.780215
 20
-16.959931
 42
0.000000
 10
-118.997911
 20
-16.959931
 42
0.000000
 10
-118.922158
 20
-16.712922
 42
0.000000
 10
-117.556215
 20
-16.959931
 42
0.000000
 10
-114.773911
 20
-16.959931
 42
0.000000
 10
-114.698158
 20
-16.712922
 42
0.000000
 10
-113.332215
 20
-16.959931
 42
0.000000
 10
-110.549911
 20
-16.959931
 42
0.000000
 10
-110.474158
 20
-16.712922
 42
0.000000
 10
-109.108215
 20
-16.959931
 42
0.000000
 10
-106.325911
 20
-16.959931
 42
0.000000
 10
-106.250158
 20
-16.712922
 42
0.000000
 10
-104.884215
 20
-16.959931
 42
0.000000
 10
-102.101827
 20
-16.955131
 42
0.000000
 10
-102.026158
 20
-16.712922
 42
0.000000
 10
-100.660215
 20
-16.959931
 42
0.000000
 10
-97.877911
 20
-16.959931
 42
0.000000
 10
-97.802158
 20
-16.712922
 42
0.000000
 10
-96.436215
 20
-16.959931
 42
0.000000
 10
-93.653911
 20
-16.959931
 42
0.000000
 10
-93.578158
 20
-16.712922
 42
0.000000
 10
-92.212215
 20
-16.959931
 42
0.000000
 10
-77.500018
 20
-17.379821
 42
0.000000
 10
-77.500018
 20
-20.399054
 42
0.000000
  0
ENDBLK
  5
638
100
AcDbEntity
  8
0
100
AcDbBlockEnd
  0
BLOCK
  5
639
100
AcDbEntity
  8
Detail
100
AcDbBlockBegin
  2
B-67
 70
    66
 10
0.000000
 20
0.000000
 30
0.000000
  0
LWPOLYLINE
  5
63A
100
AcDbEntity
  8
Detail
  6
CONTINUOUS
 62
     6
100
AcDbPolyline
 90
   364
 10
8.789191
 20
296.250078
 42
0.000000
 10
8.999982
 20
295.828496
 42
0.000000
 10
8.499982
 20
294.820829
 42
0.000000
 10
8.499982
 20
293.828496
 42
0.000000
 10
7.999982
 20
292.828496
 42
0.000000
 10
8.499982
 20
291.828496
 42
0.000000
 10
8.499982
 20
290.828496
 42
0.000000
 10
8.999982
 20
289.828496
 42
0.000000
 10
8.499982
 20
288.828496
 42
0.000000
 10
8.499982
 20
287.828496
 42
0.000000
 10
7.999982
 20
286.828496
 42
0.000000
 10
8.499982
 20
285.828496
 42
0.000000
 10
8.499982
 20
284.828496
 42
0.000000
 10
8.999982
 20
283.828496
 42
0.000000
 10
8.499982
 20
282.828496
 42
0.000000
 10
8.499982
 20
281.828496
 42
0.000000
 10
7.999982
 20
280.828496
 42
0.000000
 10
8.499982
 20
279.828496
 42
0.000000
 10
8.499982
 20
278.828496
 42
0.000000
 10
8.999982
 20
277.828496
 42
0.000000
 10
8.499982
 20
276.828496
 42
0.000000
 10
8.499982
 20
275.828496
 42
0.000000
 10
7.999982
 20
274.828496
 42
0.000000
 10
8.499982
 20
273.828496
 42
0.000000
 10
8.499982
 20
272.828496
 42
0.000000
 10
8.999982
 20
271.828496
 42
0.000000
 10
8.499982
 20
270.828496
 42
0.000000
 10
8.499982
 20
269.828496
 42
0.000000
 10
7.999982
 20
268.828496
 42
0.000000
 10
8.499982
 20
267.828496
 42
0.000000
 10
8.499982
 20
266.828496
 42
0.000000
 10
8.999982
 20
265.828496
 42
0.000000
 10
8.499982
 20
264.828496
 42
0.000000
 10
8.499982
 20
263.828496
 42
0.000000
 10
7.999982
 20
262.828496
 42
0.000000
 10
8.499982
 20
261.828496
 42
0.000000
 10
8.499982
 20
260.828496
 42
0.000000
 10
8.999982
 20
259.828496
 42
0.000000
 10
8.499982
 20
258.820829
 42
0.000000
 10
8.499982
 20
257.828496
 42
0.000000
 10
7.999982
 20
256.828496
 42
0.000000
 10
8.499982
 20
255.814488
 42
0.000000
 10
8.499982
 20
254.828496
 42
0.000000
 10
8.999982
 20
253.828496
 42
0.000000
 10
8.499982
 20
252.828496
 42
0.000000
 10
8.499982
 20
251.828496
 42
0.000000
 10
7.999982
 20
250.828496
 42
0.000000
 10
8.499982
 20
249.828496
 42
0.000000
 10
8.499982
 20
248.828496
 42
0.000000
 10
8.999982
 20
247.828496
 42
0.000000
 10
8.499982
 20
246.828496
 42
0.000000
 10
8.499982
 20
245.828496
 42
0.000000
 10
7.999982
 20
244.828496
 42
0.000000
 10
8.499982
 20
243.828496
 42
0.000000
 10
8.499982
 20
242.828496
 42
0.000000
 10
8.999982
 20
241.828396
 42
0.000000
 10
8.499982
 20
240.828396
 42
0.000000
 10
8.499982
 20
239.828496
 42
0.000000
 10
7.999982
 20
238.828496
 42
0.000000
 10
8.499982
 20
237.828496
 42
0.000000
 10
8.499982
 20
236.828496
 42
0.000000
 10
8.999982
 20
235.828496
 42
0.000000
 10
8.499982
 20
234.828496
 42
0.000000
 10
8.499982
 20
233.828496
 42
0.000000
 10
7.999982
 20
232.828496
 42
0.000000
 10
8.499982
 20
231.828496
 42
0.000000
 10
8.499982
 20
230.828496
 42
0.000000
 10
8.999982
 20
229.828496
 42
0.000000
 10
8.499982
 20
228.820829
 42
0.000000
 10
8.499982
 20
227.828496
 42
0.000000
 10
7.999982
 20
226.828496
 42
0.000000
 10
8.499982
 20
225.828496
 42
0.000000
 10
8.499982
 20
224.828496
 42
0.000000
 10
8.999982
 20
223.828496
 42
0.000000
 10
8.499982
 20
222.828496
 42
0.000000
 10
8.499982
 20
221.828496
 42
0.000000
 10
7.999982
 20
220.828496
 42
0.000000
 10
8.499982
 20
219.828496
 42
0.000000
 10
8.499982
 20
218.828496
 42
0.000000
 10
8.999982
 20
217.828496
 42
0.000000
 10
8.499982
 20
216.828496
 42
0.000000
 10
8.499982
 20
215.828496
 42
0.000000
 10
7.999982
 20
214.828496
 42
0.000000
 10
8.499982
 20
213.828496
 42
0.000000
 10
8.499982
 20
212.828496
 42
0.000000
 10
8.999982
 20
211.828496
 42
0.000000
 10
8.499982
 20
210.828496
 42
0.000000
 10
8.499982
 20
209.828496
 42
0.000000
 10
7.999982
 20
208.828496
 42
0.000000
 10
8.499982
 20
207.828496
 42
0.000000
 10
8.499982
 20
206.828496
 42
0.000000
 10
8.999982
 20
205.828496
 42
0.000000
 10
8.499982
 20
204.828496
 42
0.000000
 10
8.499982
 20
203.828496
 42
0.000000
 10
7.999982
 20
202.828496
 42
0.000000
 10
8.499982
 20
201.828496
 42
0.000000
 10
8.499982
 20
200.828496
 42
0.000000
 10
8.999982
 20
199.828496
 42
0.000000
 10
8.499982
 20
198.828496
 42
0.000000
 10
8.499982
 20
197.828496
 42
0.000000
 10
7.999982
 20
196.828496
 42
0.000000
 10
8.499982
 20
195.828496
 42
0.000000
 10
8.499982
 20
194.828496
 42
0.000000
 10
8.999982
 20
193.828496
 42
0.000000
 10
8.499982
 20
192.820829
 42
0.000000
 10
8.499982
 20
191.828496
 42
0.000000
 10
7.999982
 20
190.828496
 42
0.000000
 10
8.499982
 20
189.828496
 42
0.000000
 10
8.499982
 20
188.828496
 42
0.000000
 10
8.999982
 20
187.828496
 42
0.000000
 10
8.499982
 20
186.828496
 42
0.000000
 10
8.499982
 20
185.828496
 42
0.000000
 10
7.999982
 20
184.828496
 42
0.000000
 10
8.499982
 20
183.828496
 42
0.000000
 10
8.499982
 20
182.828496
 42
0.000000
 10
8.999982
 20
181.828496
 42
0.000000
 10
8.499982
 20
180.828496
 42
0.000000
 10
8.499982
 20
179.828496
 42
0.000000
 10
7.999982
 20
178.828496
 42
0.000000
 10
8.499982
 20
177.828496
 42
0.000000
 10
8.499982
 20
176.828496
 42
0.000000
 10
8.999982
 20
175.828496
 42
0.000000
 10
8.499982
 20
174.828496
 42
0.000000
 10
8.499982
 20
173.828496
 42
0.000000
 10
7.999982
 20
172.828496
 42
0.000000
 10
8.499982
 20
171.828496
 42
0.000000
 10
8.499982
 20
170.828496
 42
0.000000
 10
8.999982
 20
169.828496
 42
0.000000
 10
8.499982
 20
168.828496
 42
0.000000
 10
8.499982
 20
167.828496
 42
0.000000
 10
7.999982
 20
166.828496
 42
0.000000
 10
8.499982
 20
165.828496
 42
0.000000
 10
8.499982
 20
164.828496
 42
0.000000
 10
8.999982
 20
163.828496
 42
0.000000
 10
8.499982
 20
162.828496
 42
0.000000
 10
8.499982
 20
161.828496
 42
0.000000
 10
7.999982
 20
160.828496
 42
0.000000
 10
8.499982
 20
159.828496
 42
0.000000
 10
8.499982
 20
158.828496
 42
0.000000
 10
8.999982
 20
157.828496
 42
0.000000
 10
8.499982
 20
156.828496
 42
0.000000
 10
8.499982
 20
155.828496
 42
0.000000
 10
7.999982
 20
154.828496
 42
0.000000
 10
8.499982
 20
153.828496
 42
0.000000
 10
8.499982
 20
152.828496
 42
0.000000
 10
8.999982
 20
151.828496
 42
0.000000
 10
8.499982
 20
150.828496
 42
0.000000
 10
8.499982
 20
149.828496
 42
0.000000
 10
7.999982
 20
148.828496
 42
0.000000
 10
8.499982
 20
147.828496
 42
0.000000
 10
8.499982
 20
146.828496
 42
0.000000
 10
8.999982
 20
145.828496
 42
0.000000
 10
8.499982
 20
144.828496
 42
0.000000
 10
8.499982
 20
143.828496
 42
0.000000
 10
7.999982
 20
142.828496
 42
0.000000
 10
8.499982
 20
141.828496
 42
0.000000
 10
8.499982
 20
140.828496
 42
0.000000
 10
8.999982
 20
139.828496
 42
0.000000
 10
8.499982
 20
138.828496
 42
0.000000
 10
8.499982
 20
137.828496
 42
0.000000
 10
7.999982
 20
136.828496
 42
0.000000
 10
8.499982
 20
135.828496
 42
0.000000
 10
8.499982
 20
134.828496
 42
0.000000
 10
8.999982
 20
133.828496
 42
0.000000
 10
8.499982
 20
132.828496
 42
0.000000
 10
8.499982
 20
131.828496
 42
0.000000
 10
7.999982
 20
130.828496
 42
0.000000
 10
8.499982
 20
129.828496
 42
0.000000
 10
8.499982
 20
128.828496
 42
0.000000
 10
8.999982
 20
127.828496
 42
0.000000
 10
8.499982
 20
126.828496
 42
0.000000
 10
8.499982
 20
125.828496
 42
0.000000
 10
7.999982
 20
124.828496
 42
0.000000
 10
8.499982
 20
123.828496
 42
0.000000
 10
8.499982
 20
122.828496
 42
0.000000
 10
8.999982
 20
121.828496
 42
0.000000
 10
8.499982
 20
120.828496
 42
0.000000
 10
8.499982
 20
119.828496
 42
0.000000
 10
7.999982
 20
118.828496
 42
0.000000
 10
8.499982
 20
117.828496
 42
0.000000
 10
8.504380
 20
116.819699
 42
0.000000
 10
8.999982
 20
115.828496
 42
0.000000
 10
8.499982
 20
114.828496
 42
0.000000
 10
8.499982
 20
113.828496
 42
0.000000
 10
7.999982
 20
112.828496
 42
0.000000
 10
8.499982
 20
111.828496
 42
0.000000
 10
8.499982
 20
110.828496
 42
0.000000
 10
8.999982
 20
109.828496
 42
0.000000
 10
8.499982
 20
108.828496
 42
0.000000
 10
8.499982
 20
107.828496
 42
0.000000
 10
7.999982
 20
106.828496
 42
0.000000
 10
8.499982
 20
105.828496
 42
0.000000
 10
8.499982
 20
104.828496
 42
0.000000
 10
8.999982
 20
103.828496
 42
0.000000
 10
8.499982
 20
102.828496
 42
0.000000
 10
8.499982
 20
101.828496
 42
0.000000
 10
7.999982
 20
100.828496
 42
0.000000
 10
8.499982
 20
99.828496
 42
0.000000
 10
8.499982
 20
98.828496
 42
0.000000
 10
8.999982
 20
97.828496
 42
0.000000
 10
8.499982
 20
96.828496
 42
0.000000
 10
8.499982
 20
95.828496
 42
0.000000
 10
7.999982
 20
94.828496
 42
0.000000
 10
8.499982
 20
93.828496
 42
0.000000
 10
8.499982
 20
92.828496
 42
0.000000
 10
8.999982
 20
91.828496
 42
0.000000
 10
8.499982
 20
90.828496
 42
0.000000
 10
8.499982
 20
89.828496
 42
0.000000
 10
7.999982
 20
88.828496
 42
0.000000
 10
8.499982
 20
87.828496
 42
0.000000
 10
8.499982
 20
86.828496
 42
0.000000
 10
8.999982
 20
85.828496
 42
0.000000
 10
8.499982
 20
84.820829
 42
0.000000
 10
8.499982
 20
83.828496
 42
0.000000
 10
7.999982
 20
82.828496
 42
0.000000
 10
8.499982
 20
81.828496
 42
0.000000
 10
8.499982
 20
80.828496
 42
0.000000
 10
8.999982
 20
79.828496
 42
0.000000
 10
8.499982
 20
78.828496
 42
0.000000
 10
8.499982
 20
77.828496
 42
0.000000
 10
7.999982
 20
76.828496
 42
0.000000
 10
8.499982
 20
75.828496
 42
0.000000
 10
8.499982
 20
74.828496
 42
0.000000
 10
8.999982
 20
73.828496
 42
0.000000
 10
8.499982
 20
72.828496
 42
0.000000
 10
8.499982
 20
71.828496
 42
0.000000
 10
7.999982
 20
70.828496
 42
0.000000
 10
8.499982
 20
69.828496
 42
0.000000
 10
8.499982
 20
68.828496
 42
0.000000
 10
8.999982
 20
67.828496
 42
0.000000
 10
8.499982
 20
66.828496
 42
0.000000
 10
8.499982
 20
65.828496
 42
0.000000
 10
7.999982
 20
64.828496
 42
0.000000
 10
8.499982
 20
63.828496
 42
0.000000
 10
8.499982
 20
62.828496
 42
0.000000
 10
8.999982
 20
61.828496
 42
0.000000
 10
8.499982
 20
60.828496
 42
0.000000
 10
8.499982
 20
59.828496
 42
0.000000
 10
7.999982
 20
58.828496
 42
0.000000
 10
8.499982
 20
57.828496
 42
0.000000
 10
8.499982
 20
56.828496
 42
0.000000
 10
8.999982
 20
55.828496
 42
0.000000
 10
8.499982
 20
54.828496
 42
0.000000
 10
8.499982
 20
53.828496
 42
0.000000
 10
7.999982
 20
52.828496
 42
0.000000
 10
8.499982
 20
51.828496
 42
0.000000
 10
8.499982
 20
50.828496
 42
0.000000
 10
8.999982
 20
49.828496
 42
0.000000
 10
8.499982
 20
48.828496
 42
0.000000
 10
8.499982
 20
47.828496
 42
0.000000
 10
7.999982
 20
46.828496
 42
0.000000
 10
8.499982
 20
45.828496
 42
0.000000
 10
8.499982
 20
44.828496
 42
0.000000
 10
8.999982
 20
43.828496
 42
0.000000
 10
8.499982
 20
42.828496
 42
0.000000
 10
8.499982
 20
41.828496
 42
0.000000
 10
7.999982
 20
40.828496
 42
0.000000
 10
8.499982
 20
39.828496
 42
0.000000
 10
8.499982
 20
38.828496
 42
0.000000
 10
8.999982
 20
37.828496
 42
0.000000
 10
8.499982
 20
36.828496
 42
0.000000
 10
8.499982
 20
35.828496
 42
0.000000
 10
7.999982
 20
34.828496
 42
0.000000
 10
8.499982
 20
33.828496
 42
0.000000
 10
8.499982
 20
32.828496
 42
0.000000
 10
8.999982
 20
31.828496
 42
0.000000
 10
8.499982
 20
30.828496
 42
0.000000
 10
8.499982
 20
29.828496
 42
0.000000
 10
7.999982
 20
28.828496
 42
0.000000
 10
8.499982
 20
27.828496
 42
0.000000
 10
8.499982
 20
26.828496
 42
0.000000
 10
8.999982
 20
25.828496
 42
0.000000
 10
8.499982
 20
24.828496
 42
0.000000
 10
8.499982
 20
23.828496
 42
0.000000
 10
7.999982
 20
22.828496
 42
0.000000
 10
8.499982
 20
21.828496
 42
0.000000
 10
8.499982
 20
20.828496
 42
0.000000
 10
8.999982
 20
19.828496
 42
0.000000
 10
8.499982
 20
18.828496
 42
0.000000
 10
8.499982
 20
17.828496
 42
0.000000
 10
7.999982
 20
16.828496
 42
0.000000
 10
8.499982
 20
15.828496
 42
0.000000
 10
8.499982
 20
14.828496
 42
0.000000
 10
8.999982
 20
13.828496
 42
0.000000
 10
8.499982
 20
12.828496
 42
0.000000
 10
8.499982
 20
11.828496
 42
0.000000
 10
7.999982
 20
10.828496
 42
0.000000
 10
8.499982
 20
9.828496
 42
0.000000
 10
8.499982
 20
8.828496
 42
0.000000
 10
8.999982
 20
7.828496
 42
0.000000
 10
8.499982
 20
6.828496
 42
0.000000
 10
8.499982
 20
5.828496
 42
0.000000
 10
7.999982
 20
4.828496
 42
0.000000
 10
8.499982
 20
3.828496
 42
0.000000
 10
8.499982
 20
2.828496
 42
0.000000
 10
8.999982
 20
1.828496
 42
0.000000
 10
8.499982
 20
0.828496
 42
0.000000
 10
8.499982
 20
-0.171504
 42
0.000000
 10
7.999982
 20
-1.171504
 42
0.000000
 10
8.499982
 20
-2.171504
 42
0.000000
 10
8.499982
 20
-3.171504
 42
0.000000
 10
8.999982
 20
-4.171504
 42
0.000000
 10
8.499982
 20
-5.171504
 42
0.000000
 10
8.499982
 20
-6.171504
 42
0.000000
 10
7.999982
 20
-7.171504
 42
0.000000
 10
8.499982
 20
-8.171504
 42
0.000000
 10
8.499982
 20
-9.171504
 42
0.000000
 10
8.999982
 20
-10.171504
 42
0.000000
 10
8.499982
 20
-11.171504
 42
0.000000
 10
8.499982
 20
-12.171504
 42
0.000000
 10
7.999982
 20
-13.171504
 42
0.000000
 10
8.499982
 20
-14.171504
 42
0.000000
 10
8.499982
 20
-15.171504
 42
0.000000
 10
8.999982
 20
-16.171504
 42
0.000000
 10
8.499982
 20
-17.171504
 42
0.000000
 10
8.499982
 20
-18.171504
 42
0.000000
 10
7.999982
 20
-19.171504
 42
0.000000
 10
8.499982
 20
-20.171504
 42
0.000000
 10
8.499982
 20
-21.171504
 42
0.000000
 10
8.999982
 20
-22.171504
 42
0.000000
 10
8.499982
 20
-23.171504
 42
0.000000
 10
8.499982
 20
-24.171504
 42
0.000000
 10
7.999982
 20
-25.171504
 42
0.000000
 10
8.499982
 20
-26.171504
 42
0.000000
 10
8.499982
 20
-27.171504
 42
0.000000
 10
8.999982
 20
-28.171504
 42
0.000000
 10
8.499982
 20
-29.171504
 42
0.000000
 10
8.499982
 20
-30.171504
 42
0.000000
 10
7.999982
 20
-31.171504
 42
0.000000
 10
8.499982
 20
-32.171504
 42
0.000000
 10
8.499982
 20
-33.171504
 42
0.000000
 10
8.999982
 20
-34.171504
 42
0.000000
 10
8.499982
 20
-35.171504
 42
0.000000
 10
8.499982
 20
-36.171504
 42
0.000000
 10
7.999982
 20
-37.171504
 42
0.000000
 10
8.499982
 20
-38.171504
 42
0.000000
 10
8.499982
 20
-39.171504
 42
0.000000
 10
8.999982
 20
-40.171504
 42
0.000000
 10
8.499982
 20
-41.171504
 42
0.000000
 10
8.499982
 20
-42.171504
 42
0.000000
 10
7.999982
 20
-43.171504
 42
0.000000
 10
8.499982
 20
-44.171504
 42
0.000000
 10
8.499982
 20
-45.171504
 42
0.000000
 10
8.999982
 20
-46.171504
 42
0.000000
 10
8.499982
 20
-47.171504
 42
0.000000
 10
8.499982
 20
-48.171504
 42
0.000000
 10
7.999982
 20
-49.171504
 42
0.000000
 10
8.499982
 20
-50.171504
 42
0.000000
 10
8.499982
 20
-51.171504
 42
0.000000
 10
8.999982
 20
-52.171504
 42
0.000000
 10
8.499982
 20
-53.179171
 42
0.000000
 10
8.499982
 20
-54.171504
 42
0.000000
 10
7.999982
 20
-55.171504
 42
0.000000
 10
8.499982
 20
-56.171504
 42
0.000000
 10
8.499982
 20
-57.171504
 42
0.000000
 10
8.999982
 20
-58.171504
 42
0.000000
 10
8.499982
 20
-59.171504
 42
0.000000
 10
8.499982
 20
-60.171504
 42
0.000000
 10
7.999982
 20
-61.171504
 42
0.000000
 10
8.499982
 20
-62.171504
 42
0.000000
 10
8.499982
 20
-63.171504
 42
0.000000
 10
8.999982
 20
-64.171504
 42
0.000000
 10
8.499982
 20
-65.171504
 42
0.000000
 10
8.499982
 20
-66.037621
 42
0.000000
  0
ENDBLK
  5
7A7
100
AcDbEntity
  8
0
100
AcDbBlockEnd
  0
BLOCK
  5
7A8
100
AcDbEntity
  8
SCHRAFF
100
AcDbBlockBegin
  2
B-68
 70
    66
 10
0.000000
 20
0.000000
 30
0.000000
  0
HATCH
  5
7A9
100
AcDbEntity
  8
SCHRAFF
 62
     7
440
     0
100
AcDbHatch
 10
0.000000
 20
0.000000
 30
0.000000
210
0.000000
220
0.000000
230
1.000000
  2
SOLID
 70
     1
 71
     1
 91
     1
 92
    18
 72
     1
 73
     0
 93
     3
 10
-75.500018
 20
-13.499931
 42
1.000000
 10
-76.500018
 20
-13.499931
 42
1.000000
 10
-75.500018
 20
-13.499931
 42
0.000000
 97
     0
 75
     0
 76
     1
 98
     0
  0
LWPOLYLINE
  5
7AA
100
AcDbEntity
  8
Detail
  6
CONTINUOUS
 62
     7
100
AcDbPolyline
 90
     4
 10
77.500022
 20
49.500069
 42
0.000000
 10
-52.500018
 20
49.500069
 42
0.000000
 10
-52.500018
 20
-13.499931
 42
0.000000
 10
-76.000018
 20
-13.499931
 42
0.000000
  0
CIRCLE
  5
7AF
100
AcDbEntity
  8
Detail
  6
CONTINUOUS
 62
     7
100
AcDbCircle
 10
-76.000018
 20
-13.499931
 40
0.500000
  0
ENDBLK
  5
7B0
100
AcDbEntity
  8
0
100
AcDbBlockEnd
  0
BLOCK
  5
7B1
100
AcDbEntity
  8
SCHRAFF
100
AcDbBlockBegin
  2
B-69
 70
    66
 10
0.000000
 20
0.000000
 30
0.000000
  0
HATCH
  5
7B2
100
AcDbEntity
  8
SCHRAFF
 62
     7
440
     0
100
AcDbHatch
 10
0.000000
 20
0.000000
 30
0.000000
210
0.000000
220
0.000000
230
1.000000
  2
SOLID
 70
     1
 71
     1
 91
     1
 92
    18
 72
     1
 73
     0
 93
     3
 10
-37.000018
 20
-29.999931
 42
1.000000
 10
-38.000018
 20
-29.999931
 42
1.000000
 10
-37.000018
 20
-29.999931
 42
0.000000
 97
     0
 75
     0
 76
     1
 98
     0
  0
CIRCLE
  5
7B3
100
AcDbEntity
  8
Detail
  6
CONTINUOUS
 62
     7
100
AcDbCircle
 10
-37.500018
 20
-29.999931
 40
0.500000
  0
LWPOLYLINE
  5
7B4
100
AcDbEntity
  8
Detail
  6
CONTINUOUS
 62
     7
100
AcDbPolyline
 90
     3
 10
77.500022
 20
24.500071
 42
0.000000
 10
-37.500018
 20
24.500069
 42
0.000000
 10
-37.500018
 20
-29.999931
 42
0.000000
  0
ENDBLK
  5
7B8
100
AcDbEntity
  8
0
100
AcDbBlockEnd
  0
BLOCK
  5
7B9
100
AcDbEntity
  8
Detail
100
AcDbBlockBegin
  2
B-70
 70
    66
 10
0.000000
 20
0.000000
 30
0.000000
  0
MTEXT
  5
7BA
100
AcDbEntity
  8
Detail
 62
     7
100
AcDbMText
 10
79.375019
 20
2.000070
 30
0.000000
 40
4.999990
 41
91.139781
 71
     1
 72
     5
  1
Styropor-Streifen ca. 10 mm
  7
Arial
 50
0.000000
  0
ENDBLK
  5
7BB
100
AcDbEntity
  8
0
100
AcDbBlockEnd
  0
BLOCK
  5
7BC
100
AcDbEntity
  8
Detail
100
AcDbBlockBegin
  2
B-71
 70
    66
 10
0.000000
 20
0.000000
 30
0.000000
  0
LWPOLYLINE
  5
7BD
100
AcDbEntity
  8
Detail
  6
CONTINUOUS
 62
     7
100
AcDbPolyline
 90
     3
 10
77.500022
 20
-0.499927
 42
0.000000
 10
-22.500018
 20
-0.499929
 42
0.000000
 10
-22.500018
 20
-37.999931
 42
0.000000
  0
ENDBLK
  5
7C1
100
AcDbEntity
  8
0
100
AcDbBlockEnd
  0
BLOCK
  5
7C2
100
AcDbEntity
  8
SCHRAFF
100
AcDbBlockBegin
  2
B-72
 70
    66
 10
0.000000
 20
0.000000
 30
0.000000
  0
HATCH
  5
7C3
100
AcDbEntity
  8
SCHRAFF
 62
     7
440
     0
100
AcDbHatch
 10
0.000000
 20
0.000000
 30
0.000000
210
0.000000
220
0.000000
230
1.000000
  2
SOLID
 70
     1
 71
     1
 91
     1
 92
    18
 72
     1
 73
     0
 93
     3
 10
-22.000018
 20
-37.999931
 42
1.000000
 10
-23.000018
 20
-37.999931
 42
1.000000
 10
-22.000018
 20
-37.999931
 42
0.000000
 97
     0
 75
     0
 76
     1
 98
     0
  0
CIRCLE
  5
7C4
100
AcDbEntity
  8
Detail
  6
CONTINUOUS
 62
     7
100
AcDbCircle
 10
-22.500018
 20
-37.999931
 40
0.500000
  0
ENDBLK
  5
7C5
100
AcDbEntity
  8
0
100
AcDbBlockEnd
  0
BLOCK
  5
7C6
100
AcDbEntity
  8
Detail
100
AcDbBlockBegin
  2
B-73
 70
    66
 10
0.000000
 20
0.000000
 30
0.000000
  0
MTEXT
  5
7C7
100
AcDbEntity
  8
Detail
 62
     7
100
AcDbMText
 10
79.375019
 20
-27.999925
 30
0.000000
 40
4.999990
 41
130.514687
 71
     7
 72
     5
  1
Gleitlager (Kombination) bestehend aus:
  7
Arial
 50
0.000000
  0
MTEXT
  5
7C8
100
AcDbEntity
  8
Detail
 62
     7
100
AcDbMText
 10
79.375019
 20
-35.499910
 30
0.000000
 40
4.999990
 41
94.184774
 71
     7
 72
     5
  1
Thermostop, Sockelschiene, 
  7
Arial
 50
0.000000
  0
MTEXT
  5
7C9
100
AcDbEntity
  8
Detail
 62
     7
100
AcDbMText
 10
79.375019
 20
-42.999895
 30
0.000000
 40
4.999990
 41
87.254791
 71
     7
 72
     5
  1
Aufsteckprofil und Unterteil
  7
Arial
 50
0.000000
  0
ENDBLK
  5
7CA
100
AcDbEntity
  8
0
100
AcDbBlockEnd
  0
BLOCK
  5
7CB
100
AcDbEntity
  8
Detail
100
AcDbBlockBegin
  2
B-74
 70
    66
 10
0.000000
 20
0.000000
 30
0.000000
  0
LWPOLYLINE
  5
7CC
100
AcDbEntity
  8
Detail
  6
CONTINUOUS
 62
     7
100
AcDbPolyline
 90
     2
 10
77.500022
 20
-25.499931
 42
0.000000
 10
28.499982
 20
-25.499931
 42
0.000000
  0
ENDBLK
  5
7CF
100
AcDbEntity
  8
0
100
AcDbBlockEnd
  0
BLOCK
  5
7D0
100
AcDbEntity
  8
L
100
AcDbBlockBegin
  2
B-75
 70
    66
 10
0.000000
 20
0.000000
 30
0.000000
  0
LWPOLYLINE
  5
7D1
100
AcDbEntity
  8
L
  6
HIDDEN
 62
     9
100
AcDbPolyline
 90
     5
 10
-17.500018
 20
10.250069
 42
0.000000
 10
28.499982
 20
10.250069
 42
0.000000
 10
28.499982
 20
-99.749931
 42
0.000000
 10
-17.500018
 20
-99.749931
 42
0.000000
 10
-17.500018
 20
10.250069
 42
0.000000
  0
ENDBLK
  5
7D7
100
AcDbEntity
  8
0
100
AcDbBlockEnd
  0
BLOCK
  5
7D8
100
AcDbEntity
  8
L
100
AcDbBlockBegin
  2
B-76
 70
    66
 10
0.000000
 20
0.000000
 30
0.000000
  0
LWPOLYLINE
  5
7D9
100
AcDbEntity
  8
L
  6
CONTINUOUS
 62
     3
100
AcDbPolyline
 90
     4
 10
-82.500018
 20
296.250078
 42
0.000000
 10
-82.500018
 20
-35.499783
 42
0.000000
 10
-97.500018
 20
-35.499783
 42
0.000000
 10
-97.500018
 20
296.250078
 42
0.000000
  0
ENDBLK
  5
7DE
100
AcDbEntity
  8
0
100
AcDbBlockEnd
  0
BLOCK
  5
7DF
100
AcDbEntity
  8
L
100
AcDbBlockBegin
  2
B-77
 70
    66
 10
0.000000
 20
0.000000
 30
0.000000
  0
LWPOLYLINE
  5
7E0
100
AcDbEntity
  8
L
  6
CONTINUOUS
 62
     3
100
AcDbPolyline
 90
     4
 10
-212.500018
 20
-35.499931
 42
0.000000
 10
-82.500018
 20
-35.499931
 42
0.000000
 10
-82.500018
 20
-40.499931
 42
0.000000
 10
-212.500018
 20
-40.499931
 42
0.000000
  0
ENDBLK
  5
7E5
100
AcDbEntity
  8
0
100
AcDbBlockEnd
  0
BLOCK
  5
7E6
100
AcDbEntity
  8
L
100
AcDbBlockBegin
  2
B-78
 70
    66
 10
0.000000
 20
0.000000
 30
0.000000
  0
LWPOLYLINE
  5
7E7
100
AcDbEntity
  8
L
  6
CONTINUOUS
 62
     2
100
AcDbPolyline
 90
     4
 10
-212.494823
 20
-35.499783
 42
0.000000
 10
-97.494823
 20
-35.499783
 42
0.000000
 10
-97.494823
 20
24.500217
 42
0.000000
 10
-212.494823
 20
24.500217
 42
0.000000
  0
ENDBLK
  5
7EC
100
AcDbEntity
  8
0
100
AcDbBlockEnd
  0
BLOCK
  5
7ED
100
AcDbEntity
  8
L
100
AcDbBlockBegin
  2
B-79
 70
    66
 10
0.000000
 20
0.000000
 30
0.000000
  0
LWPOLYLINE
  5
7EE
100
AcDbEntity
  8
L
  6
CONTINUOUS
 62
     2
100
AcDbPolyline
 90
     3
 10
-212.500018
 20
-40.499931
 42
0.000000
 10
-82.500018
 20
-40.499931
 42
0.000000
 10
-82.500018
 20
-196.249941
 42
0.000000
  0
ENDBLK
  5
7F2
100
AcDbEntity
  8
0
100
AcDbBlockEnd
  0
BLOCK
  5
7F3
100
AcDbEntity
  8
L
100
AcDbBlockBegin
  2
B-80
 70
    66
 10
0.000000
 20
0.000000
 30
0.000000
  0
LWPOLYLINE
  5
7F4
100
AcDbEntity
  8
L
  6
CONTINUOUS
 62
     2
100
AcDbPolyline
 90
     3
 10
-212.494823
 20
24.500217
 42
0.000000
 10
-97.494823
 20
24.500217
 42
0.000000
 10
-97.500018
 20
296.250078
 42
0.000000
  0
ENDBLK
  5
7F8
100
AcDbEntity
  8
0
100
AcDbBlockEnd
  0
ENDSEC
  0
SECTION
  2
ENTITIES
  0
INSERT
  5
7F9
100
AcDbEntity
  8
0
100
AcDbBlockReference
  2
B
 10
0.000000
 20
0.000000
 30
0.000000
 41
1.000000
 42
1.000000
 43
1.000000
 50
0.000000
  0
INSERT
  5
7FA
100
AcDbEntity
  8
0
100
AcDbBlockReference
  2
B-2
 10
0.000000
 20
0.000000
 30
0.000000
 41
1.000000
 42
1.000000
 43
1.000000
 50
0.000000
  0
INSERT
  5
7FB
100
AcDbEntity
  8
L
100
AcDbBlockReference
  2
B-3
 10
0.000000
 20
0.000000
 30
0.000000
 41
1.000000
 42
1.000000
 43
1.000000
 50
0.000000
  0
INSERT
  5
7FC
100
AcDbEntity
  8
0
100
AcDbBlockReference
  2
B-4
 10
0.000000
 20
0.000000
 30
0.000000
 41
1.000000
 42
1.000000
 43
1.000000
 50
0.000000
  0
INSERT
  5
7FD
100
AcDbEntity
  8
0
100
AcDbBlockReference
  2
B-5
 10
0.000000
 20
0.000000
 30
0.000000
 41
1.000000
 42
1.000000
 43
1.000000
 50
0.000000
  0
INSERT
  5
7FE
100
AcDbEntity
  8
0
100
AcDbBlockReference
  2
B-6
 10
0.000000
 20
0.000000
 30
0.000000
 41
1.000000
 42
1.000000
 43
1.000000
 50
0.000000
  0
INSERT
  5
7FF
100
AcDbEntity
  8
Detail
100
AcDbBlockReference
  2
B-7
 10
0.000000
 20
0.000000
 30
0.000000
 41
1.000000
 42
1.000000
 43
1.000000
 50
0.000000
  0
INSERT
  5
800
100
AcDbEntity
  8
0
100
AcDbBlockReference
  2
B-8
 10
0.000000
 20
0.000000
 30
0.000000
 41
1.000000
 42
1.000000
 43
1.000000
 50
0.000000
  0
INSERT
  5
801
100
AcDbEntity
  8
0
100
AcDbBlockReference
  2
B-9
 10
0.000000
 20
0.000000
 30
0.000000
 41
1.000000
 42
1.000000
 43
1.000000
 50
0.000000
  0
INSERT
  5
802
100
AcDbEntity
  8
0
100
AcDbBlockReference
  2
B-10
 10
0.000000
 20
0.000000
 30
0.000000
 41
1.000000
 42
1.000000
 43
1.000000
 50
0.000000
  0
INSERT
  5
803
100
AcDbEntity
  8
Detail
100
AcDbBlockReference
  2
B-11
 10
0.000000
 20
0.000000
 30
0.000000
 41
1.000000
 42
1.000000
 43
1.000000
 50
0.000000
  0
INSERT
  5
804
100
AcDbEntity
  8
0
100
AcDbBlockReference
  2
B-12
 10
0.000000
 20
0.000000
 30
0.000000
 41
1.000000
 42
1.000000
 43
1.000000
 50
0.000000
  0
INSERT
  5
805
100
AcDbEntity
  8
0
100
AcDbBlockReference
  2
B-13
 10
0.000000
 20
0.000000
 30
0.000000
 41
1.000000
 42
1.000000
 43
1.000000
 50
0.000000
  0
INSERT
  5
806
100
AcDbEntity
  8
0
100
AcDbBlockReference
  2
B-14
 10
0.000000
 20
0.000000
 30
0.000000
 41
1.000000
 42
1.000000
 43
1.000000
 50
0.000000
  0
INSERT
  5
807
100
AcDbEntity
  8
0
100
AcDbBlockReference
  2
B-15
 10
0.000000
 20
0.000000
 30
0.000000
 41
1.000000
 42
1.000000
 43
1.000000
 50
0.000000
  0
INSERT
  5
808
100
AcDbEntity
  8
0
100
AcDbBlockReference
  2
B-16
 10
0.000000
 20
0.000000
 30
0.000000
 41
1.000000
 42
1.000000
 43
1.000000
 50
0.000000
  0
INSERT
  5
809
100
AcDbEntity
  8
0
100
AcDbBlockReference
  2
B-17
 10
0.000000
 20
0.000000
 30
0.000000
 41
1.000000
 42
1.000000
 43
1.000000
 50
0.000000
  0
INSERT
  5
80A
100
AcDbEntity
  8
Detail
100
AcDbBlockReference
  2
B-18
 10
0.000000
 20
0.000000
 30
0.000000
 41
1.000000
 42
1.000000
 43
1.000000
 50
0.000000
  0
INSERT
  5
80B
100
AcDbEntity
  8
Detail
100
AcDbBlockReference
  2
B-19
 10
0.000000
 20
0.000000
 30
0.000000
 41
1.000000
 42
1.000000
 43
1.000000
 50
0.000000
  0
INSERT
  5
80C
100
AcDbEntity
  8
Detail
100
AcDbBlockReference
  2
B-20
 10
0.000000
 20
0.000000
 30
0.000000
 41
1.000000
 42
1.000000
 43
1.000000
 50
0.000000
  0
INSERT
  5
80D
100
AcDbEntity
  8
L
100
AcDbBlockReference
  2
B-21
 10
0.000000
 20
0.000000
 30
0.000000
 41
1.000000
 42
1.000000
 43
1.000000
 50
0.000000
  0
INSERT
  5
80E
100
AcDbEntity
  8
Detail
100
AcDbBlockReference
  2
B-22
 10
0.000000
 20
0.000000
 30
0.000000
 41
1.000000
 42
1.000000
 43
1.000000
 50
0.000000
  0
INSERT
  5
80F
100
AcDbEntity
  8
Detail
100
AcDbBlockReference
  2
B-23
 10
0.000000
 20
0.000000
 30
0.000000
 41
1.000000
 42
1.000000
 43
1.000000
 50
0.000000
  0
INSERT
  5
810
100
AcDbEntity
  8
Detail
100
AcDbBlockReference
  2
B-24
 10
0.000000
 20
0.000000
 30
0.000000
 41
1.000000
 42
1.000000
 43
1.000000
 50
0.000000
  0
INSERT
  5
811
100
AcDbEntity
  8
Detail
100
AcDbBlockReference
  2
B-25
 10
0.000000
 20
0.000000
 30
0.000000
 41
1.000000
 42
1.000000
 43
1.000000
 50
0.000000
  0
INSERT
  5
812
100
AcDbEntity
  8
Detail
100
AcDbBlockReference
  2
B-26
 10
0.000000
 20
0.000000
 30
0.000000
 41
1.000000
 42
1.000000
 43
1.000000
 50
0.000000
  0
INSERT
  5
813
100
AcDbEntity
  8
Detail
100
AcDbBlockReference
  2
B-27
 10
0.000000
 20
0.000000
 30
0.000000
 41
1.000000
 42
1.000000
 43
1.000000
 50
0.000000
  0
INSERT
  5
814
100
AcDbEntity
  8
Detail
100
AcDbBlockReference
  2
B-28
 10
0.000000
 20
0.000000
 30
0.000000
 41
1.000000
 42
1.000000
 43
1.000000
 50
0.000000
  0
INSERT
  5
815
100
AcDbEntity
  8
Detail
100
AcDbBlockReference
  2
B-29
 10
0.000000
 20
0.000000
 30
0.000000
 41
1.000000
 42
1.000000
 43
1.000000
 50
0.000000
  0
INSERT
  5
816
100
AcDbEntity
  8
0
100
AcDbBlockReference
  2
B-30
 10
0.000000
 20
0.000000
 30
0.000000
 41
1.000000
 42
1.000000
 43
1.000000
 50
0.000000
  0
INSERT
  5
817
100
AcDbEntity
  8
0
100
AcDbBlockReference
  2
B-31
 10
0.000000
 20
0.000000
 30
0.000000
 41
1.000000
 42
1.000000
 43
1.000000
 50
0.000000
  0
INSERT
  5
818
100
AcDbEntity
  8
0
100
AcDbBlockReference
  2
B-32
 10
0.000000
 20
0.000000
 30
0.000000
 41
1.000000
 42
1.000000
 43
1.000000
 50
0.000000
  0
INSERT
  5
819
100
AcDbEntity
  8
Detail
100
AcDbBlockReference
  2
B-33
 10
0.000000
 20
0.000000
 30
0.000000
 41
1.000000
 42
1.000000
 43
1.000000
 50
0.000000
  0
INSERT
  5
81A
100
AcDbEntity
  8
Detail
100
AcDbBlockReference
  2
B-34
 10
0.000000
 20
0.000000
 30
0.000000
 41
1.000000
 42
1.000000
 43
1.000000
 50
0.000000
  0
INSERT
  5
81B
100
AcDbEntity
  8
Detail
100
AcDbBlockReference
  2
B-35
 10
0.000000
 20
0.000000
 30
0.000000
 41
1.000000
 42
1.000000
 43
1.000000
 50
0.000000
  0
INSERT
  5
81C
100
AcDbEntity
  8
Detail
100
AcDbBlockReference
  2
B-36
 10
0.000000
 20
0.000000
 30
0.000000
 41
1.000000
 42
1.000000
 43
1.000000
 50
0.000000
  0
INSERT
  5
81D
100
AcDbEntity
  8
Detail
100
AcDbBlockReference
  2
B-37
 10
0.000000
 20
0.000000
 30
0.000000
 41
1.000000
 42
1.000000
 43
1.000000
 50
0.000000
  0
INSERT
  5
81E
100
AcDbEntity
  8
Detail
100
AcDbBlockReference
  2
B-38
 10
0.000000
 20
0.000000
 30
0.000000
 41
1.000000
 42
1.000000
 43
1.000000
 50
0.000000
  0
INSERT
  5
81F
100
AcDbEntity
  8
Detail
100
AcDbBlockReference
  2
B-39
 10
0.000000
 20
0.000000
 30
0.000000
 41
1.000000
 42
1.000000
 43
1.000000
 50
0.000000
  0
INSERT
  5
820
100
AcDbEntity
  8
Detail
100
AcDbBlockReference
  2
B-40
 10
0.000000
 20
0.000000
 30
0.000000
 41
1.000000
 42
1.000000
 43
1.000000
 50
0.000000
  0
INSERT
  5
821
100
AcDbEntity
  8
Detail
100
AcDbBlockReference
  2
B-41
 10
0.000000
 20
0.000000
 30
0.000000
 41
1.000000
 42
1.000000
 43
1.000000
 50
0.000000
  0
INSERT
  5
822
100
AcDbEntity
  8
Detail
100
AcDbBlockReference
  2
B-42
 10
0.000000
 20
0.000000
 30
0.000000
 41
1.000000
 42
1.000000
 43
1.000000
 50
0.000000
  0
INSERT
  5
823
100
AcDbEntity
  8
Detail
100
AcDbBlockReference
  2
B-43
 10
0.000000
 20
0.000000
 30
0.000000
 41
1.000000
 42
1.000000
 43
1.000000
 50
0.000000
  0
INSERT
  5
824
100
AcDbEntity
  8
Detail
100
AcDbBlockReference
  2
B-44
 10
0.000000
 20
0.000000
 30
0.000000
 41
1.000000
 42
1.000000
 43
1.000000
 50
0.000000
  0
INSERT
  5
825
100
AcDbEntity
  8
Detail
100
AcDbBlockReference
  2
B-45
 10
0.000000
 20
0.000000
 30
0.000000
 41
1.000000
 42
1.000000
 43
1.000000
 50
0.000000
  0
INSERT
  5
826
100
AcDbEntity
  8
Detail
100
AcDbBlockReference
  2
B-46
 10
0.000000
 20
0.000000
 30
0.000000
 41
1.000000
 42
1.000000
 43
1.000000
 50
0.000000
  0
INSERT
  5
827
100
AcDbEntity
  8
Detail
100
AcDbBlockReference
  2
B-47
 10
0.000000
 20
0.000000
 30
0.000000
 41
1.000000
 42
1.000000
 43
1.000000
 50
0.000000
  0
INSERT
  5
828
100
AcDbEntity
  8
Detail
100
AcDbBlockReference
  2
B-48
 10
0.000000
 20
0.000000
 30
0.000000
 41
1.000000
 42
1.000000
 43
1.000000
 50
0.000000
  0
INSERT
  5
829
100
AcDbEntity
  8
Detail
100
AcDbBlockReference
  2
B-49
 10
0.000000
 20
0.000000
 30
0.000000
 41
1.000000
 42
1.000000
 43
1.000000
 50
0.000000
  0
INSERT
  5
82A
100
AcDbEntity
  8
0
100
AcDbBlockReference
  2
B-50
 10
0.000000
 20
0.000000
 30
0.000000
 41
1.000000
 42
1.000000
 43
1.000000
 50
0.000000
  0
INSERT
  5
82B
100
AcDbEntity
  8
Detail
100
AcDbBlockReference
  2
B-51
 10
0.000000
 20
0.000000
 30
0.000000
 41
1.000000
 42
1.000000
 43
1.000000
 50
0.000000
  0
INSERT
  5
82C
100
AcDbEntity
  8
L
100
AcDbBlockReference
  2
B-52
 10
0.000000
 20
0.000000
 30
0.000000
 41
1.000000
 42
1.000000
 43
1.000000
 50
0.000000
  0
INSERT
  5
82D
100
AcDbEntity
  8
Detail
100
AcDbBlockReference
  2
B-53
 10
0.000000
 20
0.000000
 30
0.000000
 41
1.000000
 42
1.000000
 43
1.000000
 50
0.000000
  0
INSERT
  5
82E
100
AcDbEntity
  8
Detail
100
AcDbBlockReference
  2
B-54
 10
0.000000
 20
0.000000
 30
0.000000
 41
1.000000
 42
1.000000
 43
1.000000
 50
0.000000
  0
INSERT
  5
82F
100
AcDbEntity
  8
L
100
AcDbBlockReference
  2
B-55
 10
0.000000
 20
0.000000
 30
0.000000
 41
1.000000
 42
1.000000
 43
1.000000
 50
0.000000
  0
INSERT
  5
830
100
AcDbEntity
  8
0
100
AcDbBlockReference
  2
B-56
 10
0.000000
 20
0.000000
 30
0.000000
 41
1.000000
 42
1.000000
 43
1.000000
 50
0.000000
  0
INSERT
  5
831
100
AcDbEntity
  8
0
100
AcDbBlockReference
  2
B-57
 10
0.000000
 20
0.000000
 30
0.000000
 41
1.000000
 42
1.000000
 43
1.000000
 50
0.000000
  0
INSERT
  5
832
100
AcDbEntity
  8
Detail
100
AcDbBlockReference
  2
B-58
 10
0.000000
 20
0.000000
 30
0.000000
 41
1.000000
 42
1.000000
 43
1.000000
 50
0.000000
  0
INSERT
  5
833
100
AcDbEntity
  8
Detail
100
AcDbBlockReference
  2
B-59
 10
0.000000
 20
0.000000
 30
0.000000
 41
1.000000
 42
1.000000
 43
1.000000
 50
0.000000
  0
INSERT
  5
834
100
AcDbEntity
  8
L
100
AcDbBlockReference
  2
B-60
 10
0.000000
 20
0.000000
 30
0.000000
 41
1.000000
 42
1.000000
 43
1.000000
 50
0.000000
  0
INSERT
  5
835
100
AcDbEntity
  8
0
100
AcDbBlockReference
  2
B-61
 10
0.000000
 20
0.000000
 30
0.000000
 41
1.000000
 42
1.000000
 43
1.000000
 50
0.000000
  0
INSERT
  5
836
100
AcDbEntity
  8
Detail
100
AcDbBlockReference
  2
B-62
 10
0.000000
 20
0.000000
 30
0.000000
 41
1.000000
 42
1.000000
 43
1.000000
 50
0.000000
  0
INSERT
  5
837
100
AcDbEntity
  8
0
100
AcDbBlockReference
  2
B-63
 10
0.000000
 20
0.000000
 30
0.000000
 41
1.000000
 42
1.000000
 43
1.000000
 50
0.000000
  0
INSERT
  5
838
100
AcDbEntity
  8
Detail
100
AcDbBlockReference
  2
B-64
 10
0.000000
 20
0.000000
 30
0.000000
 41
1.000000
 42
1.000000
 43
1.000000
 50
0.000000
  0
INSERT
  5
839
100
AcDbEntity
  8
Detail
100
AcDbBlockReference
  2
B-65
 10
0.000000
 20
0.000000
 30
0.000000
 41
1.000000
 42
1.000000
 43
1.000000
 50
0.000000
  0
INSERT
  5
83A
100
AcDbEntity
  8
Detail
100
AcDbBlockReference
  2
B-67
 10
0.000000
 20
0.000000
 30
0.000000
 41
1.000000
 42
1.000000
 43
1.000000
 50
0.000000
  0
INSERT
  5
83B
100
AcDbEntity
  8
0
100
AcDbBlockReference
  2
B-68
 10
0.000000
 20
0.000000
 30
0.000000
 41
1.000000
 42
1.000000
 43
1.000000
 50
0.000000
  0
INSERT
  5
83C
100
AcDbEntity
  8
0
100
AcDbBlockReference
  2
B-69
 10
0.000000
 20
0.000000
 30
0.000000
 41
1.000000
 42
1.000000
 43
1.000000
 50
0.000000
  0
INSERT
  5
83D
100
AcDbEntity
  8
Detail
100
AcDbBlockReference
  2
B-70
 10
0.000000
 20
0.000000
 30
0.000000
 41
1.000000
 42
1.000000
 43
1.000000
 50
0.000000
  0
INSERT
  5
83E
100
AcDbEntity
  8
Detail
100
AcDbBlockReference
  2
B-71
 10
0.000000
 20
0.000000
 30
0.000000
 41
1.000000
 42
1.000000
 43
1.000000
 50
0.000000
  0
INSERT
  5
83F
100
AcDbEntity
  8
0
100
AcDbBlockReference
  2
B-72
 10
0.000000
 20
0.000000
 30
0.000000
 41
1.000000
 42
1.000000
 43
1.000000
 50
0.000000
  0
INSERT
  5
840
100
AcDbEntity
  8
Detail
100
AcDbBlockReference
  2
B-73
 10
0.000000
 20
0.000000
 30
0.000000
 41
1.000000
 42
1.000000
 43
1.000000
 50
0.000000
  0
INSERT
  5
841
100
AcDbEntity
  8
Detail
100
AcDbBlockReference
  2
B-74
 10
0.000000
 20
0.000000
 30
0.000000
 41
1.000000
 42
1.000000
 43
1.000000
 50
0.000000
  0
INSERT
  5
842
100
AcDbEntity
  8
L
100
AcDbBlockReference
  2
B-75
 10
0.000000
 20
0.000000
 30
0.000000
 41
1.000000
 42
1.000000
 43
1.000000
 50
0.000000
  0
INSERT
  5
843
100
AcDbEntity
  8
L
100
AcDbBlockReference
  2
B-76
 10
0.000000
 20
0.000000
 30
0.000000
 41
1.000000
 42
1.000000
 43
1.000000
 50
0.000000
  0
INSERT
  5
844
100
AcDbEntity
  8
L
100
AcDbBlockReference
  2
B-77
 10
0.000000
 20
0.000000
 30
0.000000
 41
1.000000
 42
1.000000
 43
1.000000
 50
0.000000
  0
INSERT
  5
845
100
AcDbEntity
  8
L
100
AcDbBlockReference
  2
B-78
 10
0.000000
 20
0.000000
 30
0.000000
 41
1.000000
 42
1.000000
 43
1.000000
 50
0.000000
  0
INSERT
  5
846
100
AcDbEntity
  8
L
100
AcDbBlockReference
  2
B-79
 10
0.000000
 20
0.000000
 30
0.000000
 41
1.000000
 42
1.000000
 43
1.000000
 50
0.000000
  0
INSERT
  5
847
100
AcDbEntity
  8
L
100
AcDbBlockReference
  2
B-80
 10
0.000000
 20
0.000000
 30
0.000000
 41
1.000000
 42
1.000000
 43
1.000000
 50
0.000000
  0
ENDSEC
  0
SECTION
  2
OBJECTS
  0
DICTIONARY
  5
C
330
0
100
AcDbDictionary
281
     1
  3
ACAD_COLOR
350
6B
  3
ACAD_GROUP
350
D
  3
ACAD_IMAGE_DICT
350
1E2
  3
ACAD_IMAGE_VARS
350
1E3
  3
ACAD_MATERIAL
350
6A
  3
ACAD_MLINESTYLE
350
17
  3
ACAD_PLOTSETTINGS
350
19
  3
ACAD_PLOTSTYLENAME
350
E
  3
ACAD_SCALELIST
350
10C
  3
ACAD_TABLESTYLE
350
7E
  3
ACAD_VISUALSTYLE
350
EF
  3
ACDB_RECOMPOSE_DATA
350
15D
  3
AcDbVariableDictionary
350
5E
  0
DICTIONARY
  5
13C
330
10
100
AcDbDictionary
280
     1
281
     1
  0
DICTIONARY
  5
203
330
202
100
AcDbDictionary
280
     1
281
     1
  0
DICTIONARY
  5
6B
102
{ACAD_REACTORS
330
C
102
}
330
C
100
AcDbDictionary
281
     1
  0
DICTIONARY
  5
D
102
{ACAD_REACTORS
330
C
102
}
330
C
100
AcDbDictionary
281
     1
  0
DICTIONARY
  5
1E2
102
{ACAD_REACTORS
330
C
102
}
330
C
100
AcDbDictionary
281
     1
  3
WDVS mit Putz_Horizontales Gleitlager_16_1.tif
350
2AA
  0
RASTERVARIABLES
  5
1E3
102
{ACAD_REACTORS
330
C
102
}
330
C
100
AcDbRasterVariables
 90
        0
 70
     1
 71
     1
 72
     1
  0
DICTIONARY
  5
6A
102
{ACAD_REACTORS
330
C
102
}
330
C
100
AcDbDictionary
281
     1
  3
ByBlock
350
ED
  3
ByLayer
350
EC
  3
Global
350
EE
  0
DICTIONARY
  5
12D
102
{ACAD_REACTORS
330
C
102
}
330
C
100
AcDbDictionary
281
     1
  3
Annotative
350
13B
  3
Standard
350
12E
  0
DICTIONARY
  5
17
102
{ACAD_REACTORS
330
C
102
}
330
C
100
AcDbDictionary
281
     1
  3
Standard
350
18
  0
DICTIONARY
  5
19
102
{ACAD_REACTORS
330
C
102
}
330
C
100
AcDbDictionary
281
     1
  0
ACDBDICTIONARYWDFLT
  5
E
102
{ACAD_REACTORS
330
C
102
}
330
C
100
AcDbDictionary
281
     1
  3
Normal
350
F
100
AcDbDictionaryWithDefault
340
F
  0
DICTIONARY
  5
10C
102
{ACAD_REACTORS
330
C
102
}
330
C
100
AcDbDictionary
281
     1
  3
A0
350
10D
  3
A1
350
1BE
  3
A2
350
1BF
  3
A3
350
1C0
  3
A4
350
1C1
  3
A5
350
1C2
  3
A6
350
1C3
  3
A7
350
1C4
  3
A8
350
1C5
  3
A9
350
1C6
  3
B0
350
1C7
  3
B1
350
1C8
  3
B2
350
1C9
  3
B3
350
1CA
  3
B4
350
1CB
  3
B5
350
1CC
  3
B6
350
1CD
  0
DICTIONARY
  5
7E
102
{ACAD_REACTORS
330
C
102
}
330
C
100
AcDbDictionary
281
     1
  3
Standard
350
7F
  0
DICTIONARY
  5
EF
102
{ACAD_REACTORS
330
C
102
}
330
C
100
AcDbDictionary
281
     1
  3
2dWireframe
350
F5
  3
3D Hidden
350
F7
  3
3dWireframe
350
F6
  3
Basic
350
F4
  3
Brighten
350
FB
  3
ColorChange
350
FF
  3
Conceptual
350
F8
  3
Dim
350
FA
  3
Facepattern
350
FE
  3
Flat
350
F0
  3
FlatWithEdges
350
F1
  3
Gouraud
350
F2
  3
GouraudWithEdges
350
F3
  3
Linepattern
350
FD
  3
Realistic
350
F9
  3
Thicken
350
FC
  0
XRECORD
  5
15D
102
{ACAD_REACTORS
330
C
102
}
330
C
100
AcDbXrecord
280
     1
 90
        1
330
7F
  0
DICTIONARY
  5
5E
102
{ACAD_REACTORS
330
C
102
}
330
C
100
AcDbDictionary
281
     1
  3
CANNOSCALE
350
146
  3
CMLEADERSTYLE
350
145
  3
CTABLESTYLE
350
84
  3
DIMASSOC
350
5F
  3
HIDETEXT
350
63
  3
LAYEREVAL
350
1AE
  3
LAYERNOTIFY
350
1AF
  0
MATERIAL
  5
ED
102
{ACAD_REACTORS
330
6A
102
}
330
6A
100
AcDbMaterial
  1
ByBlock
 94
       63
  0
MATERIAL
  5
EC
102
{ACAD_REACTORS
330
6A
102
}
330
6A
100
AcDbMaterial
  1
ByLayer
 94
       63
  0
MATERIAL
  5
EE
102
{ACAD_XDICTIONARY
360
173
102
}
102
{ACAD_REACTORS
330
6A
102
}
330
6A
100
AcDbMaterial
  1
Global
 43
0.0007999999797903
 43
0.0
 43
0.0
 43
0.0
 43
0.0
 43
0.0007999999797903
 43
0.0
 43
0.0
 43
0.0
 43
0.0
 43
1.0
 43
0.0
 43
0.0
 43
0.0
 43
0.0
 43
1.0
 49
0.0007999999797903
 49
0.0
 49
0.0
 49
0.0
 49
0.0
 49
0.0007999999797903
 49
0.0
 49
0.0
 49
0.0
 49
0.0
 49
1.0
 49
0.0
 49
0.0
 49
0.0
 49
0.0
 49
1.0
142
0.0007999999797903
142
0.0
142
0.0
142
0.0
142
0.0
142
0.0007999999797903
142
0.0
142
0.0
142
0.0
142
0.0
142
1.0
142
0.0
142
0.0
142
0.0
142
0.0
142
1.0
144
0.0007999999797903
144
0.0
144
0.0
144
0.0
144
0.0
144
0.0007999999797903
144
0.0
144
0.0
144
0.0
144
0.0
144
1.0
144
0.0
144
0.0
144
0.0
144
0.0
144
1.0
 94
       63
1001
ACAD
1070
    -1
1070
     3
1070
     0
1000

1071
        0
1070
     0
  0
MLINESTYLE
  5
18
102
{ACAD_REACTORS
330
17
102
}
330
17
100
AcDbMlineStyle
  2
STANDARD
 70
     0
  3

 62
   256
 51
90.0
 52
90.0
 71
     2
 49
0.5
 62
   256
  6
BYLAYER
 49
-0.5
 62
   256
  6
BYLAYER
  0
ACDBPLACEHOLDER
  5
F
102
{ACAD_REACTORS
330
E
102
}
330
E
  0
SCALE
  5
10D
102
{ACAD_REACTORS
330
10C
102
}
330
10C
100
AcDbScale
 70
     0
300
1:1
140
1.0
141
1.0
290
     1
  0
SCALE
  5
1BE
102
{ACAD_REACTORS
330
10C
102
}
330
10C
100
AcDbScale
 70
     0
300
1:2
140
1.0
141
2.0
290
     0
  0
SCALE
  5
1BF
102
{ACAD_REACTORS
330
10C
102
}
330
10C
100
AcDbScale
 70
     0
300
1:4
140
1.0
141
4.0
290
     0
  0
SCALE
  5
1C0
102
{ACAD_REACTORS
330
10C
102
}
330
10C
100
AcDbScale
 70
     0
300
1:5
140
1.0
141
5.0
290
     0
  0
SCALE
  5
1C1
102
{ACAD_REACTORS
330
10C
102
}
330
10C
100
AcDbScale
 70
     0
300
1:8
140
1.0
141
8.0
290
     0
  0
SCALE
  5
1C2
102
{ACAD_REACTORS
330
10C
102
}
330
10C
100
AcDbScale
 70
     0
300
1:10
140
1.0
141
10.0
290
     0
  0
SCALE
  5
1C3
102
{ACAD_REACTORS
330
10C
102
}
330
10C
100
AcDbScale
 70
     0
300
1:16
140
1.0
141
16.0
290
     0
  0
SCALE
  5
1C4
102
{ACAD_REACTORS
330
10C
102
}
330
10C
100
AcDbScale
 70
     0
300
1:20
140
1.0
141
20.0
290
     0
  0
SCALE
  5
1C5
102
{ACAD_REACTORS
330
10C
102
}
330
10C
100
AcDbScale
 70
     0
300
1:30
140
1.0
141
30.0
290
     0
  0
SCALE
  5
1C6
102
{ACAD_REACTORS
330
10C
102
}
330
10C
100
AcDbScale
 70
     0
300
1:40
140
1.0
141
40.0
290
     0
  0
SCALE
  5
1C7
102
{ACAD_REACTORS
330
10C
102
}
330
10C
100
AcDbScale
 70
     0
300
1:50
140
1.0
141
50.0
290
     0
  0
SCALE
  5
1C8
102
{ACAD_REACTORS
330
10C
102
}
330
10C
100
AcDbScale
 70
     0
300
1:100
140
1.0
141
100.0
290
     0
  0
SCALE
  5
1C9
102
{ACAD_REACTORS
330
10C
102
}
330
10C
100
AcDbScale
 70
     0
300
2:1
140
2.0
141
1.0
290
     0
  0
SCALE
  5
1CA
102
{ACAD_REACTORS
330
10C
102
}
330
10C
100
AcDbScale
 70
     0
300
4:1
140
4.0
141
1.0
290
     0
  0
SCALE
  5
1CB
102
{ACAD_REACTORS
330
10C
102
}
330
10C
100
AcDbScale
 70
     0
300
8:1
140
8.0
141
1.0
290
     0
  0
SCALE
  5
1CC
102
{ACAD_REACTORS
330
10C
102
}
330
10C
100
AcDbScale
 70
     0
300
10:1
140
10.0
141
1.0
290
     0
  0
SCALE
  5
1CD
102
{ACAD_REACTORS
330
10C
102
}
330
10C
100
AcDbScale
 70
     0
300
100:1
140
100.0
141
1.0
290
     0
  0
TABLESTYLE
  5
7F
102
{ACAD_XDICTIONARY
360
162
102
}
102
{ACAD_REACTORS
330
7E
102
}
330
7E
100
AcDbTableStyle
  3
Standard
 70
     0
 71
     0
 40
1.5
 41
1.5
280
     0
281
     0
  7
Standard
140
4.5
170
     2
 62
     0
 63
     7
283
     0
 90
      512
 91
        0
  1

274
    -2
284
     1
 64
     0
275
    -2
285
     1
 65
     0
276
    -2
286
     1
 66
     0
277
    -2
287
     1
 67
     0
278
    -2
288
     1
 68
     0
279
    -2
289
     1
 69
     0
  7
Standard
140
6.0
170
     5
 62
     0
 63
     7
283
     0
 90
      512
 91
        0
  1

274
    -2
284
     1
 64
     0
275
    -2
285
     1
 65
     0
276
    -2
286
     1
 66
     0
277
    -2
287
     1
 67
     0
278
    -2
288
     1
 68
     0
279
    -2
289
     1
 69
     0
  7
Standard
140
4.5
170
     5
 62
     0
 63
     7
283
     0
 90
      512
 91
        0
  1

274
    -2
284
     1
 64
     0
275
    -2
285
     1
 65
     0
276
    -2
286
     1
 66
     0
277
    -2
287
     1
 67
     0
278
    -2
288
     1
 68
     0
279
    -2
289
     1
 69
     0
  0
VISUALSTYLE
  5
F5
102
{ACAD_REACTORS
330
EF
102
}
330
EF
100
AcDbVisualStyle
  2
2dWireframe
 70
     4
 71
     0
 72
     2
 73
     1
 90
        0
 40
-0.6
 41
-30.0
 62
     5
 63
     7
421
 16777215
 74
     1
 91
        4
 64
     7
 65
   257
 75
     1
175
     1
 42
1.0
 92
        0
 66
   257
 43
1.0
 76
     1
 77
     6
 78
     2
 67
     7
 79
     5
170
     0
171
     0
290
     0
174
     0
 93
        1
 44
0.0
173
     0
291
     0
 45
0.0
  0
VISUALSTYLE
  5
F7
102
{ACAD_REACTORS
330
EF
102
}
330
EF
100
AcDbVisualStyle
  2
3D Hidden
 70
     6
 71
     1
 72
     2
 73
     2
 90
        0
 40
-0.6
 41
-30.0
 62
     5
 63
     7
421
 16777215
 74
     2
 91
        2
 64
     7
 65
   257
 75
     2
175
     1
 42
40.0
 92
        0
 66
   257
 43
1.0
 76
     1
 77
     6
 78
     2
 67
     7
 79
     3
170
     0
171
     0
290
     0
174
     0
 93
        1
 44
0.0
173
     0
291
     0
 45
0.0
  0
VISUALSTYLE
  5
F6
102
{ACAD_REACTORS
330
EF
102
}
330
EF
100
AcDbVisualStyle
  2
3dWireframe
 70
     5
 71
     0
 72
     2
 73
     1
 90
        0
 40
-0.6
 41
-30.0
 62
     5
 63
     7
421
 16777215
 74
     1
 91
        4
 64
     7
 65
   257
 75
     1
175
     1
 42
1.0
 92
        0
 66
   257
 43
1.0
 76
     1
 77
     6
 78
     2
 67
     7
 79
     5
170
     0
171
     0
290
     0
174
     0
 93
        1
 44
0.0
173
     0
291
     0
 45
0.0
  0
VISUALSTYLE
  5
F4
102
{ACAD_REACTORS
330
EF
102
}
330
EF
100
AcDbVisualStyle
  2
Basic
 70
     7
 71
     1
 72
     0
 73
     1
 90
        0
 40
-0.6
 41
-30.0
 62
     5
 63
     7
421
 16777215
 74
     0
 91
        4
 64
     7
 65
   257
 75
     1
175
     1
 42
1.0
 92
        8
 66
     7
 43
1.0
 76
     1
 77
     6
 78
     2
 67
     7
 79
     5
170
     0
171
     0
290
     0
174
     0
 93
        1
 44
0.0
173
     0
291
     1
 45
0.0
  0
VISUALSTYLE
  5
FB
102
{ACAD_REACTORS
330
EF
102
}
330
EF
100
AcDbVisualStyle
  2
Brighten
 70
    12
 71
     2
 72
     2
 73
     1
 90
        0
 40
-0.6
 41
-30.0
 62
     5
 63
     7
421
 16777215
 74
     1
 91
        4
 64
     7
 65
   257
 75
     1
175
     1
 42
1.0
 92
        8
 66
     7
 43
1.0
 76
     1
 77
     6
 78
     2
 67
     7
 79
     5
170
     0
171
     0
290
     0
174
     0
 93
        1
 44
50.0
173
     0
291
     1
 45
0.0
  0
VISUALSTYLE
  5
FF
102
{ACAD_REACTORS
330
EF
102
}
330
EF
100
AcDbVisualStyle
  2
ColorChange
 70
    16
 71
     2
 72
     2
 73
     3
 90
        0
 40
-0.6
 41
-30.0
 62
     5
 63
     8
421
  8421504
 74
     1
 91
        4
 64
     7
 65
   257
 75
     1
175
     1
 42
1.0
 92
        8
 66
     8
424
  8421504
 43
1.0
 76
     1
 77
     6
 78
     2
 67
     7
 79
     5
170
     0
171
     0
290
     0
174
     0
 93
        1
 44
0.0
173
     0
291
     1
 45
0.0
  0
VISUALSTYLE
  5
F8
102
{ACAD_REACTORS
330
EF
102
}
330
EF
100
AcDbVisualStyle
  2
Conceptual
 70
     9
 71
     3
 72
     2
 73
     1
 90
        0
 40
-0.6
 41
-30.0
 62
     5
 63
     7
421
 16777215
 74
     2
 91
        2
 64
     7
 65
   257
 75
     1
175
     1
 42
40.0
 92
        8
 66
     7
 43
1.0
 76
     1
 77
     6
 78
     2
 67
     7
 79
     3
170
     0
171
     0
290
     0
174
     0
 93
        1
 44
0.0
173
     0
291
     0
 45
0.0
  0
VISUALSTYLE
  5
FA
102
{ACAD_REACTORS
330
EF
102
}
330
EF
100
AcDbVisualStyle
  2
Dim
 70
    11
 71
     2
 72
     2
 73
     1
 90
        0
 40
-0.6
 41
-30.0
 62
     5
 63
     7
421
 16777215
 74
     1
 91
        4
 64
     7
 65
   257
 75
     1
175
     1
 42
1.0
 92
        8
 66
     7
 43
1.0
 76
     1
 77
     6
 78
     2
 67
     7
 79
     5
170
     0
171
     0
290
     0
174
     0
 93
        1
 44
-50.0
173
     0
291
     1
 45
0.0
  0
VISUALSTYLE
  5
FE
102
{ACAD_REACTORS
330
EF
102
}
330
EF
100
AcDbVisualStyle
  2
Facepattern
 70
    15
 71
     2
 72
     2
 73
     1
 90
        0
 40
-0.6
 41
-30.0
 62
     5
 63
     7
421
 16777215
 74
     1
 91
        4
 64
     7
 65
   257
 75
     1
175
     1
 42
1.0
 92
        8
 66
     7
 43
1.0
 76
     1
 77
     6
 78
     2
 67
     7
 79
     5
170
     0
171
     0
290
     0
174
     0
 93
        1
 44
0.0
173
     0
291
     1
 45
0.0
  0
VISUALSTYLE
  5
F0
102
{ACAD_REACTORS
330
EF
102
}
330
EF
100
AcDbVisualStyle
  2
Flat
 70
     0
 71
     2
 72
     1
 73
     1
 90
        2
 40
-0.6
 41
30.0
 62
     5
 63
     7
421
 16777215
 74
     0
 91
        4
 64
     7
 65
   257
 75
     1
175
     1
 42
1.0
 92
        8
 66
     7
 43
1.0
 76
     1
 77
     6
 78
     2
 67
     7
 79
     5
170
     0
171
     0
290
     0
174
     0
 93
        1
 44
0.0
173
     0
291
     1
 45
0.0
  0
VISUALSTYLE
  5
F1
102
{ACAD_REACTORS
330
EF
102
}
330
EF
100
AcDbVisualStyle
  2
FlatWithEdges
 70
     1
 71
     2
 72
     1
 73
     1
 90
        2
 40
-0.6
 41
30.0
 62
     5
 63
     7
421
 16777215
 74
     1
 91
        4
 64
     7
 65
   257
 75
     1
175
     1
 42
1.0
 92
        0
 66
   257
 43
1.0
 76
     1
 77
     6
 78
     2
 67
     7
 79
     5
170
     0
171
     0
290
     0
174
     0
 93
        1
 44
0.0
173
     0
291
     1
 45
0.0
  0
VISUALSTYLE
  5
F2
102
{ACAD_REACTORS
330
EF
102
}
330
EF
100
AcDbVisualStyle
  2
Gouraud
 70
     2
 71
     2
 72
     2
 73
     1
 90
        2
 40
-0.6
 41
30.0
 62
     5
 63
     7
421
 16777215
 74
     0
 91
        4
 64
     7
 65
   257
 75
     1
175
     1
 42
1.0
 92
        0
 66
     7
 43
1.0
 76
     1
 77
     6
 78
     2
 67
     7
 79
     5
170
     0
171
     0
290
     0
174
     0
 93
        1
 44
0.0
173
     0
291
     1
 45
0.0
  0
VISUALSTYLE
  5
F3
102
{ACAD_REACTORS
330
EF
102
}
330
EF
100
AcDbVisualStyle
  2
GouraudWithEdges
 70
     3
 71
     2
 72
     2
 73
     1
 90
        2
 40
-0.6
 41
30.0
 62
     5
 63
     7
421
 16777215
 74
     1
 91
        4
 64
     7
 65
   257
 75
     1
175
     1
 42
1.0
 92
        0
 66
   257
 43
1.0
 76
     1
 77
     6
 78
     2
 67
     7
 79
     5
170
     0
171
     0
290
     0
174
     0
 93
        1
 44
0.0
173
     0
291
     1
 45
0.0
  0
VISUALSTYLE
  5
FD
102
{ACAD_REACTORS
330
EF
102
}
330
EF
100
AcDbVisualStyle
  2
Linepattern
 70
    14
 71
     2
 72
     2
 73
     1
 90
        0
 40
-0.6
 41
-30.0
 62
     5
 63
     7
421
 16777215
 74
     1
 91
        4
 64
     7
 65
   257
 75
     7
175
     7
 42
1.0
 92
        8
 66
     7
 43
1.0
 76
     1
 77
     6
 78
     2
 67
     7
 79
     5
170
     0
171
     0
290
     0
174
     0
 93
        1
 44
0.0
173
     0
291
     1
 45
0.0
  0
VISUALSTYLE
  5
F9
102
{ACAD_REACTORS
330
EF
102
}
330
EF
100
AcDbVisualStyle
  2
Realistic
 70
     8
 71
     2
 72
     2
 73
     1
 90
        0
 40
-0.6
 41
-30.0
 62
     5
 63
     7
421
 16777215
 74
     1
 91
        0
 64
     7
 65
   257
 75
     1
175
     1
 42
1.0
 92
        8
 66
     8
424
  7895160
 43
1.0
 76
     1
 77
     6
 78
     2
 67
     7
 79
     5
170
     0
171
     0
290
     0
174
     0
 93
       13
 44
0.0
173
     0
291
     0
 45
0.0
  0
VISUALSTYLE
  5
FC
102
{ACAD_REACTORS
330
EF
102
}
330
EF
100
AcDbVisualStyle
  2
Thicken
 70
    13
 71
     2
 72
     2
 73
     1
 90
        0
 40
-0.6
 41
-30.0
 62
     5
 63
     7
421
 16777215
 74
     1
 91
        4
 64
     7
 65
   257
 75
     1
175
     1
 42
1.0
 92
       12
 66
     7
 43
1.0
 76
     1
 77
     6
 78
     2
 67
     7
 79
     5
170
     0
171
     0
290
     0
174
     0
 93
        1
 44
0.0
173
     0
291
     1
 45
0.0
  0
DICTIONARYVAR
  5
146
102
{ACAD_REACTORS
330
5E
102
}
330
5E
100
DictionaryVariables
280
     0
  1
1:1
  0
DICTIONARYVAR
  5
145
102
{ACAD_REACTORS
330
5E
102
}
330
5E
100
DictionaryVariables
280
     0
  1
STANDARD
  0
DICTIONARYVAR
  5
84
102
{ACAD_REACTORS
330
5E
102
}
330
5E
100
DictionaryVariables
280
     0
  1
STANDARD
  0
DICTIONARYVAR
  5
5F
102
{ACAD_REACTORS
330
5E
102
}
330
5E
100
DictionaryVariables
280
     0
  1
2
  0
DICTIONARYVAR
  5
63
102
{ACAD_REACTORS
330
5E
102
}
330
5E
100
DictionaryVariables
280
     0
  1
1
  0
DICTIONARYVAR
  5
1AE
102
{ACAD_REACTORS
330
5E
102
}
330
5E
100
DictionaryVariables
280
     0
  1
0
  0
DICTIONARYVAR
  5
1AF
102
{ACAD_REACTORS
330
5E
102
}
330
5E
100
DictionaryVariables
280
     0
  1
0
  0
DICTIONARY
  5
173
330
EE
100
AcDbDictionary
280
     1
281
     1
  3
BUMPTILE
360
175
  3
DIFFUSETILE
360
174
  3
OPACITYTILE
360
176
  3
REFLECTIONTILE
360
177
  0
DICTIONARY
  5
162
330
7F
100
AcDbDictionary
280
     1
281
     1
  3
ACAD_ROUNDTRIP_2008_TABLESTYLE_CELLSTYLEMAP
360
1E7
  0
XRECORD
  5
175
102
{ACAD_REACTORS
330
173
102
}
330
173
100
AcDbXrecord
280
     1
270
     1
271
     1
  0
XRECORD
  5
174
102
{ACAD_REACTORS
330
173
102
}
330
173
100
AcDbXrecord
280
     1
270
     1
271
     1
  0
XRECORD
  5
176
102
{ACAD_REACTORS
330
173
102
}
330
173
100
AcDbXrecord
280
     1
270
     1
271
     1
  0
XRECORD
  5
177
102
{ACAD_REACTORS
330
173
102
}
330
173
100
AcDbXrecord
280
     1
270
     1
271
     1
  0
CELLSTYLEMAP
  5
1E7
102
{ACAD_REACTORS
330
162
102
}
330
162
100
AcDbCellStyleMap
 90
        3
300
CELLSTYLE
  1
TABLEFORMAT_BEGIN
 90
        5
170
     1
 91
        0
 92
    32768
 62
   257
 93
        1
300
CONTENTFORMAT
  1
CONTENTFORMAT_BEGIN
 90
        0
 91
        0
 92
      512
 93
        0
300

 40
0.0
140
1.0
 94
        5
 62
     0
340
11
144
6.0
309
CONTENTFORMAT_END
171
     1
301
MARGIN
  1
CELLMARGIN_BEGIN
 40
1.5
 40
1.5
 40
1.5
 40
1.5
 40
4.5
 40
4.5
309
CELLMARGIN_END
 94
        6
 95
        1
302
GRIDFORMAT
  1
GRIDFORMAT_BEGIN
 90
        0
 91
        1
 62
     0
 92
       -2
340
994
 93
        0
 40
1.125
309
GRIDFORMAT_END
 95
        2
302
GRIDFORMAT
  1
GRIDFORMAT_BEGIN
 90
        0
 91
        1
 62
     0
 92
       -2
340
994
 93
        0
 40
1.125
309
GRIDFORMAT_END
 95
        4
302
GRIDFORMAT
  1
GRIDFORMAT_BEGIN
 90
        0
 91
        1
 62
     0
 92
       -2
340
994
 93
        0
 40
1.125
309
GRIDFORMAT_END
 95
        8
302
GRIDFORMAT
  1
GRIDFORMAT_BEGIN
 90
        0
 91
        1
 62
     0
 92
       -2
340
994
 93
        0
 40
1.125
309
GRIDFORMAT_END
 95
       16
302
GRIDFORMAT
  1
GRIDFORMAT_BEGIN
 90
        0
 91
        1
 62
     0
 92
       -2
340
994
 93
        0
 40
1.125
309
GRIDFORMAT_END
 95
       32
302
GRIDFORMAT
  1
GRIDFORMAT_BEGIN
 90
        0
 91
        1
 62
     0
 92
       -2
340
994
 93
        0
 40
1.125
309
GRIDFORMAT_END
309
TABLEFORMAT_END
  1
CELLSTYLE_BEGIN
 90
        1
 91
        1
300
_TITLE
309
CELLSTYLE_END
300
CELLSTYLE
  1
TABLEFORMAT_BEGIN
 90
        5
170
     1
 91
        0
 92
        0
 62
   257
 93
        1
300
CONTENTFORMAT
  1
CONTENTFORMAT_BEGIN
 90
        0
 91
        0
 92
      512
 93
        0
300

 40
0.0
140
1.0
 94
        5
 62
     0
340
11
144
4.5
309
CONTENTFORMAT_END
171
     1
301
MARGIN
  1
CELLMARGIN_BEGIN
 40
1.5
 40
1.5
 40
1.5
 40
1.5
 40
4.5
 40
4.5
309
CELLMARGIN_END
 94
        6
 95
        1
302
GRIDFORMAT
  1
GRIDFORMAT_BEGIN
 90
        0
 91
        1
 62
     0
 92
       -2
340
994
 93
        0
 40
1.125
309
GRIDFORMAT_END
 95
        2
302
GRIDFORMAT
  1
GRIDFORMAT_BEGIN
 90
        0
 91
        1
 62
     0
 92
       -2
340
994
 93
        0
 40
1.125
309
GRIDFORMAT_END
 95
        4
302
GRIDFORMAT
  1
GRIDFORMAT_BEGIN
 90
        0
 91
        1
 62
     0
 92
       -2
340
994
 93
        0
 40
1.125
309
GRIDFORMAT_END
 95
        8
302
GRIDFORMAT
  1
GRIDFORMAT_BEGIN
 90
        0
 91
        1
 62
     0
 92
       -2
340
994
 93
        0
 40
1.125
309
GRIDFORMAT_END
 95
       16
302
GRIDFORMAT
  1
GRIDFORMAT_BEGIN
 90
        0
 91
        1
 62
     0
 92
       -2
340
994
 93
        0
 40
1.125
309
GRIDFORMAT_END
 95
       32
302
GRIDFORMAT
  1
GRIDFORMAT_BEGIN
 90
        0
 91
        1
 62
     0
 92
       -2
340
994
 93
        0
 40
1.125
309
GRIDFORMAT_END
309
TABLEFORMAT_END
  1
CELLSTYLE_BEGIN
 90
        2
 91
        1
300
_HEADER
309
CELLSTYLE_END
300
CELLSTYLE
  1
TABLEFORMAT_BEGIN
 90
        5
170
     1
 91
        0
 92
        0
 62
   257
 93
        1
300
CONTENTFORMAT
  1
CONTENTFORMAT_BEGIN
 90
        0
 91
        0
 92
      512
 93
        0
300

 40
0.0
140
1.0
 94
        2
 62
     0
340
11
144
4.5
309
CONTENTFORMAT_END
171
     1
301
MARGIN
  1
CELLMARGIN_BEGIN
 40
1.5
 40
1.5
 40
1.5
 40
1.5
 40
4.5
 40
4.5
309
CELLMARGIN_END
 94
        6
 95
        1
302
GRIDFORMAT
  1
GRIDFORMAT_BEGIN
 90
        0
 91
        1
 62
     0
 92
       -2
340
994
 93
        0
 40
1.125
309
GRIDFORMAT_END
 95
        2
302
GRIDFORMAT
  1
GRIDFORMAT_BEGIN
 90
        0
 91
        1
 62
     0
 92
       -2
340
994
 93
        0
 40
1.125
309
GRIDFORMAT_END
 95
        4
302
GRIDFORMAT
  1
GRIDFORMAT_BEGIN
 90
        0
 91
        1
 62
     0
 92
       -2
340
994
 93
        0
 40
1.125
309
GRIDFORMAT_END
 95
        8
302
GRIDFORMAT
  1
GRIDFORMAT_BEGIN
 90
        0
 91
        1
 62
     0
 92
       -2
340
994
 93
        0
 40
1.125
309
GRIDFORMAT_END
 95
       16
302
GRIDFORMAT
  1
GRIDFORMAT_BEGIN
 90
        0
 91
        1
 62
     0
 92
       -2
340
994
 93
        0
 40
1.125
309
GRIDFORMAT_END
 95
       32
302
GRIDFORMAT
  1
GRIDFORMAT_BEGIN
 90
        0
 91
        1
 62
     0
 92
       -2
340
994
 93
        0
 40
1.125
309
GRIDFORMAT_END
309
TABLEFORMAT_END
  1
CELLSTYLE_BEGIN
 90
        3
 91
        2
300
_DATA
309
CELLSTYLE_END
  0
IMAGEDEF_REACTOR
  5
2AB
330
2A9
100
AcDbRasterImageDefReactor
 90
     2
330
2A9
  0
IMAGEDEF
  5
2AA
102
{ACAD_REACTORS
330
5E
330
2AB
102
}
330
5E
100
AcDbRasterImageDef
 90
     0
  1
WDVS mit Putz_Horizontales Gleitlager_16_1.tif
 10
395.000000
 20
405.000000
 11
0.002532
 21
0.002469
280
     1
281
     0
  0
ENDSEC
  0
EOF
