  0
SECTION
  2
HEADER
  9
$ACADVER
  1
AC1024
  9
$ACADMAINTVER
 70
     6
  9
$DWGCODEPAGE
  3
ANSI_1252
  9
$INSBASE
 10
0.0
 20
0.0
 30
0.0
  9
$EXTMIN
 10
-262.500018
 20
-371.249941
 30
0.000000
  9
$EXTMAX
 10
237.500023
 20
346.250078
 30
0.000000
  9
$LIMMIN
 10
0.0
 20
0.0
  9
$LIMMAX
 10
420.0
 20
297.0
  9
$ORTHOMODE
 70
     0
  9
$REGENMODE
 70
     1
  9
$FILLMODE
 70
     1
  9
$QTEXTMODE
 70
     0
  9
$MIRRTEXT
 70
     0
  9
$LTSCALE
 40
25.000000
  9
$ATTMODE
 70
     1
  9
$TEXTSIZE
 40
2.5
  9
$TRACEWID
 40
1.0
  9
$TEXTSTYLE
  7
Standard
  9
$CLAYER
  8
0
  9
$CELTYPE
  6
ByLayer
  9
$CECOLOR
 62
   256
  9
$CELTSCALE
 40
1.0
  9
$DISPSILH
 70
     0
  9
$DIMSCALE
 40
1.0
  9
$DIMASZ
 40
2.5
  9
$DIMEXO
 40
0.625
  9
$DIMDLI
 40
3.75
  9
$DIMRND
 40
0.0
  9
$DIMDLE
 40
0.0
  9
$DIMEXE
 40
1.25
  9
$DIMTP
 40
0.0
  9
$DIMTM
 40
0.0
  9
$DIMTXT
 40
2.5
  9
$DIMCEN
 40
2.5
  9
$DIMTSZ
 40
0.0
  9
$DIMTOL
 70
     0
  9
$DIMLIM
 70
     0
  9
$DIMTIH
 70
     0
  9
$DIMTOH
 70
     0
  9
$DIMSE1
 70
     0
  9
$DIMSE2
 70
     0
  9
$DIMTAD
 70
     1
  9
$DIMZIN
 70
     8
  9
$DIMBLK
  1

  9
$DIMASO
 70
     1
  9
$DIMSHO
 70
     1
  9
$DIMPOST
  1

  9
$DIMAPOST
  1

  9
$DIMALT
 70
     0
  9
$DIMALTD
 70
     3
  9
$DIMALTF
 40
0.03937007874016
  9
$DIMLFAC
 40
1.0
  9
$DIMTOFL
 70
     1
  9
$DIMTVP
 40
0.0
  9
$DIMTIX
 70
     0
  9
$DIMSOXD
 70
     0
  9
$DIMSAH
 70
     0
  9
$DIMBLK1
  1

  9
$DIMBLK2
  1

  9
$DIMSTYLE
  2
ISO-25
  9
$DIMCLRD
 70
     0
  9
$DIMCLRE
 70
     0
  9
$DIMCLRT
 70
     0
  9
$DIMTFAC
 40
1.0
  9
$DIMGAP
 40
0.625
  9
$DIMJUST
 70
     0
  9
$DIMSD1
 70
     0
  9
$DIMSD2
 70
     0
  9
$DIMTOLJ
 70
     0
  9
$DIMTZIN
 70
     8
  9
$DIMALTZ
 70
     0
  9
$DIMALTTZ
 70
     0
  9
$DIMUPT
 70
     0
  9
$DIMDEC
 70
     2
  9
$DIMTDEC
 70
     2
  9
$DIMALTU
 70
     2
  9
$DIMALTTD
 70
     3
  9
$DIMTXSTY
  7
Standard
  9
$DIMAUNIT
 70
     0
  9
$DIMADEC
 70
     0
  9
$DIMALTRND
 40
0.0
  9
$DIMAZIN
 70
     0
  9
$DIMDSEP
 70
    44
  9
$DIMATFIT
 70
     3
  9
$DIMFRAC
 70
     0
  9
$DIMLDRBLK
  1

  9
$DIMLUNIT
 70
     2
  9
$DIMLWD
 70
    -2
  9
$DIMLWE
 70
    -2
  9
$DIMTMOVE
 70
     0
  9
$DIMFXL
 40
1.0
  9
$DIMFXLON
 70
     0
  9
$DIMJOGANG
 40
0.7853981633974483
  9
$DIMTFILL
 70
     0
  9
$DIMTFILLCLR
 70
     0
  9
$DIMARCSYM
 70
     0
  9
$DIMLTYPE
  6

  9
$DIMLTEX1
  6

  9
$DIMLTEX2
  6

  9
$DIMTXTDIRECTION
 70
     0
  9
$LUNITS
 70
     2
  9
$LUPREC
 70
     4
  9
$SKETCHINC
 40
1.0
  9
$FILLETRAD
 40
10.0
  9
$AUNITS
 70
     0
  9
$AUPREC
 70
     0
  9
$MENU
  1
.
  9
$ELEVATION
 40
0.0
  9
$PELEVATION
 40
0.0
  9
$THICKNESS
 40
0.0
  9
$LIMCHECK
 70
     0
  9
$CHAMFERA
 40
10.0
  9
$CHAMFERB
 40
10.0
  9
$CHAMFERC
 40
20.0
  9
$CHAMFERD
 40
0.0
  9
$SKPOLY
 70
     0
  9
$TDCREATE
 40
2452006.439837951
  9
$TDUCREATE
 40
2452006.356504618
  9
$TDUPDATE
 40
2452006.439963946
  9
$TDUUPDATE
 40
2452006.356630613
  9
$TDINDWG
 40
0.0001273843
  9
$TDUSRTIMER
 40
0.0001272685
  9
$USRTIMER
 70
     1
  9
$ANGBASE
 50
0.0
  9
$ANGDIR
 70
     0
  9
$PDMODE
 70
     0
  9
$PDSIZE
 40
0.0
  9
$PLINEWID
 40
0.0
  9
$SPLFRAME
 70
     0
  9
$SPLINETYPE
 70
     6
  9
$SPLINESEGS
 70
     8
  9
$HANDSEED
  5
A16
  9
$SURFTAB1
 70
     6
  9
$SURFTAB2
 70
     6
  9
$SURFTYPE
 70
     6
  9
$SURFU
 70
     6
  9
$SURFV
 70
     6
  9
$UCSBASE
  2

  9
$UCSNAME
  2

  9
$UCSORG
 10
0.0
 20
0.0
 30
0.0
  9
$UCSXDIR
 10
1.0
 20
0.0
 30
0.0
  9
$UCSYDIR
 10
0.0
 20
1.0
 30
0.0
  9
$UCSORTHOREF
  2

  9
$UCSORTHOVIEW
 70
     0
  9
$UCSORGTOP
 10
0.0
 20
0.0
 30
0.0
  9
$UCSORGBOTTOM
 10
0.0
 20
0.0
 30
0.0
  9
$UCSORGLEFT
 10
0.0
 20
0.0
 30
0.0
  9
$UCSORGRIGHT
 10
0.0
 20
0.0
 30
0.0
  9
$UCSORGFRONT
 10
0.0
 20
0.0
 30
0.0
  9
$UCSORGBACK
 10
0.0
 20
0.0
 30
0.0
  9
$PUCSBASE
  2

  9
$PUCSNAME
  2

  9
$PUCSORG
 10
0.0
 20
0.0
 30
0.0
  9
$PUCSXDIR
 10
1.0
 20
0.0
 30
0.0
  9
$PUCSYDIR
 10
0.0
 20
1.0
 30
0.0
  9
$PUCSORTHOREF
  2

  9
$PUCSORTHOVIEW
 70
     0
  9
$PUCSORGTOP
 10
0.0
 20
0.0
 30
0.0
  9
$PUCSORGBOTTOM
 10
0.0
 20
0.0
 30
0.0
  9
$PUCSORGLEFT
 10
0.0
 20
0.0
 30
0.0
  9
$PUCSORGRIGHT
 10
0.0
 20
0.0
 30
0.0
  9
$PUCSORGFRONT
 10
0.0
 20
0.0
 30
0.0
  9
$PUCSORGBACK
 10
0.0
 20
0.0
 30
0.0
  9
$USERI1
 70
     0
  9
$USERI2
 70
     0
  9
$USERI3
 70
     0
  9
$USERI4
 70
     0
  9
$USERI5
 70
     0
  9
$USERR1
 40
0.0
  9
$USERR2
 40
0.0
  9
$USERR3
 40
0.0
  9
$USERR4
 40
0.0
  9
$USERR5
 40
0.0
  9
$WORLDVIEW
 70
     1
  9
$SHADEDGE
 70
     3
  9
$SHADEDIF
 70
    70
  9
$TILEMODE
 70
     1
  9
$MAXACTVP
 70
    64
  9
$PINSBASE
 10
0.0
 20
0.0
 30
0.0
  9
$PLIMCHECK
 70
     0
  9
$PEXTMIN
 10
1.000000000000000E+20
 20
1.000000000000000E+20
 30
1.000000000000000E+20
  9
$PEXTMAX
 10
-1.000000000000000E+20
 20
-1.000000000000000E+20
 30
-1.000000000000000E+20
  9
$PLIMMIN
 10
0.0
 20
0.0
  9
$PLIMMAX
 10
420.0
 20
297.0
  9
$UNITMODE
 70
     0
  9
$VISRETAIN
 70
     1
  9
$PLINEGEN
 70
     0
  9
$PSLTSCALE
 70
     1
  9
$TREEDEPTH
 70
  3020
  9
$CMLSTYLE
  2
Standard
  9
$CMLJUST
 70
     0
  9
$CMLSCALE
 40
20.0
  9
$PROXYGRAPHICS
 70
     1
  9
$MEASUREMENT
 70
     1
  9
$CELWEIGHT
370
    -1
  9
$ENDCAPS
280
     0
  9
$JOINSTYLE
280
     0
  9
$LWDISPLAY
290
     0
  9
$INSUNITS
 70
     4
  9
$HYPERLINKBASE
  1

  9
$STYLESHEET
  1

  9
$XEDIT
290
     1
  9
$CEPSNTYPE
380
     0
  9
$PSTYLEMODE
290
     1
  9
$FINGERPRINTGUID
  2

  9
$VERSIONGUID
  2

  9
$EXTNAMES
290
     1
  9
$PSVPSCALE
 40
0.0
  9
$OLESTARTUP
290
     0
  9
$SORTENTS
280
   127
  9
$INDEXCTL
280
     0
  9
$HIDETEXT
280
     1
  9
$XCLIPFRAME
280
     2
  9
$HALOGAP
280
     0
  9
$OBSCOLOR
 70
   257
  9
$OBSLTYPE
280
     0
  9
$INTERSECTIONDISPLAY
280
     0
  9
$INTERSECTIONCOLOR
 70
   257
  9
$DIMASSOC
280
     2
  9
$PROJECTNAME
  1

  9
$CAMERADISPLAY
290
     0
  9
$LENSLENGTH
 40
50.0
  9
$CAMERAHEIGHT
 40
0.0
  9
$STEPSPERSEC
 40
2.0
  9
$STEPSIZE
 40
6.0
  9
$3DDWFPREC
 40
2.0
  9
$PSOLWIDTH
 40
5.0
  9
$PSOLHEIGHT
 40
80.0
  9
$LOFTANG1
 40
1.570796326794896
  9
$LOFTANG2
 40
1.570796326794896
  9
$LOFTMAG1
 40
0.0
  9
$LOFTMAG2
 40
0.0
  9
$LOFTPARAM
 70
     7
  9
$LOFTNORMALS
280
     1
  9
$LATITUDE
 40
37.795
  9
$LONGITUDE
 40
-122.394
  9
$NORTHDIRECTION
 40
0.0
  9
$TIMEZONE
 70
 -8000
  9
$LIGHTGLYPHDISPLAY
280
     1
  9
$TILEMODELIGHTSYNCH
280
     1
  9
$CMATERIAL
347
EC
  9
$SOLIDHIST
280
     1
  9
$SHOWHIST
280
     1
  9
$DWFFRAME
280
     2
  9
$DGNFRAME
280
     0
  9
$REALWORLDSCALE
290
     1
  9
$INTERFERECOLOR
 62
     1
  9
$INTERFEREOBJVS
345
F9
  9
$INTERFEREVPVS
346
F6
  9
$CSHADOW
280
     0
  9
$SHADOWPLANELOCATION
 40
0.0
  0
ENDSEC
  0
SECTION
  2
CLASSES
  0
CLASS
  1
ACDBDICTIONARYWDFLT
  2
AcDbDictionaryWithDefault
  3
ObjectDBX Classes
 90
        0
 91
        1
280
     0
281
     0
  0
CLASS
  1
ACDBPLACEHOLDER
  2
AcDbPlaceHolder
  3
ObjectDBX Classes
 90
        0
 91
        1
280
     0
281
     0
  0
CLASS
  1
LAYOUT
  2
AcDbLayout
  3
ObjectDBX Classes
 90
        0
 91
        2
280
     0
281
     0
  0
CLASS
  1
DICTIONARYVAR
  2
AcDbDictionaryVar
  3
ObjectDBX Classes
 90
        0
 91
        7
280
     0
281
     0
  0
CLASS
  1
TABLESTYLE
  2
AcDbTableStyle
  3
ObjectDBX Classes
 90
     4095
 91
        1
280
     0
281
     0
  0
CLASS
  1
MATERIAL
  2
AcDbMaterial
  3
ObjectDBX Classes
 90
     1153
 91
        3
280
     0
281
     0
  0
CLASS
  1
VISUALSTYLE
  2
AcDbVisualStyle
  3
ObjectDBX Classes
 90
     4095
 91
       16
280
     0
281
     0
  0
CLASS
  1
SCALE
  2
AcDbScale
  3
ObjectDBX Classes
 90
     1153
 91
       17
280
     0
281
     0
  0
CLASS
  1
MLEADERSTYLE
  2
AcDbMLeaderStyle
  3
ACDB_MLEADERSTYLE_CLASS
 90
     4095
 91
        1
280
     0
281
     0
  0
CLASS
  1
CELLSTYLEMAP
  2
AcDbCellStyleMap
  3
ObjectDBX Classes
 90
     1152
 91
        2
280
     0
281
     0
  0
CLASS
  1
EXACXREFPANELOBJECT
  2
ExAcXREFPanelObject
  3
EXAC_ESW
 90
    33793
 91
        0
280
     0
281
     0
  0
CLASS
  1
NPOCOLLECTION
  2
AcDbImpNonPersistentObjectsCollection
  3
ObjectDBX Classes
 90
     1153
 91
        0
280
     0
281
     0
  0
CLASS
  1
LAYER_INDEX
  2
AcDbLayerIndex
  3
ObjectDBX Classes
 90
        0
 91
        0
280
     0
281
     0
  0
CLASS
  1
SPATIAL_INDEX
  2
AcDbSpatialIndex
  3
ObjectDBX Classes
 90
        0
 91
        0
280
     0
281
     0
  0
CLASS
  1
IDBUFFER
  2
AcDbIdBuffer
  3
ObjectDBX Classes
 90
        0
 91
        0
280
     0
281
     0
  0
CLASS
  1
RASTERVARIABLES
  2
AcDbRasterVariables
  3
ISM
 90
        0
 91
        2
280
     0
281
     0
  0
CLASS
  1
IMAGEDEF
  2
AcDbRasterImageDef
  3
ISM
 90
        0
 91
        5
280
     0
281
     0
  0
CLASS
  1
IMAGEDEF_REACTOR
  2
AcDbRasterImageDefReactor
  3
ISM
 90
        1
 91
        5
280
     0
281
     0
  0
CLASS
  1
IMAGE
  2
AcDbRasterImage
  3
ISM
 90
     2175
 91
        5
280
     0
281
     1
  0
CLASS
  1
LWPOLYLINE
  2
AcDbPolyline
  3
ObjectDBX Classes
 90
        0
 91
        0
280
     0
281
     1
  0
CLASS
  1
OLE2FRAME
  2
AcDbOle2Frame
  3
ObjectDBX Classes
 90
        0
 91
        0
280
     0
281
     1
  0
CLASS
  1
HATCH
  2
AcDbHatch
  3
ObjectDBX Classes
 90
        0
 91
        0
280
     0
281
     1
  0
CLASS
  1
XRECORD
  2
AcDbXrecord
  3
ObjectDBX Classes
 90
        0
 91
        9
280
     0
281
     0
  0
CLASS
  1
SORTENTSTABLE
  2
AcDbSortentsTable
  3
ObjectDBX Classes
 90
        0
 91
        0
280
     0
281
     0
  0
CLASS
  1
OBJECT_PTR
  2
CAseDLPNTableRecord
  3
"ASE-LPNTableRecord"
 90
    32769
 91
        0
280
     0
281
     0
  0
CLASS
  1
PLOTSETTINGS
  2
AcDbPlotSettings
  3
ObjectDBX Classes
 90
        0
 91
        0
280
     0
281
     0
  0
CLASS
  1
VBA_PROJECT
  2
AcDbVbaProject
  3
acad
 90
        0
 91
        0
280
     0
281
     0
  0
CLASS
  1
WIPEOUT
  2
AcDbWipeout
  3
WipeOut|AutoCAD Express Tool|expresstools@autodesk.com
 90
    32895
 91
        0
280
     0
281
     1
  0
CLASS
  1
WIPEOUTVARIABLES
  2
AcDbWipeoutVariables
  3
WipeOut|AutoCAD Express Tool|expresstools@autodesk.com
 90
    32768
 91
        0
280
     0
281
     0
  0
CLASS
  1
RTEXT
  2
RText
  3
RText|AutoCAD Express Tool|expresstools@autodesk.com
 90
    32768
 91
        0
280
     0
281
     1
  0
CLASS
  1
ARCALIGNEDTEXT
  2
AcDbArcAlignedText
  3
ATEXT|AutoCAD Express Tool|expresstools@autodesk.com
 90
    32768
 91
        0
280
     0
281
     1
  0
ENDSEC
  0
SECTION
  2
TABLES
  0
TABLE
  2
VPORT
  5
9B0
100
AcDbSymbolTable
 70
     1
  0
VPORT
  5
9B1
100
AcDbSymbolTableRecord
100
AcDbViewportTableRecord
  2
*ACTIVE
 70
     0
 10
0.000000
 20
0.000000
 11
1.000000
 21
1.000000
 12
50.000000
 22
50.000000
 13
0.000000
 23
0.000000
 14
1.000000
 24
1.000000
 15
10.000000
 25
10.000000
 16
0.000000
 26
0.000000
 36
1.000000
 17
0.000000
 27
0.000000
 37
0.000000
 40
100.000000
 41
1.387409
 42
50.000000
 43
0.000000
 44
0.000000
 50
0.000000
 51
0.000000
 71
     0
 72
   100
 73
     1
 74
     1
 75
     0
 76
     0
 77
     0
 78
     0
  0
ENDTAB
  0
TABLE
  2
LTYPE
  5
9B2
330
0
100
AcDbSymbolTable
 70
     9
  0
LTYPE
  5
9B3
330
9B2
100
AcDbSymbolTableRecord
100
AcDbLinetypeTableRecord
  2
ByBlock
 70
     0
  3

 72
    65
 73
     0
 40
0.000000
  0
LTYPE
  5
9B4
330
9B2
100
AcDbSymbolTableRecord
100
AcDbLinetypeTableRecord
  2
ByLayer
 70
     0
  3

 72
    65
 73
     0
 40
0.000000
  0
LTYPE
  5
9B5
330
9B2
100
AcDbSymbolTableRecord
100
AcDbLinetypeTableRecord
  2
CONTINUOUS
 70
     0
  3
Solid line
 72
    65
 73
     0
 40
0.000000
  0
LTYPE
  5
9B6
330
9B2
100
AcDbSymbolTableRecord
100
AcDbLinetypeTableRecord
  2
HIDDEN
 70
     0
  3
_ _ _ _ _ _ _ _ _ _ _ _ _ _ _ _ _ _ _ _ _ _ _
 72
    65
 73
     2
 40
0.375000
 49
0.250000
 74
     0
 49
-0.125000
 74
     0
  0
LTYPE
  5
9B7
330
9B2
100
AcDbSymbolTableRecord
100
AcDbLinetypeTableRecord
  2
DOT
 70
     0
  3
...............................................
 72
    65
 73
     2
 40
0.250000
 49
0.000000
 74
     0
 49
-0.250000
 74
     0
  0
LTYPE
  5
9B8
330
9B2
100
AcDbSymbolTableRecord
100
AcDbLinetypeTableRecord
  2
DASHED
 70
     0
  3
__ __ __ __ __ __ __ __ __ __ __ __ __ __ __ 
 72
    65
 73
     2
 40
0.750000
 49
0.500000
 74
     0
 49
-0.250000
 74
     0
  0
LTYPE
  5
9B9
330
9B2
100
AcDbSymbolTableRecord
100
AcDbLinetypeTableRecord
  2
DIVIDE
 70
     0
  3
__ . . __ . . __ . . __ . . __ . . __ . . __
 72
    65
 73
     6
 40
1.250000
 49
0.500000
 74
     0
 49
-0.250000
 74
     0
 49
0.000000
 74
     0
 49
-0.250000
 74
     0
 49
0.000000
 74
     0
 49
-0.250000
 74
     0
  0
LTYPE
  5
9BA
330
9B2
100
AcDbSymbolTableRecord
100
AcDbLinetypeTableRecord
  2
DASHDOT
 70
     0
  3
__ . __ . __ . __ . __ . __ . __ . __ . __ . __
 72
    65
 73
     4
 40
1.000000
 49
0.500000
 74
     0
 49
-0.250000
 74
     0
 49
0.000000
 74
     0
 49
-0.250000
 74
     0
  0
LTYPE
  5
9BB
330
9B2
100
AcDbSymbolTableRecord
100
AcDbLinetypeTableRecord
  2
BORDER
 70
     0
  3
__ __ . __ __ . __ __ . __ __ . __ __ . __ __
 72
    65
 73
     6
 40
1.750000
 49
0.500000
 74
     0
 49
-0.250000
 74
     0
 49
0.500000
 74
     0
 49
-0.250000
 74
     0
 49
0.000000
 74
     0
 49
-0.250000
 74
     0
  0
LTYPE
  5
9BC
330
9B2
100
AcDbSymbolTableRecord
100
AcDbLinetypeTableRecord
  2
CENTER
 70
     0
  3
____ _ ____ _ ____ _ ____ _ ____ _ ____ _ ____
 72
    65
 73
     4
 40
2.000000
 49
1.250000
 74
     0
 49
-0.250000
 74
     0
 49
0.250000
 74
     0
 49
-0.250000
 74
     0
  0
LTYPE
  5
9BD
330
9B2
100
AcDbSymbolTableRecord
100
AcDbLinetypeTableRecord
  2
PHANTOM
 70
     0
  3
_____ _ _ _____ _ _ _____ _ _ _____ _ _ ____
 72
    65
 73
     6
 40
2.500000
 49
1.250000
 74
     0
 49
-0.250000
 74
     0
 49
0.250000
 74
     0
 49
-0.250000
 74
     0
 49
0.250000
 74
     0
 49
-0.250000
 74
     0
  0
ENDTAB
  0
TABLE
  2
LAYER
  5
9BE
100
AcDbSymbolTable
 70
     4
  0
LAYER
  5
9BF
100
AcDbSymbolTableRecord
100
AcDbLayerTableRecord
  2
0
 70
     0
 62
     7
  6
CONTINUOUS
370
    -3
390
     0
  0
LAYER
  5
9C0
100
AcDbSymbolTableRecord
100
AcDbLayerTableRecord
  2
Detail
 70
     0
 62
     7
  6
CONTINUOUS
370
    -3
390
     0
  0
LAYER
  5
9C1
100
AcDbSymbolTableRecord
100
AcDbLayerTableRecord
  2
SCHRAFF
 70
     0
 62
     7
  6
CONTINUOUS
370
    -3
390
     0
  0
LAYER
  5
9C2
100
AcDbSymbolTableRecord
100
AcDbLayerTableRecord
  2
L
 70
     0
 62
     7
  6
CONTINUOUS
370
    -3
390
     0
  0
ENDTAB
  0
TABLE
  2
STYLE
  5
9C3
100
AcDbSymbolTable
 70
     2
  0
STYLE
  5
201
100
AcDbSymbolTableRecord
100
AcDbTextStyleTableRecord
  2
STANDARD
 70
     0
 40
0.000000
 41
1.000000
 50
0.000000
 71
     0
 42
3.500000
  3
txt
  4

  0
STYLE
  5
610
100
AcDbSymbolTableRecord
100
AcDbTextStyleTableRecord
  2
Arial
 70
     0
 40
0.000000
 41
1.000000
 50
0.000000
 71
     0
 42
3.500000
  3
Arial.ttf
  4

1001
ACAD
1000
Arial
1071
     0
  0
ENDTAB
  0
TABLE
  2
DIMSTYLE
  5
9C4
100
AcDbSymbolTable
 70
     0
100
AcDbDimStyleTable
  0
ENDTAB
  0
TABLE
  2
VIEW
  5
9C5
100
AcDbSymbolTable
 70
     0
  0
ENDTAB
  0
TABLE
  2
UCS
  5
9C6
100
AcDbSymbolTable
 70
     0
  0
ENDTAB
  0
TABLE
  2
APPID
  5
9C7
100
AcDbSymbolTable
 70
     1
  0
APPID
  5
9C8
100
AcDbSymbolTableRecord
100
AcDbRegAppTableRecord
  2
ACAD
 70
     0
  0
ENDTAB
  0
TABLE
  2
BLOCK_RECORD
  5
9C9
100
AcDbSymbolTable
 70
    77
  0
BLOCK_RECORD
  5
202
102
{ACAD_XDICTIONARY
360
203
102
}
100
AcDbSymbolTableRecord
100
AcDbBlockTableRecord
  2
*Model_Space
  0
BLOCK_RECORD
  5
9CA
100
AcDbSymbolTableRecord
100
AcDbBlockTableRecord
  2
*Paper_Space
  0
BLOCK_RECORD
  5
9CB
100
AcDbSymbolTableRecord
100
AcDbBlockTableRecord
  2
*Paper_Space0
  0
BLOCK_RECORD
  5
9CC
100
AcDbSymbolTableRecord
100
AcDbBlockTableRecord
  2
B
  0
BLOCK_RECORD
  5
9CD
100
AcDbSymbolTableRecord
100
AcDbBlockTableRecord
  2
B-2
  0
BLOCK_RECORD
  5
9CE
100
AcDbSymbolTableRecord
100
AcDbBlockTableRecord
  2
B-3
  0
BLOCK_RECORD
  5
9CF
100
AcDbSymbolTableRecord
100
AcDbBlockTableRecord
  2
B-4
  0
BLOCK_RECORD
  5
9D0
100
AcDbSymbolTableRecord
100
AcDbBlockTableRecord
  2
B-5
  0
BLOCK_RECORD
  5
9D1
100
AcDbSymbolTableRecord
100
AcDbBlockTableRecord
  2
B-6
  0
BLOCK_RECORD
  5
9D2
100
AcDbSymbolTableRecord
100
AcDbBlockTableRecord
  2
B-7
  0
BLOCK_RECORD
  5
9D3
100
AcDbSymbolTableRecord
100
AcDbBlockTableRecord
  2
B-8
  0
BLOCK_RECORD
  5
9D4
100
AcDbSymbolTableRecord
100
AcDbBlockTableRecord
  2
B-9
  0
BLOCK_RECORD
  5
9D5
100
AcDbSymbolTableRecord
100
AcDbBlockTableRecord
  2
B-10
  0
BLOCK_RECORD
  5
9D6
100
AcDbSymbolTableRecord
100
AcDbBlockTableRecord
  2
B-11
  0
BLOCK_RECORD
  5
9D7
100
AcDbSymbolTableRecord
100
AcDbBlockTableRecord
  2
B-12
  0
BLOCK_RECORD
  5
9D8
100
AcDbSymbolTableRecord
100
AcDbBlockTableRecord
  2
B-13
  0
BLOCK_RECORD
  5
9D9
100
AcDbSymbolTableRecord
100
AcDbBlockTableRecord
  2
B-14
  0
BLOCK_RECORD
  5
9DA
100
AcDbSymbolTableRecord
100
AcDbBlockTableRecord
  2
B-15
  0
BLOCK_RECORD
  5
9DB
100
AcDbSymbolTableRecord
100
AcDbBlockTableRecord
  2
B-16
  0
BLOCK_RECORD
  5
9DC
100
AcDbSymbolTableRecord
100
AcDbBlockTableRecord
  2
B-17
  0
BLOCK_RECORD
  5
9DD
100
AcDbSymbolTableRecord
100
AcDbBlockTableRecord
  2
B-18
  0
BLOCK_RECORD
  5
9DE
100
AcDbSymbolTableRecord
100
AcDbBlockTableRecord
  2
B-19
  0
BLOCK_RECORD
  5
9DF
100
AcDbSymbolTableRecord
100
AcDbBlockTableRecord
  2
B-20
  0
BLOCK_RECORD
  5
9E0
100
AcDbSymbolTableRecord
100
AcDbBlockTableRecord
  2
B-21
  0
BLOCK_RECORD
  5
9E1
100
AcDbSymbolTableRecord
100
AcDbBlockTableRecord
  2
B-22
  0
BLOCK_RECORD
  5
9E2
100
AcDbSymbolTableRecord
100
AcDbBlockTableRecord
  2
B-23
  0
BLOCK_RECORD
  5
9E3
100
AcDbSymbolTableRecord
100
AcDbBlockTableRecord
  2
B-24
  0
BLOCK_RECORD
  5
9E4
100
AcDbSymbolTableRecord
100
AcDbBlockTableRecord
  2
B-25
  0
BLOCK_RECORD
  5
9E5
100
AcDbSymbolTableRecord
100
AcDbBlockTableRecord
  2
B-26
  0
BLOCK_RECORD
  5
9E6
100
AcDbSymbolTableRecord
100
AcDbBlockTableRecord
  2
B-27
  0
BLOCK_RECORD
  5
9E7
100
AcDbSymbolTableRecord
100
AcDbBlockTableRecord
  2
B-28
  0
BLOCK_RECORD
  5
9E8
100
AcDbSymbolTableRecord
100
AcDbBlockTableRecord
  2
B-29
  0
BLOCK_RECORD
  5
9E9
100
AcDbSymbolTableRecord
100
AcDbBlockTableRecord
  2
B-30
  0
BLOCK_RECORD
  5
9EA
100
AcDbSymbolTableRecord
100
AcDbBlockTableRecord
  2
B-31
  0
BLOCK_RECORD
  5
9EB
100
AcDbSymbolTableRecord
100
AcDbBlockTableRecord
  2
B-32
  0
BLOCK_RECORD
  5
9EC
100
AcDbSymbolTableRecord
100
AcDbBlockTableRecord
  2
B-33
  0
BLOCK_RECORD
  5
9ED
100
AcDbSymbolTableRecord
100
AcDbBlockTableRecord
  2
B-34
  0
BLOCK_RECORD
  5
9EE
100
AcDbSymbolTableRecord
100
AcDbBlockTableRecord
  2
B-35
  0
BLOCK_RECORD
  5
9EF
100
AcDbSymbolTableRecord
100
AcDbBlockTableRecord
  2
B-36
  0
BLOCK_RECORD
  5
9F0
100
AcDbSymbolTableRecord
100
AcDbBlockTableRecord
  2
B-37
  0
BLOCK_RECORD
  5
9F1
100
AcDbSymbolTableRecord
100
AcDbBlockTableRecord
  2
B-38
  0
BLOCK_RECORD
  5
9F2
100
AcDbSymbolTableRecord
100
AcDbBlockTableRecord
  2
B-39
  0
BLOCK_RECORD
  5
9F3
100
AcDbSymbolTableRecord
100
AcDbBlockTableRecord
  2
B-40
  0
BLOCK_RECORD
  5
9F4
100
AcDbSymbolTableRecord
100
AcDbBlockTableRecord
  2
B-42
  0
BLOCK_RECORD
  5
9F5
100
AcDbSymbolTableRecord
100
AcDbBlockTableRecord
  2
B-43
  0
BLOCK_RECORD
  5
9F6
100
AcDbSymbolTableRecord
100
AcDbBlockTableRecord
  2
B-44
  0
BLOCK_RECORD
  5
9F7
100
AcDbSymbolTableRecord
100
AcDbBlockTableRecord
  2
B-45
  0
BLOCK_RECORD
  5
9F8
100
AcDbSymbolTableRecord
100
AcDbBlockTableRecord
  2
B-46
  0
BLOCK_RECORD
  5
9F9
100
AcDbSymbolTableRecord
100
AcDbBlockTableRecord
  2
B-47
  0
BLOCK_RECORD
  5
9FA
100
AcDbSymbolTableRecord
100
AcDbBlockTableRecord
  2
B-48
  0
BLOCK_RECORD
  5
9FB
100
AcDbSymbolTableRecord
100
AcDbBlockTableRecord
  2
B-49
  0
BLOCK_RECORD
  5
9FC
100
AcDbSymbolTableRecord
100
AcDbBlockTableRecord
  2
B-50
  0
BLOCK_RECORD
  5
9FD
100
AcDbSymbolTableRecord
100
AcDbBlockTableRecord
  2
B-51
  0
BLOCK_RECORD
  5
9FE
100
AcDbSymbolTableRecord
100
AcDbBlockTableRecord
  2
B-52
  0
BLOCK_RECORD
  5
9FF
100
AcDbSymbolTableRecord
100
AcDbBlockTableRecord
  2
B-53
  0
BLOCK_RECORD
  5
A00
100
AcDbSymbolTableRecord
100
AcDbBlockTableRecord
  2
B-54
  0
BLOCK_RECORD
  5
A01
100
AcDbSymbolTableRecord
100
AcDbBlockTableRecord
  2
B-55
  0
BLOCK_RECORD
  5
A02
100
AcDbSymbolTableRecord
100
AcDbBlockTableRecord
  2
B-56
  0
BLOCK_RECORD
  5
A03
100
AcDbSymbolTableRecord
100
AcDbBlockTableRecord
  2
B-57
  0
BLOCK_RECORD
  5
A04
100
AcDbSymbolTableRecord
100
AcDbBlockTableRecord
  2
B-58
  0
BLOCK_RECORD
  5
A05
100
AcDbSymbolTableRecord
100
AcDbBlockTableRecord
  2
B-59
  0
BLOCK_RECORD
  5
A06
100
AcDbSymbolTableRecord
100
AcDbBlockTableRecord
  2
B-60
  0
BLOCK_RECORD
  5
A07
100
AcDbSymbolTableRecord
100
AcDbBlockTableRecord
  2
B-61
  0
BLOCK_RECORD
  5
A08
100
AcDbSymbolTableRecord
100
AcDbBlockTableRecord
  2
B-62
  0
BLOCK_RECORD
  5
A09
100
AcDbSymbolTableRecord
100
AcDbBlockTableRecord
  2
B-63
  0
BLOCK_RECORD
  5
A0A
100
AcDbSymbolTableRecord
100
AcDbBlockTableRecord
  2
B-64
  0
BLOCK_RECORD
  5
A0B
100
AcDbSymbolTableRecord
100
AcDbBlockTableRecord
  2
B-66
  0
BLOCK_RECORD
  5
A0C
100
AcDbSymbolTableRecord
100
AcDbBlockTableRecord
  2
B-67
  0
BLOCK_RECORD
  5
A0D
100
AcDbSymbolTableRecord
100
AcDbBlockTableRecord
  2
B-68
  0
BLOCK_RECORD
  5
A0E
100
AcDbSymbolTableRecord
100
AcDbBlockTableRecord
  2
B-69
  0
BLOCK_RECORD
  5
A0F
100
AcDbSymbolTableRecord
100
AcDbBlockTableRecord
  2
B-70
  0
BLOCK_RECORD
  5
A10
100
AcDbSymbolTableRecord
100
AcDbBlockTableRecord
  2
B-71
  0
BLOCK_RECORD
  5
A11
100
AcDbSymbolTableRecord
100
AcDbBlockTableRecord
  2
B-72
  0
BLOCK_RECORD
  5
A12
100
AcDbSymbolTableRecord
100
AcDbBlockTableRecord
  2
B-73
  0
BLOCK_RECORD
  5
A13
100
AcDbSymbolTableRecord
100
AcDbBlockTableRecord
  2
B-74
  0
BLOCK_RECORD
  5
A14
100
AcDbSymbolTableRecord
100
AcDbBlockTableRecord
  2
B-75
  0
BLOCK_RECORD
  5
A15
100
AcDbSymbolTableRecord
100
AcDbBlockTableRecord
  2
B-76
  0
ENDTAB
  0
ENDSEC
  0
SECTION
  2
BLOCKS
  0
BLOCK
  5
204
100
AcDbEntity
  8
0
100
AcDbBlockBegin
  2
*Model_Space
 70
     0
 10
0.000000
 20
0.000000
 30
0.000000
  3
*Model_Space
  1

  0
ENDBLK
  5
205
100
AcDbEntity
  8
0
100
AcDbBlockEnd
  0
BLOCK
  5
206
100
AcDbEntity
 67
     1
  8
0
100
AcDbBlockBegin
  2
*Paper_Space
 70
     0
 10
0.000000
 20
0.000000
 30
0.000000
  3
*Paper_Space
  1

  0
ENDBLK
  5
207
100
AcDbEntity
 67
     1
  8
0
100
AcDbBlockEnd
  0
BLOCK
  5
208
100
AcDbEntity
 67
     1
  8
0
100
AcDbBlockBegin
  2
*Paper_Space0
 70
     0
 10
0.000000
 20
0.000000
 30
0.000000
  3
*Paper_Space0
  1

  0
ENDBLK
  5
209
100
AcDbEntity
 67
     1
  8
0
100
AcDbBlockEnd
  0
BLOCK
  5
20A
100
AcDbEntity
  8
Detail
100
AcDbBlockBegin
  2
B
 70
    66
 10
0.000000
 20
0.000000
 30
0.000000
  0
LWPOLYLINE
  5
20B
100
AcDbEntity
  8
Detail
  6
CONTINUOUS
 62
     6
100
AcDbPolyline
 90
     5
 10
-150.500018
 20
-23.249941
 42
0.000000
 10
-91.500018
 20
-23.249941
 42
0.000000
 10
-91.500018
 20
-25.249941
 42
0.000000
 10
-150.500018
 20
-25.249941
 42
0.000000
 10
-150.500018
 20
-23.249941
 42
0.000000
  0
ENDBLK
  5
211
100
AcDbEntity
  8
0
100
AcDbBlockEnd
  0
BLOCK
  5
212
100
AcDbEntity
  8
SCHRAFF
100
AcDbBlockBegin
  2
B-2
 70
    66
 10
0.000000
 20
0.000000
 30
0.000000
  0
HATCH
  5
213
100
AcDbEntity
  8
SCHRAFF
 62
   254
440
     0
100
AcDbHatch
 10
0.000000
 20
0.000000
 30
0.000000
210
0.000000
220
0.000000
230
1.000000
  2
SOLID
 70
     1
 71
     1
 91
     1
 92
    18
 72
     1
 73
     0
 93
     5
 10
-91.500018
 20
-49.249941
 42
0.000000
 10
-150.500018
 20
-49.249941
 42
0.000000
 10
-150.500018
 20
-51.249941
 42
0.000000
 10
-91.500018
 20
-51.249941
 42
0.000000
 10
-91.500018
 20
-49.249941
 42
0.000000
 97
     0
 75
     0
 76
     1
 98
     0
  0
HATCH
  5
214
100
AcDbEntity
  8
SCHRAFF
 62
   254
440
     0
100
AcDbHatch
 10
0.000000
 20
0.000000
 30
0.000000
210
0.000000
220
0.000000
230
1.000000
  2
SOLID
 70
     1
 71
     1
 91
     1
 92
    18
 72
     1
 73
     0
 93
     5
 10
-150.500018
 20
-25.249941
 42
0.000000
 10
-91.500018
 20
-25.249941
 42
0.000000
 10
-91.500018
 20
-23.249941
 42
0.000000
 10
-150.500018
 20
-23.249941
 42
0.000000
 10
-150.500018
 20
-25.249941
 42
0.000000
 97
     0
 75
     0
 76
     1
 98
     0
  0
HATCH
  5
215
100
AcDbEntity
  8
SCHRAFF
 62
   254
440
     0
100
AcDbHatch
 10
0.000000
 20
0.000000
 30
0.000000
210
0.000000
220
0.000000
230
1.000000
  2
SOLID
 70
     1
 71
     1
 91
     1
 92
    18
 72
     1
 73
     0
 93
     5
 10
-150.500018
 20
-131.249941
 42
0.000000
 10
-150.500018
 20
-23.249941
 42
0.000000
 10
-152.500018
 20
-23.249941
 42
0.000000
 10
-152.500018
 20
-131.249941
 42
0.000000
 10
-150.500018
 20
-131.249941
 42
0.000000
 97
     0
 75
     0
 76
     1
 98
     0
  0
LWPOLYLINE
  5
216
100
AcDbEntity
  8
Detail
  6
CONTINUOUS
 62
     6
100
AcDbPolyline
 90
     5
 10
-150.500018
 20
-51.249941
 42
0.000000
 10
-91.500018
 20
-51.249941
 42
0.000000
 10
-91.500018
 20
-49.249941
 42
0.000000
 10
-150.500018
 20
-49.249941
 42
0.000000
 10
-150.500018
 20
-51.249941
 42
0.000000
  0
LWPOLYLINE
  5
21C
100
AcDbEntity
  8
Detail
  6
CONTINUOUS
 62
     6
100
AcDbPolyline
 90
     5
 10
-150.500018
 20
-131.249941
 42
0.000000
 10
-152.500018
 20
-131.249941
 42
0.000000
 10
-152.500018
 20
-23.249941
 42
0.000000
 10
-150.500018
 20
-23.249941
 42
0.000000
 10
-150.500018
 20
-131.249941
 42
0.000000
  0
ENDBLK
  5
222
100
AcDbEntity
  8
0
100
AcDbBlockEnd
  0
BLOCK
  5
223
100
AcDbEntity
  8
SCHRAFF
100
AcDbBlockBegin
  2
B-3
 70
    66
 10
0.000000
 20
0.000000
 30
0.000000
  0
IMAGE
  5
224
100
AcDbEntity
  8
SCHRAFF
100
AcDbRasterImage
 10
140.969928
 20
-349.249941
 30
0.000000
 11
0.204938
 21
-0.000000
 31
0.000000
 12
-0.000000
 22
0.204938
 32
-0.000000
 13
395.000000
 23
405.000000
340
225
 70
     7
280
     0
281
    50
282
    50
283
     0
360
226
 71
     1
 91
     2
 14
-0.500000
 24
-0.500000
 14
394.500000
 24
404.500000
  0
ENDBLK
  5
227
100
AcDbEntity
  8
0
100
AcDbBlockEnd
  0
BLOCK
  5
228
100
AcDbEntity
  8
SCHRAFF
100
AcDbBlockBegin
  2
B-4
 70
    66
 10
0.000000
 20
0.000000
 30
0.000000
  0
HATCH
  5
229
100
AcDbEntity
  8
SCHRAFF
 62
    21
440
     0
100
AcDbHatch
 10
0.000000
 20
0.000000
 30
0.000000
210
0.000000
220
0.000000
230
1.000000
  2
SOLID
 70
     1
 71
     1
 91
     1
 92
    18
 72
     1
 73
     0
 93
   331
 10
-61.500018
 20
-30.749941
 42
0.000000
 10
-61.500018
 20
-29.760137
 42
0.000000
 10
-62.000018
 20
-28.749941
 42
0.000000
 10
-61.500018
 20
-27.749941
 42
0.000000
 10
-61.500018
 20
-26.749941
 42
0.000000
 10
-61.000018
 20
-25.749941
 42
0.000000
 10
-61.500018
 20
-24.749941
 42
0.000000
 10
-61.500018
 20
-23.749941
 42
0.000000
 10
-62.000018
 20
-22.749941
 42
0.000000
 10
-61.500018
 20
-21.749941
 42
0.000000
 10
-61.500018
 20
-20.749941
 42
0.000000
 10
-61.007096
 20
-19.764098
 42
0.000000
 10
-61.500018
 20
-18.749941
 42
0.000000
 10
-61.500018
 20
-17.749941
 42
0.000000
 10
-62.000018
 20
-16.749941
 42
0.000000
 10
-61.500018
 20
-15.749941
 42
0.000000
 10
-61.500018
 20
-14.749941
 42
0.000000
 10
-61.000018
 20
-13.749941
 42
0.000000
 10
-61.500018
 20
-12.749941
 42
0.000000
 10
-61.500018
 20
-11.749941
 42
0.000000
 10
-62.000018
 20
-10.749941
 42
0.000000
 10
-61.500018
 20
-9.749941
 42
0.000000
 10
-61.500018
 20
-8.749941
 42
0.000000
 10
-61.000018
 20
-7.749941
 42
0.000000
 10
-61.500018
 20
-6.749941
 42
0.000000
 10
-61.500018
 20
-5.749941
 42
0.000000
 10
-62.000018
 20
-4.749941
 42
0.000000
 10
-61.500018
 20
-3.749941
 42
0.000000
 10
-61.500018
 20
-2.749941
 42
0.000000
 10
-61.000018
 20
-1.749941
 42
0.000000
 10
-61.500018
 20
-0.749941
 42
0.000000
 10
-61.500018
 20
0.250059
 42
0.000000
 10
-62.000018
 20
1.250059
 42
0.000000
 10
-61.500018
 20
2.250059
 42
0.000000
 10
-61.500018
 20
3.242392
 42
0.000000
 10
-61.000018
 20
4.250059
 42
0.000000
 10
-61.500018
 20
5.250059
 42
0.000000
 10
-61.500018
 20
6.250059
 42
0.000000
 10
-62.000018
 20
7.250059
 42
0.000000
 10
-61.500018
 20
8.250059
 42
0.000000
 10
-61.500018
 20
9.250059
 42
0.000000
 10
-61.000018
 20
10.250059
 42
0.000000
 10
-61.500018
 20
11.250059
 42
0.000000
 10
-61.500018
 20
12.250059
 42
0.000000
 10
-62.000018
 20
13.250059
 42
0.000000
 10
-61.500018
 20
14.250059
 42
0.000000
 10
-61.500018
 20
15.250059
 42
0.000000
 10
-61.000018
 20
16.250059
 42
0.000000
 10
-61.500018
 20
17.250059
 42
0.000000
 10
-61.500018
 20
18.250059
 42
0.000000
 10
-62.000018
 20
19.250059
 42
0.000000
 10
-61.500018
 20
20.250059
 42
0.000000
 10
-61.500018
 20
21.250059
 42
0.000000
 10
-61.000018
 20
22.250059
 42
0.000000
 10
-61.500018
 20
23.250059
 42
0.000000
 10
-61.500018
 20
24.250059
 42
0.000000
 10
-62.000018
 20
25.250059
 42
0.000000
 10
-61.500018
 20
26.250059
 42
0.000000
 10
-61.500018
 20
27.250059
 42
0.000000
 10
-61.000018
 20
28.250059
 42
0.000000
 10
-61.500018
 20
29.250059
 42
0.000000
 10
-61.500018
 20
30.250059
 42
0.000000
 10
-62.000018
 20
31.250059
 42
0.000000
 10
-61.500018
 20
32.250059
 42
0.000000
 10
-61.500018
 20
33.250059
 42
0.000000
 10
-61.000018
 20
34.250059
 42
0.000000
 10
-61.500018
 20
35.250059
 42
0.000000
 10
-61.500018
 20
36.250059
 42
0.000000
 10
-62.000018
 20
37.250059
 42
0.000000
 10
-61.500018
 20
38.250059
 42
0.000000
 10
-61.500018
 20
39.250059
 42
0.000000
 10
-61.000018
 20
40.250059
 42
0.000000
 10
-61.500018
 20
41.250059
 42
0.000000
 10
-61.500018
 20
42.250059
 42
0.000000
 10
-62.000018
 20
43.250059
 42
0.000000
 10
-61.500018
 20
44.250059
 42
0.000000
 10
-61.500018
 20
45.250059
 42
0.000000
 10
-61.000018
 20
46.250059
 42
0.000000
 10
-61.500018
 20
47.250059
 42
0.000000
 10
-61.500018
 20
48.250059
 42
0.000000
 10
-62.000018
 20
49.250059
 42
0.000000
 10
-61.500018
 20
50.250059
 42
0.000000
 10
-61.500018
 20
51.250059
 42
0.000000
 10
-61.000018
 20
52.250059
 42
0.000000
 10
-61.500018
 20
53.250059
 42
0.000000
 10
-61.500018
 20
54.250059
 42
0.000000
 10
-62.000018
 20
55.250059
 42
0.000000
 10
-61.500018
 20
56.250059
 42
0.000000
 10
-61.500018
 20
57.250059
 42
0.000000
 10
-61.000018
 20
58.250059
 42
0.000000
 10
-61.500018
 20
59.250059
 42
0.000000
 10
-61.500018
 20
60.250059
 42
0.000000
 10
-62.000018
 20
61.250059
 42
0.000000
 10
-61.500018
 20
62.250059
 42
0.000000
 10
-61.500018
 20
63.250059
 42
0.000000
 10
-61.000018
 20
64.250059
 42
0.000000
 10
-61.500018
 20
65.250059
 42
0.000000
 10
-61.500018
 20
66.250059
 42
0.000000
 10
-62.000018
 20
67.250059
 42
0.000000
 10
-61.500018
 20
68.250059
 42
0.000000
 10
-61.500018
 20
69.250059
 42
0.000000
 10
-61.000018
 20
70.250059
 42
0.000000
 10
-61.500018
 20
71.250059
 42
0.000000
 10
-61.500018
 20
72.250059
 42
0.000000
 10
-62.000018
 20
73.250059
 42
0.000000
 10
-61.500018
 20
74.250059
 42
0.000000
 10
-61.500018
 20
75.250059
 42
0.000000
 10
-61.000018
 20
76.250059
 42
0.000000
 10
-61.500018
 20
77.250059
 42
0.000000
 10
-61.500018
 20
78.250059
 42
0.000000
 10
-62.000018
 20
79.250059
 42
0.000000
 10
-61.500018
 20
80.250059
 42
0.000000
 10
-61.500018
 20
81.250059
 42
0.000000
 10
-61.000018
 20
82.250059
 42
0.000000
 10
-61.500018
 20
83.250059
 42
0.000000
 10
-61.500018
 20
84.250059
 42
0.000000
 10
-62.000018
 20
85.250059
 42
0.000000
 10
-61.500018
 20
86.250059
 42
0.000000
 10
-61.500018
 20
87.250059
 42
0.000000
 10
-61.000018
 20
88.250059
 42
0.000000
 10
-61.500018
 20
89.250059
 42
0.000000
 10
-61.500018
 20
90.250059
 42
0.000000
 10
-62.000018
 20
91.250059
 42
0.000000
 10
-61.500018
 20
92.250059
 42
0.000000
 10
-61.500018
 20
93.250059
 42
0.000000
 10
-61.000018
 20
94.250059
 42
0.000000
 10
-61.500018
 20
95.250059
 42
0.000000
 10
-61.500018
 20
96.250059
 42
0.000000
 10
-62.000018
 20
97.250059
 42
0.000000
 10
-61.500018
 20
98.250059
 42
0.000000
 10
-61.500018
 20
99.250059
 42
0.000000
 10
-61.000018
 20
100.250059
 42
0.000000
 10
-61.500018
 20
101.250059
 42
0.000000
 10
-61.500018
 20
102.250059
 42
0.000000
 10
-62.000018
 20
103.250059
 42
0.000000
 10
-61.500018
 20
104.250059
 42
0.000000
 10
-61.500018
 20
105.250059
 42
0.000000
 10
-61.000018
 20
106.250059
 42
0.000000
 10
-61.500018
 20
107.250059
 42
0.000000
 10
-61.500018
 20
108.250059
 42
0.000000
 10
-62.000018
 20
109.250059
 42
0.000000
 10
-61.500018
 20
110.250059
 42
0.000000
 10
-61.500018
 20
111.250059
 42
0.000000
 10
-61.000018
 20
112.250059
 42
0.000000
 10
-61.500018
 20
113.250059
 42
0.000000
 10
-61.500018
 20
114.250059
 42
0.000000
 10
-62.000018
 20
115.250059
 42
0.000000
 10
-61.500018
 20
116.250059
 42
0.000000
 10
-61.500018
 20
117.250059
 42
0.000000
 10
-61.000018
 20
118.250059
 42
0.000000
 10
-61.500018
 20
119.250059
 42
0.000000
 10
-61.500018
 20
120.250059
 42
0.000000
 10
-62.000018
 20
121.250059
 42
0.000000
 10
-61.500018
 20
122.250059
 42
0.000000
 10
-61.500018
 20
123.250059
 42
0.000000
 10
-61.000018
 20
124.250059
 42
0.000000
 10
-61.500018
 20
125.250059
 42
0.000000
 10
-61.500018
 20
126.250059
 42
0.000000
 10
-62.000018
 20
127.250059
 42
0.000000
 10
-61.500018
 20
128.250059
 42
0.000000
 10
-61.500018
 20
129.250059
 42
0.000000
 10
-61.000018
 20
130.250059
 42
0.000000
 10
-61.500018
 20
131.250059
 42
0.000000
 10
-61.500018
 20
132.250059
 42
0.000000
 10
-62.000018
 20
133.250059
 42
0.000000
 10
-61.500018
 20
134.250059
 42
0.000000
 10
-61.500018
 20
135.250059
 42
0.000000
 10
-61.000018
 20
136.250059
 42
0.000000
 10
-61.500018
 20
137.250059
 42
0.000000
 10
-61.500018
 20
138.250059
 42
0.000000
 10
-62.000018
 20
139.250059
 42
0.000000
 10
-61.500018
 20
140.250059
 42
0.000000
 10
-61.500018
 20
141.242392
 42
0.000000
 10
-61.000018
 20
142.250059
 42
0.000000
 10
-61.500018
 20
143.250059
 42
0.000000
 10
-61.500018
 20
144.250059
 42
0.000000
 10
-62.000018
 20
145.250059
 42
0.000000
 10
-61.500018
 20
146.250059
 42
0.000000
 10
-61.500018
 20
147.250059
 42
0.000000
 10
-61.000018
 20
148.250059
 42
0.000000
 10
-61.500018
 20
149.250059
 42
0.000000
 10
-61.500018
 20
150.250059
 42
0.000000
 10
-62.000018
 20
151.250059
 42
0.000000
 10
-61.500018
 20
152.250059
 42
0.000000
 10
-61.500018
 20
153.250059
 42
0.000000
 10
-61.000018
 20
154.250059
 42
0.000000
 10
-61.500018
 20
155.250059
 42
0.000000
 10
-61.500018
 20
156.250059
 42
0.000000
 10
-62.000018
 20
157.250059
 42
0.000000
 10
-61.500018
 20
158.250059
 42
0.000000
 10
-61.500018
 20
159.250059
 42
0.000000
 10
-61.000018
 20
160.250059
 42
0.000000
 10
-61.500018
 20
161.250059
 42
0.000000
 10
-61.500018
 20
162.250059
 42
0.000000
 10
-62.000018
 20
163.250059
 42
0.000000
 10
-61.500018
 20
164.250059
 42
0.000000
 10
-61.500018
 20
165.250059
 42
0.000000
 10
-61.000018
 20
166.250059
 42
0.000000
 10
-61.500018
 20
167.250059
 42
0.000000
 10
-61.500018
 20
168.250059
 42
0.000000
 10
-62.000018
 20
169.250059
 42
0.000000
 10
-61.500018
 20
170.250059
 42
0.000000
 10
-61.500018
 20
171.250059
 42
0.000000
 10
-61.000018
 20
172.250059
 42
0.000000
 10
-61.495620
 20
173.241263
 42
0.000000
 10
-61.500018
 20
174.250059
 42
0.000000
 10
-62.000018
 20
175.250059
 42
0.000000
 10
-61.500018
 20
176.250059
 42
0.000000
 10
-61.500018
 20
177.250059
 42
0.000000
 10
-61.000018
 20
178.250059
 42
0.000000
 10
-61.500018
 20
179.250059
 42
0.000000
 10
-61.500018
 20
180.250059
 42
0.000000
 10
-62.000018
 20
181.250059
 42
0.000000
 10
-61.500018
 20
182.250059
 42
0.000000
 10
-61.500018
 20
183.250059
 42
0.000000
 10
-61.000018
 20
184.250059
 42
0.000000
 10
-61.500018
 20
185.250059
 42
0.000000
 10
-61.500018
 20
186.250059
 42
0.000000
 10
-62.000018
 20
187.250059
 42
0.000000
 10
-61.500018
 20
188.250059
 42
0.000000
 10
-61.500018
 20
189.250059
 42
0.000000
 10
-61.000018
 20
190.250059
 42
0.000000
 10
-61.500018
 20
191.250059
 42
0.000000
 10
-61.500018
 20
192.250059
 42
0.000000
 10
-62.000018
 20
193.250059
 42
0.000000
 10
-61.500018
 20
194.250059
 42
0.000000
 10
-61.500018
 20
195.250059
 42
0.000000
 10
-61.000018
 20
196.250059
 42
0.000000
 10
-61.500018
 20
197.250059
 42
0.000000
 10
-61.500018
 20
198.250059
 42
0.000000
 10
-62.000018
 20
199.250059
 42
0.000000
 10
-61.500018
 20
200.250059
 42
0.000000
 10
-61.500018
 20
201.250059
 42
0.000000
 10
-61.000018
 20
202.250059
 42
0.000000
 10
-61.500018
 20
203.250059
 42
0.000000
 10
-61.500018
 20
204.250059
 42
0.000000
 10
-62.000018
 20
205.250059
 42
0.000000
 10
-61.500018
 20
206.250059
 42
0.000000
 10
-61.500018
 20
207.250059
 42
0.000000
 10
-61.000018
 20
208.250059
 42
0.000000
 10
-61.500018
 20
209.250059
 42
0.000000
 10
-61.500018
 20
210.250059
 42
0.000000
 10
-62.000018
 20
211.250059
 42
0.000000
 10
-61.500018
 20
212.250059
 42
0.000000
 10
-61.500018
 20
213.250059
 42
0.000000
 10
-61.000018
 20
214.250059
 42
0.000000
 10
-61.500018
 20
215.250059
 42
0.000000
 10
-61.500018
 20
216.250059
 42
0.000000
 10
-62.000018
 20
217.250059
 42
0.000000
 10
-61.500018
 20
218.250059
 42
0.000000
 10
-61.500018
 20
219.250059
 42
0.000000
 10
-61.000018
 20
220.250059
 42
0.000000
 10
-61.500018
 20
221.250059
 42
0.000000
 10
-61.500018
 20
222.250059
 42
0.000000
 10
-62.000018
 20
223.250059
 42
0.000000
 10
-61.500018
 20
224.250059
 42
0.000000
 10
-61.500018
 20
225.250059
 42
0.000000
 10
-61.000018
 20
226.250059
 42
0.000000
 10
-61.500018
 20
227.250059
 42
0.000000
 10
-61.500018
 20
228.250059
 42
0.000000
 10
-62.000018
 20
229.250059
 42
0.000000
 10
-61.500018
 20
230.250059
 42
0.000000
 10
-61.500018
 20
231.250059
 42
0.000000
 10
-61.000018
 20
232.250059
 42
0.000000
 10
-61.500018
 20
233.250059
 42
0.000000
 10
-61.500018
 20
234.250059
 42
0.000000
 10
-62.000018
 20
235.250059
 42
0.000000
 10
-61.500018
 20
236.250059
 42
0.000000
 10
-61.500018
 20
237.250059
 42
0.000000
 10
-61.000018
 20
238.250059
 42
0.000000
 10
-61.500018
 20
239.250059
 42
0.000000
 10
-61.500018
 20
240.250059
 42
0.000000
 10
-62.000018
 20
241.250059
 42
0.000000
 10
-61.500018
 20
242.250059
 42
0.000000
 10
-61.500018
 20
243.250059
 42
0.000000
 10
-61.000018
 20
244.250059
 42
0.000000
 10
-61.500018
 20
245.250059
 42
0.000000
 10
-61.500018
 20
246.250059
 42
0.000000
 10
-62.000018
 20
247.250059
 42
0.000000
 10
-61.500018
 20
248.250059
 42
0.000000
 10
-61.500018
 20
249.242392
 42
0.000000
 10
-61.000018
 20
250.250059
 42
0.000000
 10
-61.500018
 20
251.250059
 42
0.000000
 10
-61.500018
 20
252.250059
 42
0.000000
 10
-62.000018
 20
253.250059
 42
0.000000
 10
-61.500018
 20
254.250059
 42
0.000000
 10
-61.500018
 20
255.250059
 42
0.000000
 10
-61.000018
 20
256.250059
 42
0.000000
 10
-61.500018
 20
257.250059
 42
0.000000
 10
-61.500018
 20
258.250059
 42
0.000000
 10
-62.000018
 20
259.250059
 42
0.000000
 10
-61.500018
 20
260.250059
 42
0.000000
 10
-61.500018
 20
261.250059
 42
0.000000
 10
-61.000018
 20
262.250059
 42
0.000000
 10
-61.500018
 20
263.250059
 42
0.000000
 10
-61.500018
 20
264.250059
 42
0.000000
 10
-62.000018
 20
265.250059
 42
0.000000
 10
-61.500018
 20
266.250059
 42
0.000000
 10
-61.500018
 20
267.250059
 42
0.000000
 10
-61.000018
 20
268.250059
 42
0.000000
 10
-61.500018
 20
269.250059
 42
0.000000
 10
-61.500018
 20
270.250059
 42
0.000000
 10
-62.000018
 20
271.250059
 42
0.000000
 10
-61.500018
 20
272.250059
 42
0.000000
 10
-61.500018
 20
273.250059
 42
0.000000
 10
-61.000018
 20
274.250059
 42
0.000000
 10
-61.500018
 20
275.250059
 42
0.000000
 10
-61.500018
 20
276.250059
 42
0.000000
 10
-62.000018
 20
277.250059
 42
0.000000
 10
-61.500018
 20
278.250059
 42
0.000000
 10
-61.500018
 20
279.250059
 42
0.000000
 10
-61.000018
 20
280.250059
 42
0.000000
 10
-61.500018
 20
281.250059
 42
0.000000
 10
-61.500018
 20
282.250059
 42
0.000000
 10
-62.000018
 20
283.250059
 42
0.000000
 10
-61.500018
 20
284.250059
 42
0.000000
 10
-61.500018
 20
285.242392
 42
0.000000
 10
-61.000018
 20
286.250059
 42
0.000000
 10
-61.500018
 20
287.250059
 42
0.000000
 10
-61.500018
 20
288.250059
 42
0.000000
 10
-62.000018
 20
289.250059
 42
0.000000
 10
-61.500018
 20
290.250059
 42
0.000000
 10
-61.500018
 20
291.250059
 42
0.000000
 10
-61.000018
 20
292.250059
 42
0.000000
 10
-61.500018
 20
293.250059
 42
0.000000
 10
-61.500018
 20
294.250059
 42
0.000000
 10
-62.000018
 20
295.250059
 42
0.000000
 10
-61.500018
 20
296.250059
 42
0.000000
 10
-63.500018
 20
296.250078
 42
0.000000
 10
-63.500018
 20
-32.249941
 42
0.000000
 10
-61.500018
 20
-30.749941
 42
0.000000
 97
     0
 75
     0
 76
     1
 98
     0
  0
ENDBLK
  5
22A
100
AcDbEntity
  8
0
100
AcDbBlockEnd
  0
BLOCK
  5
22B
100
AcDbEntity
  8
SCHRAFF
100
AcDbBlockBegin
  2
B-5
 70
    66
 10
0.000000
 20
0.000000
 30
0.000000
  0
HATCH
  5
22C
100
AcDbEntity
  8
SCHRAFF
 62
    21
440
     0
100
AcDbHatch
 10
0.000000
 20
0.000000
 30
0.000000
210
0.000000
220
0.000000
230
1.000000
  2
SOLID
 70
     1
 71
     1
 91
     1
 92
    18
 72
     1
 73
     0
 93
   276
 10
-20.000018
 20
-45.249941
 42
0.000000
 10
-21.000018
 20
-45.749941
 42
0.000000
 10
-22.000018
 20
-45.249941
 42
0.000000
 10
-23.000018
 20
-45.249941
 42
0.000000
 10
-24.000018
 20
-44.749941
 42
0.000000
 10
-25.007685
 20
-45.249941
 42
0.000000
 10
-26.000018
 20
-45.249941
 42
0.000000
 10
-27.000018
 20
-45.749941
 42
0.000000
 10
-28.000018
 20
-45.249941
 42
0.000000
 10
-29.000018
 20
-45.249941
 42
0.000000
 10
-30.000018
 20
-44.749941
 42
0.000000
 10
-31.000018
 20
-45.249941
 42
0.000000
 10
-32.000018
 20
-45.249941
 42
0.000000
 10
-33.000018
 20
-45.749941
 42
0.000000
 10
-34.000018
 20
-45.249941
 42
0.000000
 10
-35.000018
 20
-45.249941
 42
0.000000
 10
-36.000018
 20
-44.749941
 42
0.000000
 10
-37.000018
 20
-45.249941
 42
0.000000
 10
-38.000018
 20
-45.249941
 42
0.000000
 10
-39.000018
 20
-45.749941
 42
0.000000
 10
-40.000018
 20
-45.249941
 42
0.000000
 10
-41.000018
 20
-45.249941
 42
0.000000
 10
-42.000018
 20
-44.749941
 42
0.000000
 10
-43.000018
 20
-45.249941
 42
0.000000
 10
-44.000018
 20
-45.249941
 42
0.000000
 10
-45.000018
 20
-45.749941
 42
0.000000
 10
-46.000018
 20
-45.249941
 42
0.000000
 10
-47.000018
 20
-45.249941
 42
0.000000
 10
-48.000018
 20
-44.749941
 42
0.000000
 10
-49.007685
 20
-45.249941
 42
0.000000
 10
-50.000018
 20
-45.249941
 42
0.000000
 10
-51.000018
 20
-45.749941
 42
0.000000
 10
-52.000018
 20
-45.249941
 42
0.000000
 10
-53.000018
 20
-45.249941
 42
0.000000
 10
-54.000018
 20
-44.749941
 42
0.000000
 10
-55.000018
 20
-45.249941
 42
0.000000
 10
-56.000018
 20
-45.249941
 42
0.000000
 10
-57.000018
 20
-45.749941
 42
0.000000
 10
-58.000018
 20
-45.249941
 42
0.000000
 10
-59.000018
 20
-45.249941
 42
0.000000
 10
-61.500018
 20
-47.249941
 42
0.000000
 10
212.500023
 20
-47.249941
 42
0.000000
 10
212.500023
 20
-45.499962
 42
0.000000
 10
211.999982
 20
-45.249941
 42
0.000000
 10
210.999982
 20
-45.249941
 42
0.000000
 10
209.999982
 20
-44.749941
 42
0.000000
 10
208.999982
 20
-45.249941
 42
0.000000
 10
207.999982
 20
-45.249941
 42
0.000000
 10
206.999982
 20
-45.749941
 42
0.000000
 10
205.999982
 20
-45.249941
 42
0.000000
 10
204.999982
 20
-45.249941
 42
0.000000
 10
203.999982
 20
-44.749941
 42
0.000000
 10
202.999982
 20
-45.249941
 42
0.000000
 10
201.999982
 20
-45.249941
 42
0.000000
 10
200.999982
 20
-45.749941
 42
0.000000
 10
199.999982
 20
-45.249941
 42
0.000000
 10
198.999982
 20
-45.249941
 42
0.000000
 10
197.999982
 20
-44.749941
 42
0.000000
 10
196.999982
 20
-45.249941
 42
0.000000
 10
195.999982
 20
-45.249941
 42
0.000000
 10
194.999982
 20
-45.749941
 42
0.000000
 10
193.999982
 20
-45.249941
 42
0.000000
 10
192.999982
 20
-45.249941
 42
0.000000
 10
191.999982
 20
-44.749941
 42
0.000000
 10
190.999982
 20
-45.249941
 42
0.000000
 10
189.999982
 20
-45.249941
 42
0.000000
 10
188.999982
 20
-45.749941
 42
0.000000
 10
187.999982
 20
-45.249941
 42
0.000000
 10
186.999982
 20
-45.249941
 42
0.000000
 10
185.999982
 20
-44.749941
 42
0.000000
 10
184.999982
 20
-45.249941
 42
0.000000
 10
183.999982
 20
-45.249941
 42
0.000000
 10
182.999982
 20
-45.749941
 42
0.000000
 10
181.999982
 20
-45.249941
 42
0.000000
 10
180.999982
 20
-45.249941
 42
0.000000
 10
179.999982
 20
-44.749941
 42
0.000000
 10
178.999982
 20
-45.249941
 42
0.000000
 10
177.999982
 20
-45.249941
 42
0.000000
 10
176.999982
 20
-45.749941
 42
0.000000
 10
175.999982
 20
-45.249941
 42
0.000000
 10
174.999982
 20
-45.249941
 42
0.000000
 10
173.999982
 20
-44.749941
 42
0.000000
 10
172.999982
 20
-45.249941
 42
0.000000
 10
171.999982
 20
-45.249941
 42
0.000000
 10
170.999982
 20
-45.749941
 42
0.000000
 10
169.999982
 20
-45.249941
 42
0.000000
 10
168.999982
 20
-45.249941
 42
0.000000
 10
167.999982
 20
-44.749941
 42
0.000000
 10
166.999982
 20
-45.249941
 42
0.000000
 10
165.999982
 20
-45.249941
 42
0.000000
 10
164.999982
 20
-45.749941
 42
0.000000
 10
163.999982
 20
-45.249941
 42
0.000000
 10
162.999982
 20
-45.249941
 42
0.000000
 10
161.999982
 20
-44.749941
 42
0.000000
 10
160.999982
 20
-45.249941
 42
0.000000
 10
159.999982
 20
-45.249941
 42
0.000000
 10
158.999982
 20
-45.749941
 42
0.000000
 10
157.999982
 20
-45.249941
 42
0.000000
 10
156.999982
 20
-45.249941
 42
0.000000
 10
155.999982
 20
-44.749941
 42
0.000000
 10
154.999982
 20
-45.249941
 42
0.000000
 10
153.999982
 20
-45.249941
 42
0.000000
 10
152.999982
 20
-45.749941
 42
0.000000
 10
151.999982
 20
-45.249941
 42
0.000000
 10
150.999982
 20
-45.249941
 42
0.000000
 10
149.999982
 20
-44.749941
 42
0.000000
 10
148.999982
 20
-45.249941
 42
0.000000
 10
147.999982
 20
-45.249941
 42
0.000000
 10
146.999982
 20
-45.749941
 42
0.000000
 10
145.999982
 20
-45.249941
 42
0.000000
 10
144.991186
 20
-45.245543
 42
0.000000
 10
143.999982
 20
-44.749941
 42
0.000000
 10
142.999982
 20
-45.249941
 42
0.000000
 10
141.999982
 20
-45.249941
 42
0.000000
 10
140.999982
 20
-45.749941
 42
0.000000
 10
139.999982
 20
-45.249941
 42
0.000000
 10
138.999982
 20
-45.249941
 42
0.000000
 10
137.999982
 20
-44.749941
 42
0.000000
 10
136.999982
 20
-45.249941
 42
0.000000
 10
135.999982
 20
-45.249941
 42
0.000000
 10
134.999982
 20
-45.749941
 42
0.000000
 10
133.999982
 20
-45.249941
 42
0.000000
 10
132.999982
 20
-45.249941
 42
0.000000
 10
131.999982
 20
-44.749941
 42
0.000000
 10
130.999982
 20
-45.249941
 42
0.000000
 10
129.999982
 20
-45.249941
 42
0.000000
 10
128.999982
 20
-45.749941
 42
0.000000
 10
127.999982
 20
-45.249941
 42
0.000000
 10
126.999982
 20
-45.249941
 42
0.000000
 10
125.999982
 20
-44.749941
 42
0.000000
 10
124.999982
 20
-45.249941
 42
0.000000
 10
123.999982
 20
-45.249941
 42
0.000000
 10
122.999982
 20
-45.749941
 42
0.000000
 10
121.999982
 20
-45.249941
 42
0.000000
 10
120.999982
 20
-45.249941
 42
0.000000
 10
119.999982
 20
-44.749941
 42
0.000000
 10
118.999982
 20
-45.249941
 42
0.000000
 10
117.999982
 20
-45.249941
 42
0.000000
 10
116.999982
 20
-45.749941
 42
0.000000
 10
115.999982
 20
-45.249941
 42
0.000000
 10
114.999982
 20
-45.249941
 42
0.000000
 10
113.999982
 20
-44.749941
 42
0.000000
 10
112.992315
 20
-45.249941
 42
0.000000
 10
111.999982
 20
-45.249941
 42
0.000000
 10
110.999982
 20
-45.749941
 42
0.000000
 10
109.999982
 20
-45.249941
 42
0.000000
 10
108.999982
 20
-45.249941
 42
0.000000
 10
107.999982
 20
-44.749941
 42
0.000000
 10
106.999982
 20
-45.249941
 42
0.000000
 10
105.999982
 20
-45.249941
 42
0.000000
 10
104.999982
 20
-45.749941
 42
0.000000
 10
103.999982
 20
-45.249941
 42
0.000000
 10
102.999982
 20
-45.249941
 42
0.000000
 10
101.999982
 20
-44.749941
 42
0.000000
 10
100.999982
 20
-45.249941
 42
0.000000
 10
99.999982
 20
-45.249941
 42
0.000000
 10
98.999982
 20
-45.749941
 42
0.000000
 10
97.999982
 20
-45.249941
 42
0.000000
 10
96.999982
 20
-45.249941
 42
0.000000
 10
95.999982
 20
-44.749941
 42
0.000000
 10
94.999982
 20
-45.249941
 42
0.000000
 10
93.999982
 20
-45.249941
 42
0.000000
 10
92.999982
 20
-45.749941
 42
0.000000
 10
91.999982
 20
-45.249941
 42
0.000000
 10
90.999982
 20
-45.249941
 42
0.000000
 10
89.999982
 20
-44.749941
 42
0.000000
 10
88.999982
 20
-45.249941
 42
0.000000
 10
87.999982
 20
-45.249941
 42
0.000000
 10
86.999982
 20
-45.749941
 42
0.000000
 10
85.999982
 20
-45.249941
 42
0.000000
 10
84.999982
 20
-45.249941
 42
0.000000
 10
83.999982
 20
-44.749941
 42
0.000000
 10
82.999982
 20
-45.249941
 42
0.000000
 10
81.999982
 20
-45.249941
 42
0.000000
 10
80.999982
 20
-45.749941
 42
0.000000
 10
79.999982
 20
-45.249941
 42
0.000000
 10
78.999982
 20
-45.249941
 42
0.000000
 10
77.999982
 20
-44.749941
 42
0.000000
 10
76.999982
 20
-45.249941
 42
0.000000
 10
75.999982
 20
-45.249941
 42
0.000000
 10
74.999982
 20
-45.749941
 42
0.000000
 10
73.999982
 20
-45.249941
 42
0.000000
 10
72.999982
 20
-45.249941
 42
0.000000
 10
71.999982
 20
-44.749941
 42
0.000000
 10
70.999982
 20
-45.249941
 42
0.000000
 10
69.999982
 20
-45.249941
 42
0.000000
 10
68.999982
 20
-45.749941
 42
0.000000
 10
67.999982
 20
-45.249941
 42
0.000000
 10
66.999982
 20
-45.249941
 42
0.000000
 10
65.999982
 20
-44.749941
 42
0.000000
 10
64.999982
 20
-45.249941
 42
0.000000
 10
63.999982
 20
-45.249941
 42
0.000000
 10
62.999982
 20
-45.749941
 42
0.000000
 10
61.999982
 20
-45.249941
 42
0.000000
 10
60.999982
 20
-45.249941
 42
0.000000
 10
59.999982
 20
-44.749941
 42
0.000000
 10
58.999982
 20
-45.249941
 42
0.000000
 10
57.999982
 20
-45.249941
 42
0.000000
 10
56.999982
 20
-45.749941
 42
0.000000
 10
55.999982
 20
-45.249941
 42
0.000000
 10
54.999982
 20
-45.249941
 42
0.000000
 10
53.999982
 20
-44.749941
 42
0.000000
 10
52.999982
 20
-45.249941
 42
0.000000
 10
51.999982
 20
-45.249941
 42
0.000000
 10
50.999982
 20
-45.749941
 42
0.000000
 10
49.999982
 20
-45.249941
 42
0.000000
 10
48.999982
 20
-45.249941
 42
0.000000
 10
47.999982
 20
-44.749941
 42
0.000000
 10
46.999982
 20
-45.249941
 42
0.000000
 10
45.999982
 20
-45.249941
 42
0.000000
 10
44.999982
 20
-45.749941
 42
0.000000
 10
43.999982
 20
-45.249941
 42
0.000000
 10
42.999982
 20
-45.249941
 42
0.000000
 10
41.999982
 20
-44.749941
 42
0.000000
 10
40.999982
 20
-45.249941
 42
0.000000
 10
39.999982
 20
-45.249941
 42
0.000000
 10
38.999982
 20
-45.749941
 42
0.000000
 10
37.999982
 20
-45.249941
 42
0.000000
 10
36.999982
 20
-45.249941
 42
0.000000
 10
35.999982
 20
-44.749941
 42
0.000000
 10
34.999982
 20
-45.249941
 42
0.000000
 10
33.999982
 20
-45.249941
 42
0.000000
 10
32.999982
 20
-45.749941
 42
0.000000
 10
31.999982
 20
-45.249941
 42
0.000000
 10
30.999982
 20
-45.249941
 42
0.000000
 10
29.999982
 20
-44.749941
 42
0.000000
 10
28.999982
 20
-45.249941
 42
0.000000
 10
27.999982
 20
-45.249941
 42
0.000000
 10
26.999982
 20
-45.749941
 42
0.000000
 10
25.999982
 20
-45.249941
 42
0.000000
 10
24.999982
 20
-45.249941
 42
0.000000
 10
23.999982
 20
-44.749941
 42
0.000000
 10
22.999982
 20
-45.249941
 42
0.000000
 10
21.999982
 20
-45.249941
 42
0.000000
 10
20.999982
 20
-45.749941
 42
0.000000
 10
19.999982
 20
-45.249941
 42
0.000000
 10
18.999982
 20
-45.249941
 42
0.000000
 10
17.999982
 20
-44.749941
 42
0.000000
 10
16.999982
 20
-45.249941
 42
0.000000
 10
15.999982
 20
-45.249941
 42
0.000000
 10
14.999982
 20
-45.749941
 42
0.000000
 10
13.999982
 20
-45.249941
 42
0.000000
 10
12.999982
 20
-45.249941
 42
0.000000
 10
11.999982
 20
-44.749941
 42
0.000000
 10
10.999982
 20
-45.249941
 42
0.000000
 10
9.999982
 20
-45.249941
 42
0.000000
 10
8.999982
 20
-45.749941
 42
0.000000
 10
7.999982
 20
-45.249941
 42
0.000000
 10
6.999982
 20
-45.249941
 42
0.000000
 10
5.999982
 20
-44.749941
 42
0.000000
 10
4.999982
 20
-45.249941
 42
0.000000
 10
3.999982
 20
-45.249941
 42
0.000000
 10
2.999982
 20
-45.749941
 42
0.000000
 10
1.999982
 20
-45.249941
 42
0.000000
 10
0.999982
 20
-45.249941
 42
0.000000
 10
-0.000018
 20
-44.749941
 42
0.000000
 10
-1.000018
 20
-45.249941
 42
0.000000
 10
-2.000018
 20
-45.249941
 42
0.000000
 10
-3.000018
 20
-45.749941
 42
0.000000
 10
-4.000018
 20
-45.249941
 42
0.000000
 10
-5.000018
 20
-45.249941
 42
0.000000
 10
-6.000018
 20
-44.749941
 42
0.000000
 10
-7.000018
 20
-45.249941
 42
0.000000
 10
-8.000018
 20
-45.249941
 42
0.000000
 10
-9.000018
 20
-45.749941
 42
0.000000
 10
-10.000018
 20
-45.249941
 42
0.000000
 10
-11.000018
 20
-45.249941
 42
0.000000
 10
-12.000018
 20
-44.749941
 42
0.000000
 10
-13.000018
 20
-45.249941
 42
0.000000
 10
-14.000018
 20
-45.249941
 42
0.000000
 10
-15.000018
 20
-45.749941
 42
0.000000
 10
-16.000018
 20
-45.249941
 42
0.000000
 10
-17.000018
 20
-45.249941
 42
0.000000
 10
-18.000018
 20
-44.749941
 42
0.000000
 10
-19.000018
 20
-45.249941
 42
0.000000
 10
-20.000018
 20
-45.249941
 42
0.000000
 97
     0
 75
     0
 76
     1
 98
     0
  0
ENDBLK
  5
22D
100
AcDbEntity
  8
0
100
AcDbBlockEnd
  0
BLOCK
  5
22E
100
AcDbEntity
  8
Detail
100
AcDbBlockBegin
  2
B-6
 70
    66
 10
0.000000
 20
0.000000
 30
0.000000
  0
LWPOLYLINE
  5
22F
100
AcDbEntity
  8
Detail
  6
CONTINUOUS
 62
     6
100
AcDbPolyline
 90
   274
 10
212.500023
 20
-45.499962
 42
0.000000
 10
211.999982
 20
-45.249941
 42
0.000000
 10
210.999982
 20
-45.249941
 42
0.000000
 10
209.999982
 20
-44.749941
 42
0.000000
 10
208.999982
 20
-45.249941
 42
0.000000
 10
207.999982
 20
-45.249941
 42
0.000000
 10
206.999982
 20
-45.749941
 42
0.000000
 10
205.999982
 20
-45.249941
 42
0.000000
 10
204.999982
 20
-45.249941
 42
0.000000
 10
203.999982
 20
-44.749941
 42
0.000000
 10
202.999982
 20
-45.249941
 42
0.000000
 10
201.999982
 20
-45.249941
 42
0.000000
 10
200.999982
 20
-45.749941
 42
0.000000
 10
199.999982
 20
-45.249941
 42
0.000000
 10
198.999982
 20
-45.249941
 42
0.000000
 10
197.999982
 20
-44.749941
 42
0.000000
 10
196.999982
 20
-45.249941
 42
0.000000
 10
195.999982
 20
-45.249941
 42
0.000000
 10
194.999982
 20
-45.749941
 42
0.000000
 10
193.999982
 20
-45.249941
 42
0.000000
 10
192.999982
 20
-45.249941
 42
0.000000
 10
191.999982
 20
-44.749941
 42
0.000000
 10
190.999982
 20
-45.249941
 42
0.000000
 10
189.999982
 20
-45.249941
 42
0.000000
 10
188.999982
 20
-45.749941
 42
0.000000
 10
187.999982
 20
-45.249941
 42
0.000000
 10
186.999982
 20
-45.249941
 42
0.000000
 10
185.999982
 20
-44.749941
 42
0.000000
 10
184.999982
 20
-45.249941
 42
0.000000
 10
183.999982
 20
-45.249941
 42
0.000000
 10
182.999982
 20
-45.749941
 42
0.000000
 10
181.999982
 20
-45.249941
 42
0.000000
 10
180.999982
 20
-45.249941
 42
0.000000
 10
179.999982
 20
-44.749941
 42
0.000000
 10
178.999982
 20
-45.249941
 42
0.000000
 10
177.999982
 20
-45.249941
 42
0.000000
 10
176.999982
 20
-45.749941
 42
0.000000
 10
175.999982
 20
-45.249941
 42
0.000000
 10
174.999982
 20
-45.249941
 42
0.000000
 10
173.999982
 20
-44.749941
 42
0.000000
 10
172.999982
 20
-45.249941
 42
0.000000
 10
171.999982
 20
-45.249941
 42
0.000000
 10
170.999982
 20
-45.749941
 42
0.000000
 10
169.999982
 20
-45.249941
 42
0.000000
 10
168.999982
 20
-45.249941
 42
0.000000
 10
167.999982
 20
-44.749941
 42
0.000000
 10
166.999982
 20
-45.249941
 42
0.000000
 10
165.999982
 20
-45.249941
 42
0.000000
 10
164.999982
 20
-45.749941
 42
0.000000
 10
163.999982
 20
-45.249941
 42
0.000000
 10
162.999982
 20
-45.249941
 42
0.000000
 10
161.999982
 20
-44.749941
 42
0.000000
 10
160.999982
 20
-45.249941
 42
0.000000
 10
159.999982
 20
-45.249941
 42
0.000000
 10
158.999982
 20
-45.749941
 42
0.000000
 10
157.999982
 20
-45.249941
 42
0.000000
 10
156.999982
 20
-45.249941
 42
0.000000
 10
155.999982
 20
-44.749941
 42
0.000000
 10
154.999982
 20
-45.249941
 42
0.000000
 10
153.999982
 20
-45.249941
 42
0.000000
 10
152.999982
 20
-45.749941
 42
0.000000
 10
151.999982
 20
-45.249941
 42
0.000000
 10
150.999982
 20
-45.249941
 42
0.000000
 10
149.999982
 20
-44.749941
 42
0.000000
 10
148.999982
 20
-45.249941
 42
0.000000
 10
147.999982
 20
-45.249941
 42
0.000000
 10
146.999982
 20
-45.749941
 42
0.000000
 10
145.999982
 20
-45.249941
 42
0.000000
 10
144.991186
 20
-45.245543
 42
0.000000
 10
143.999982
 20
-44.749941
 42
0.000000
 10
142.999982
 20
-45.249941
 42
0.000000
 10
141.999982
 20
-45.249941
 42
0.000000
 10
140.999982
 20
-45.749941
 42
0.000000
 10
139.999982
 20
-45.249941
 42
0.000000
 10
138.999982
 20
-45.249941
 42
0.000000
 10
137.999982
 20
-44.749941
 42
0.000000
 10
136.999982
 20
-45.249941
 42
0.000000
 10
135.999982
 20
-45.249941
 42
0.000000
 10
134.999982
 20
-45.749941
 42
0.000000
 10
133.999982
 20
-45.249941
 42
0.000000
 10
132.999982
 20
-45.249941
 42
0.000000
 10
131.999982
 20
-44.749941
 42
0.000000
 10
130.999982
 20
-45.249941
 42
0.000000
 10
129.999982
 20
-45.249941
 42
0.000000
 10
128.999982
 20
-45.749941
 42
0.000000
 10
127.999982
 20
-45.249941
 42
0.000000
 10
126.999982
 20
-45.249941
 42
0.000000
 10
125.999982
 20
-44.749941
 42
0.000000
 10
124.999982
 20
-45.249941
 42
0.000000
 10
123.999982
 20
-45.249941
 42
0.000000
 10
122.999982
 20
-45.749941
 42
0.000000
 10
121.999982
 20
-45.249941
 42
0.000000
 10
120.999982
 20
-45.249941
 42
0.000000
 10
119.999982
 20
-44.749941
 42
0.000000
 10
118.999982
 20
-45.249941
 42
0.000000
 10
117.999982
 20
-45.249941
 42
0.000000
 10
116.999982
 20
-45.749941
 42
0.000000
 10
115.999982
 20
-45.249941
 42
0.000000
 10
114.999982
 20
-45.249941
 42
0.000000
 10
113.999982
 20
-44.749941
 42
0.000000
 10
112.992315
 20
-45.249941
 42
0.000000
 10
111.999982
 20
-45.249941
 42
0.000000
 10
110.999982
 20
-45.749941
 42
0.000000
 10
109.999982
 20
-45.249941
 42
0.000000
 10
108.999982
 20
-45.249941
 42
0.000000
 10
107.999982
 20
-44.749941
 42
0.000000
 10
106.999982
 20
-45.249941
 42
0.000000
 10
105.999982
 20
-45.249941
 42
0.000000
 10
104.999982
 20
-45.749941
 42
0.000000
 10
103.999982
 20
-45.249941
 42
0.000000
 10
102.999982
 20
-45.249941
 42
0.000000
 10
101.999982
 20
-44.749941
 42
0.000000
 10
100.999982
 20
-45.249941
 42
0.000000
 10
99.999982
 20
-45.249941
 42
0.000000
 10
98.999982
 20
-45.749941
 42
0.000000
 10
97.999982
 20
-45.249941
 42
0.000000
 10
96.999982
 20
-45.249941
 42
0.000000
 10
95.999982
 20
-44.749941
 42
0.000000
 10
94.999982
 20
-45.249941
 42
0.000000
 10
93.999982
 20
-45.249941
 42
0.000000
 10
92.999982
 20
-45.749941
 42
0.000000
 10
91.999982
 20
-45.249941
 42
0.000000
 10
90.999982
 20
-45.249941
 42
0.000000
 10
89.999982
 20
-44.749941
 42
0.000000
 10
88.999982
 20
-45.249941
 42
0.000000
 10
87.999982
 20
-45.249941
 42
0.000000
 10
86.999982
 20
-45.749941
 42
0.000000
 10
85.999982
 20
-45.249941
 42
0.000000
 10
84.999982
 20
-45.249941
 42
0.000000
 10
83.999982
 20
-44.749941
 42
0.000000
 10
82.999982
 20
-45.249941
 42
0.000000
 10
81.999982
 20
-45.249941
 42
0.000000
 10
80.999982
 20
-45.749941
 42
0.000000
 10
79.999982
 20
-45.249941
 42
0.000000
 10
78.999982
 20
-45.249941
 42
0.000000
 10
77.999982
 20
-44.749941
 42
0.000000
 10
76.999982
 20
-45.249941
 42
0.000000
 10
75.999982
 20
-45.249941
 42
0.000000
 10
74.999982
 20
-45.749941
 42
0.000000
 10
73.999982
 20
-45.249941
 42
0.000000
 10
72.999982
 20
-45.249941
 42
0.000000
 10
71.999982
 20
-44.749941
 42
0.000000
 10
70.999982
 20
-45.249941
 42
0.000000
 10
69.999982
 20
-45.249941
 42
0.000000
 10
68.999982
 20
-45.749941
 42
0.000000
 10
67.999982
 20
-45.249941
 42
0.000000
 10
66.999982
 20
-45.249941
 42
0.000000
 10
65.999982
 20
-44.749941
 42
0.000000
 10
64.999982
 20
-45.249941
 42
0.000000
 10
63.999982
 20
-45.249941
 42
0.000000
 10
62.999982
 20
-45.749941
 42
0.000000
 10
61.999982
 20
-45.249941
 42
0.000000
 10
60.999982
 20
-45.249941
 42
0.000000
 10
59.999982
 20
-44.749941
 42
0.000000
 10
58.999982
 20
-45.249941
 42
0.000000
 10
57.999982
 20
-45.249941
 42
0.000000
 10
56.999982
 20
-45.749941
 42
0.000000
 10
55.999982
 20
-45.249941
 42
0.000000
 10
54.999982
 20
-45.249941
 42
0.000000
 10
53.999982
 20
-44.749941
 42
0.000000
 10
52.999982
 20
-45.249941
 42
0.000000
 10
51.999982
 20
-45.249941
 42
0.000000
 10
50.999982
 20
-45.749941
 42
0.000000
 10
49.999982
 20
-45.249941
 42
0.000000
 10
48.999982
 20
-45.249941
 42
0.000000
 10
47.999982
 20
-44.749941
 42
0.000000
 10
46.999982
 20
-45.249941
 42
0.000000
 10
45.999982
 20
-45.249941
 42
0.000000
 10
44.999982
 20
-45.749941
 42
0.000000
 10
43.999982
 20
-45.249941
 42
0.000000
 10
42.999982
 20
-45.249941
 42
0.000000
 10
41.999982
 20
-44.749941
 42
0.000000
 10
40.999982
 20
-45.249941
 42
0.000000
 10
39.999982
 20
-45.249941
 42
0.000000
 10
38.999982
 20
-45.749941
 42
0.000000
 10
37.999982
 20
-45.249941
 42
0.000000
 10
36.999982
 20
-45.249941
 42
0.000000
 10
35.999982
 20
-44.749941
 42
0.000000
 10
34.999982
 20
-45.249941
 42
0.000000
 10
33.999982
 20
-45.249941
 42
0.000000
 10
32.999982
 20
-45.749941
 42
0.000000
 10
31.999982
 20
-45.249941
 42
0.000000
 10
30.999982
 20
-45.249941
 42
0.000000
 10
29.999982
 20
-44.749941
 42
0.000000
 10
28.999982
 20
-45.249941
 42
0.000000
 10
27.999982
 20
-45.249941
 42
0.000000
 10
26.999982
 20
-45.749941
 42
0.000000
 10
25.999982
 20
-45.249941
 42
0.000000
 10
24.999982
 20
-45.249941
 42
0.000000
 10
23.999982
 20
-44.749941
 42
0.000000
 10
22.999982
 20
-45.249941
 42
0.000000
 10
21.999982
 20
-45.249941
 42
0.000000
 10
20.999982
 20
-45.749941
 42
0.000000
 10
19.999982
 20
-45.249941
 42
0.000000
 10
18.999982
 20
-45.249941
 42
0.000000
 10
17.999982
 20
-44.749941
 42
0.000000
 10
16.999982
 20
-45.249941
 42
0.000000
 10
15.999982
 20
-45.249941
 42
0.000000
 10
14.999982
 20
-45.749941
 42
0.000000
 10
13.999982
 20
-45.249941
 42
0.000000
 10
12.999982
 20
-45.249941
 42
0.000000
 10
11.999982
 20
-44.749941
 42
0.000000
 10
10.999982
 20
-45.249941
 42
0.000000
 10
9.999982
 20
-45.249941
 42
0.000000
 10
8.999982
 20
-45.749941
 42
0.000000
 10
7.999982
 20
-45.249941
 42
0.000000
 10
6.999982
 20
-45.249941
 42
0.000000
 10
5.999982
 20
-44.749941
 42
0.000000
 10
4.999982
 20
-45.249941
 42
0.000000
 10
3.999982
 20
-45.249941
 42
0.000000
 10
2.999982
 20
-45.749941
 42
0.000000
 10
1.999982
 20
-45.249941
 42
0.000000
 10
0.999982
 20
-45.249941
 42
0.000000
 10
-0.000018
 20
-44.749941
 42
0.000000
 10
-1.000018
 20
-45.249941
 42
0.000000
 10
-2.000018
 20
-45.249941
 42
0.000000
 10
-3.000018
 20
-45.749941
 42
0.000000
 10
-4.000018
 20
-45.249941
 42
0.000000
 10
-5.000018
 20
-45.249941
 42
0.000000
 10
-6.000018
 20
-44.749941
 42
0.000000
 10
-7.000018
 20
-45.249941
 42
0.000000
 10
-8.000018
 20
-45.249941
 42
0.000000
 10
-9.000018
 20
-45.749941
 42
0.000000
 10
-10.000018
 20
-45.249941
 42
0.000000
 10
-11.000018
 20
-45.249941
 42
0.000000
 10
-12.000018
 20
-44.749941
 42
0.000000
 10
-13.000018
 20
-45.249941
 42
0.000000
 10
-14.000018
 20
-45.249941
 42
0.000000
 10
-15.000018
 20
-45.749941
 42
0.000000
 10
-16.000018
 20
-45.249941
 42
0.000000
 10
-17.000018
 20
-45.249941
 42
0.000000
 10
-18.000018
 20
-44.749941
 42
0.000000
 10
-19.000018
 20
-45.249941
 42
0.000000
 10
-20.000018
 20
-45.249941
 42
0.000000
 10
-21.000018
 20
-45.749941
 42
0.000000
 10
-22.000018
 20
-45.249941
 42
0.000000
 10
-23.000018
 20
-45.249941
 42
0.000000
 10
-24.000018
 20
-44.749941
 42
0.000000
 10
-25.007685
 20
-45.249941
 42
0.000000
 10
-26.000018
 20
-45.249941
 42
0.000000
 10
-27.000018
 20
-45.749941
 42
0.000000
 10
-28.000018
 20
-45.249941
 42
0.000000
 10
-29.000018
 20
-45.249941
 42
0.000000
 10
-30.000018
 20
-44.749941
 42
0.000000
 10
-31.000018
 20
-45.249941
 42
0.000000
 10
-32.000018
 20
-45.249941
 42
0.000000
 10
-33.000018
 20
-45.749941
 42
0.000000
 10
-34.000018
 20
-45.249941
 42
0.000000
 10
-35.000018
 20
-45.249941
 42
0.000000
 10
-36.000018
 20
-44.749941
 42
0.000000
 10
-37.000018
 20
-45.249941
 42
0.000000
 10
-38.000018
 20
-45.249941
 42
0.000000
 10
-39.000018
 20
-45.749941
 42
0.000000
 10
-40.000018
 20
-45.249941
 42
0.000000
 10
-41.000018
 20
-45.249941
 42
0.000000
 10
-42.000018
 20
-44.749941
 42
0.000000
 10
-43.000018
 20
-45.249941
 42
0.000000
 10
-44.000018
 20
-45.249941
 42
0.000000
 10
-45.000018
 20
-45.749941
 42
0.000000
 10
-46.000018
 20
-45.249941
 42
0.000000
 10
-47.000018
 20
-45.249941
 42
0.000000
 10
-48.000018
 20
-44.749941
 42
0.000000
 10
-49.007685
 20
-45.249941
 42
0.000000
 10
-50.000018
 20
-45.249941
 42
0.000000
 10
-51.000018
 20
-45.749941
 42
0.000000
 10
-52.000018
 20
-45.249941
 42
0.000000
 10
-53.000018
 20
-45.249941
 42
0.000000
 10
-54.000018
 20
-44.749941
 42
0.000000
 10
-55.000018
 20
-45.249941
 42
0.000000
 10
-56.000018
 20
-45.249941
 42
0.000000
 10
-57.000018
 20
-45.749941
 42
0.000000
 10
-58.000018
 20
-45.249941
 42
0.000000
 10
-59.000018
 20
-45.249941
 42
0.000000
 10
-61.500018
 20
-47.249941
 42
0.000000
  0
ENDBLK
  5
342
100
AcDbEntity
  8
0
100
AcDbBlockEnd
  0
BLOCK
  5
343
100
AcDbEntity
  8
SCHRAFF
100
AcDbBlockBegin
  2
B-7
 70
    66
 10
0.000000
 20
0.000000
 30
0.000000
  0
HATCH
  5
344
100
AcDbEntity
  8
SCHRAFF
 62
    51
440
     0
100
AcDbHatch
 10
0.000000
 20
0.000000
 30
0.000000
210
0.000000
220
0.000000
230
1.000000
  2
SOLID
 70
     1
 71
     1
 91
     1
 92
    18
 72
     1
 73
     0
 93
     5
 10
127.489689
 20
-71.249941
 42
0.000000
 10
127.489689
 20
-51.249941
 42
0.000000
 10
67.489689
 20
-51.249941
 42
0.000000
 10
67.489689
 20
-71.249941
 42
0.000000
 10
127.489689
 20
-71.249941
 42
0.000000
 97
     0
 75
     0
 76
     1
 98
     0
  0
HATCH
  5
345
100
AcDbEntity
  8
SCHRAFF
  6
CONTINUOUS
 62
     9
100
AcDbHatch
 10
0.000000
 20
0.000000
 30
0.000000
210
0.000000
220
0.000000
230
1.000000
  2
_U
 70
     0
 71
     1
 91
     1
 92
    18
 72
     1
 73
     0
 93
     5
 10
127.489689
 20
-51.249941
 42
0.000000
 10
67.489689
 20
-51.249941
 42
0.000000
 10
67.489689
 20
-71.249941
 42
0.000000
 10
127.489689
 20
-71.249941
 42
0.000000
 10
127.489689
 20
-51.249941
 42
0.000000
 97
     0
 75
     0
 76
     0
 52
0.000000
 41
1.000000
 77
     0
 78
     1
 53
90.000000
 43
-0.000000
 44
0.000000
 45
-6.875000
 46
0.000000
 79
     0
 98
     0
  0
ENDBLK
  5
346
100
AcDbEntity
  8
0
100
AcDbBlockEnd
  0
BLOCK
  5
347
100
AcDbEntity
  8
SCHRAFF
100
AcDbBlockBegin
  2
B-8
 70
    66
 10
0.000000
 20
0.000000
 30
0.000000
  0
HATCH
  5
348
100
AcDbEntity
  8
SCHRAFF
 62
    51
440
     0
100
AcDbHatch
 10
0.000000
 20
0.000000
 30
0.000000
210
0.000000
220
0.000000
230
1.000000
  2
SOLID
 70
     1
 71
     1
 91
     1
 92
    18
 72
     1
 73
     0
 93
     9
 10
212.500023
 20
-51.249941
 42
0.000000
 10
127.489689
 20
-51.249941
 42
0.000000
 10
127.489689
 20
-71.249941
 42
0.000000
 10
67.489689
 20
-71.249941
 42
0.000000
 10
67.489689
 20
-51.249941
 42
0.000000
 10
-150.500018
 20
-51.249941
 42
0.000000
 10
-150.500018
 20
-131.249941
 42
0.000000
 10
212.500023
 20
-131.249941
 42
0.000000
 10
212.500023
 20
-51.249941
 42
0.000000
 97
     0
 75
     0
 76
     1
 98
     0
  0
HATCH
  5
349
100
AcDbEntity
  8
SCHRAFF
  6
CONTINUOUS
 62
     9
100
AcDbHatch
 10
0.000000
 20
0.000000
 30
0.000000
210
0.000000
220
0.000000
230
1.000000
  2
_U
 70
     0
 71
     1
 91
     1
 92
    18
 72
     1
 73
     0
 93
     9
 10
-150.500018
 20
-131.249941
 42
0.000000
 10
211.500023
 20
-131.249941
 42
0.000000
 10
212.500023
 20
-51.249941
 42
0.000000
 10
127.489689
 20
-51.249941
 42
0.000000
 10
127.489689
 20
-71.249941
 42
0.000000
 10
67.489689
 20
-71.249941
 42
0.000000
 10
67.489689
 20
-51.249941
 42
0.000000
 10
-150.500018
 20
-51.249941
 42
0.000000
 10
-150.500018
 20
-131.249941
 42
0.000000
 97
     0
 75
     0
 76
     0
 52
0.000000
 41
1.000000
 77
     0
 78
     1
 53
90.000000
 43
-0.000000
 44
0.000000
 45
-13.750000
 46
0.000000
 79
     0
 98
     0
  0
ENDBLK
  5
34A
100
AcDbEntity
  8
0
100
AcDbBlockEnd
  0
BLOCK
  5
34B
100
AcDbEntity
  8
SCHRAFF
100
AcDbBlockBegin
  2
B-9
 70
    66
 10
0.000000
 20
0.000000
 30
0.000000
  0
HATCH
  5
34C
100
AcDbEntity
  8
SCHRAFF
 62
    51
440
     0
100
AcDbHatch
 10
0.000000
 20
0.000000
 30
0.000000
210
0.000000
220
0.000000
230
1.000000
  2
SOLID
 70
     1
 71
     1
 91
     1
 92
    18
 72
     1
 73
     0
 93
     5
 10
-87.500018
 20
104.750056
 42
0.000000
 10
-67.500018
 20
104.750056
 42
0.000000
 10
-67.500018
 20
164.750056
 42
0.000000
 10
-87.500018
 20
164.750056
 42
0.000000
 10
-87.500018
 20
104.750056
 42
0.000000
 97
     0
 75
     0
 76
     1
 98
     0
  0
ENDBLK
  5
34D
100
AcDbEntity
  8
0
100
AcDbBlockEnd
  0
BLOCK
  5
34E
100
AcDbEntity
  8
SCHRAFF
100
AcDbBlockBegin
  2
B-10
 70
    66
 10
0.000000
 20
0.000000
 30
0.000000
  0
HATCH
  5
34F
100
AcDbEntity
  8
SCHRAFF
 62
    61
440
     0
100
AcDbHatch
 10
0.000000
 20
0.000000
 30
0.000000
210
0.000000
220
0.000000
230
1.000000
  2
SOLID
 70
     1
 71
     1
 91
     1
 92
    18
 72
     1
 73
     0
 93
     5
 10
-91.500018
 20
-25.249941
 42
0.000000
 10
-150.500018
 20
-25.249941
 42
0.000000
 10
-150.500018
 20
-49.249941
 42
0.000000
 10
-91.500018
 20
-49.249941
 42
0.000000
 10
-91.500018
 20
-25.249941
 42
0.000000
 97
     0
 75
     0
 76
     1
 98
     0
  0
LWPOLYLINE
  5
350
100
AcDbEntity
  8
SCHRAFF
  6
CONTINUOUS
 62
     9
100
AcDbPolyline
 90
    15
 10
-91.500018
 20
-49.249941
 42
-0.187800
 10
-94.976627
 20
-47.680872
 42
-0.210073
 10
-96.416687
 20
-43.892794
 42
-0.109494
 10
-96.020309
 20
-41.785463
 42
0.000000
 10
-92.014733
 20
-32.993368
 42
0.124831
 10
-91.500018
 20
-30.607086
 42
0.210073
 10
-92.940079
 20
-26.819010
 42
0.187800
 10
-96.416689
 20
-25.249941
 42
0.187800
 10
-99.893295
 20
-26.819015
 42
0.210072
 10
-101.333351
 20
-30.607086
 42
0.124831
 10
-100.818636
 20
-32.993368
 42
0.000000
 10
-96.931400
 20
-41.506520
 42
-0.124831
 10
-96.416689
 20
-43.892794
 42
-0.210072
 10
-97.856747
 20
-47.680867
 42
-0.187800
 10
-101.333351
 20
-49.249937
 42
0.000000
  0
LWPOLYLINE
  5
360
100
AcDbEntity
  8
SCHRAFF
  6
CONTINUOUS
 62
     9
100
AcDbPolyline
 90
    15
 10
-101.333352
 20
-49.249941
 42
-0.187800
 10
-104.809961
 20
-47.680872
 42
-0.210073
 10
-106.250021
 20
-43.892794
 42
-0.109494
 10
-105.853642
 20
-41.785463
 42
0.000000
 10
-101.848066
 20
-32.993368
 42
0.124831
 10
-101.333351
 20
-30.607086
 42
0.210073
 10
-102.773412
 20
-26.819010
 42
0.187800
 10
-106.250022
 20
-25.249941
 42
0.187800
 10
-109.726628
 20
-26.819015
 42
0.210072
 10
-111.166684
 20
-30.607086
 42
0.124831
 10
-110.651969
 20
-32.993368
 42
0.000000
 10
-106.764734
 20
-41.506520
 42
-0.124831
 10
-106.250022
 20
-43.892794
 42
-0.210072
 10
-107.690080
 20
-47.680867
 42
-0.187800
 10
-111.166685
 20
-49.249937
 42
0.000000
  0
LWPOLYLINE
  5
370
100
AcDbEntity
  8
SCHRAFF
  6
CONTINUOUS
 62
     9
100
AcDbPolyline
 90
    15
 10
-111.166685
 20
-49.249941
 42
-0.187800
 10
-114.643294
 20
-47.680872
 42
-0.210073
 10
-116.083354
 20
-43.892794
 42
-0.109494
 10
-115.686976
 20
-41.785463
 42
0.000000
 10
-111.681400
 20
-32.993368
 42
0.124831
 10
-111.166685
 20
-30.607086
 42
0.210073
 10
-112.606745
 20
-26.819010
 42
0.187800
 10
-116.083356
 20
-25.249941
 42
0.187800
 10
-119.559961
 20
-26.819015
 42
0.210072
 10
-121.000017
 20
-30.607086
 42
0.124831
 10
-120.485302
 20
-32.993368
 42
0.000000
 10
-116.598067
 20
-41.506520
 42
-0.124831
 10
-116.083356
 20
-43.892794
 42
-0.210072
 10
-117.523414
 20
-47.680867
 42
-0.187800
 10
-121.000018
 20
-49.249937
 42
0.000000
  0
LWPOLYLINE
  5
380
100
AcDbEntity
  8
SCHRAFF
  6
CONTINUOUS
 62
     9
100
AcDbPolyline
 90
    15
 10
-121.000018
 20
-49.249941
 42
-0.187800
 10
-124.476627
 20
-47.680872
 42
-0.210073
 10
-125.916687
 20
-43.892794
 42
-0.109494
 10
-125.520309
 20
-41.785463
 42
0.000000
 10
-121.514733
 20
-32.993368
 42
0.124831
 10
-121.000018
 20
-30.607086
 42
0.210073
 10
-122.440079
 20
-26.819010
 42
0.187800
 10
-125.916689
 20
-25.249941
 42
0.187800
 10
-129.393295
 20
-26.819015
 42
0.210072
 10
-130.833351
 20
-30.607086
 42
0.124831
 10
-130.318636
 20
-32.993368
 42
0.000000
 10
-126.431400
 20
-41.506520
 42
-0.124831
 10
-125.916689
 20
-43.892794
 42
-0.210072
 10
-127.356747
 20
-47.680867
 42
-0.187800
 10
-130.833351
 20
-49.249937
 42
0.000000
  0
LWPOLYLINE
  5
390
100
AcDbEntity
  8
SCHRAFF
  6
CONTINUOUS
 62
     9
100
AcDbPolyline
 90
    15
 10
-130.833352
 20
-49.249941
 42
-0.187800
 10
-134.309961
 20
-47.680872
 42
-0.210073
 10
-135.750021
 20
-43.892794
 42
-0.109494
 10
-135.353642
 20
-41.785463
 42
0.000000
 10
-131.348066
 20
-32.993368
 42
0.124831
 10
-130.833351
 20
-30.607086
 42
0.210073
 10
-132.273412
 20
-26.819010
 42
0.187800
 10
-135.750022
 20
-25.249941
 42
0.187800
 10
-139.226628
 20
-26.819015
 42
0.210072
 10
-140.666684
 20
-30.607086
 42
0.124831
 10
-140.151969
 20
-32.993368
 42
0.000000
 10
-136.264734
 20
-41.506520
 42
-0.124831
 10
-135.750022
 20
-43.892794
 42
-0.210072
 10
-137.190080
 20
-47.680867
 42
-0.187800
 10
-140.666685
 20
-49.249937
 42
0.000000
  0
LWPOLYLINE
  5
3A0
100
AcDbEntity
  8
SCHRAFF
  6
CONTINUOUS
 62
     9
100
AcDbPolyline
 90
    15
 10
-140.666685
 20
-49.249941
 42
-0.187800
 10
-144.143294
 20
-47.680872
 42
-0.210073
 10
-145.583354
 20
-43.892794
 42
-0.109494
 10
-145.186976
 20
-41.785463
 42
0.000000
 10
-141.181400
 20
-32.993368
 42
0.124831
 10
-140.666685
 20
-30.607086
 42
0.210073
 10
-142.106745
 20
-26.819010
 42
0.187800
 10
-145.583356
 20
-25.249941
 42
0.187800
 10
-149.059961
 20
-26.819015
 42
0.210072
 10
-150.500017
 20
-30.607086
 42
0.124831
 10
-149.985302
 20
-32.993368
 42
0.000000
 10
-146.098067
 20
-41.506520
 42
-0.124831
 10
-145.583356
 20
-43.892794
 42
-0.210072
 10
-147.023414
 20
-47.680867
 42
-0.187800
 10
-150.500018
 20
-49.249937
 42
0.000000
  0
ENDBLK
  5
3B0
100
AcDbEntity
  8
0
100
AcDbBlockEnd
  0
BLOCK
  5
3B1
100
AcDbEntity
  8
SCHRAFF
100
AcDbBlockBegin
  2
B-11
 70
    66
 10
0.000000
 20
0.000000
 30
0.000000
  0
LWPOLYLINE
  5
3B2
100
AcDbEntity
  8
SCHRAFF
  6
CONTINUOUS
 62
     9
100
AcDbPolyline
 90
    15
 10
-152.500018
 20
-136.249941
 42
-0.203241
 10
-154.131803
 20
-135.596162
 42
-0.194592
 10
-154.807711
 20
-134.017796
 42
-0.098414
 10
-154.621667
 20
-133.139742
 42
0.000000
 10
-152.741605
 20
-129.476369
 42
0.112603
 10
-152.500018
 20
-128.482085
 42
0.194592
 10
-153.175926
 20
-126.903720
 42
0.203241
 10
-154.807712
 20
-126.249941
 42
0.203240
 10
-156.439496
 20
-126.903722
 42
0.194591
 10
-157.115402
 20
-128.482085
 42
0.112603
 10
-156.873815
 20
-129.476369
 42
0.000000
 10
-155.049298
 20
-133.023515
 42
-0.112603
 10
-154.807712
 20
-134.017796
 42
-0.194591
 10
-155.483620
 20
-135.596160
 42
-0.203240
 10
-157.115403
 20
-136.249939
 42
0.000000
  0
LWPOLYLINE
  5
3C2
100
AcDbEntity
  8
SCHRAFF
  6
CONTINUOUS
 62
     9
100
AcDbPolyline
 90
    15
 10
-157.115403
 20
-136.249941
 42
-0.203241
 10
-158.747188
 20
-135.596162
 42
-0.194592
 10
-159.423096
 20
-134.017796
 42
-0.098414
 10
-159.237052
 20
-133.139742
 42
0.000000
 10
-157.356990
 20
-129.476369
 42
0.112603
 10
-157.115403
 20
-128.482085
 42
0.194592
 10
-157.791311
 20
-126.903720
 42
0.203241
 10
-159.423097
 20
-126.249941
 42
0.203240
 10
-161.054881
 20
-126.903722
 42
0.194591
 10
-161.730787
 20
-128.482085
 42
0.112603
 10
-161.489200
 20
-129.476369
 42
0.000000
 10
-159.664682
 20
-133.023515
 42
-0.112603
 10
-159.423097
 20
-134.017796
 42
-0.194591
 10
-160.099004
 20
-135.596160
 42
-0.203240
 10
-161.730787
 20
-136.249939
 42
0.000000
  0
LWPOLYLINE
  5
3D2
100
AcDbEntity
  8
SCHRAFF
  6
CONTINUOUS
 62
     9
100
AcDbPolyline
 90
    15
 10
-161.730787
 20
-136.249941
 42
-0.203241
 10
-163.362573
 20
-135.596162
 42
-0.194592
 10
-164.038481
 20
-134.017796
 42
-0.098414
 10
-163.852436
 20
-133.139742
 42
0.000000
 10
-161.972374
 20
-129.476369
 42
0.112603
 10
-161.730787
 20
-128.482085
 42
0.194592
 10
-162.406696
 20
-126.903720
 42
0.203241
 10
-164.038482
 20
-126.249941
 42
0.203240
 10
-165.670265
 20
-126.903722
 42
0.194591
 10
-166.346171
 20
-128.482085
 42
0.112603
 10
-166.104584
 20
-129.476369
 42
0.000000
 10
-164.280067
 20
-133.023515
 42
-0.112603
 10
-164.038482
 20
-134.017796
 42
-0.194591
 10
-164.714389
 20
-135.596160
 42
-0.203240
 10
-166.346172
 20
-136.249939
 42
0.000000
  0
LWPOLYLINE
  5
3E2
100
AcDbEntity
  8
SCHRAFF
  6
CONTINUOUS
 62
     9
100
AcDbPolyline
 90
    15
 10
-166.346172
 20
-136.249941
 42
-0.203241
 10
-167.977957
 20
-135.596162
 42
-0.194592
 10
-168.653865
 20
-134.017796
 42
-0.098414
 10
-168.467821
 20
-133.139742
 42
0.000000
 10
-166.587759
 20
-129.476369
 42
0.112603
 10
-166.346172
 20
-128.482085
 42
0.194592
 10
-167.022080
 20
-126.903720
 42
0.203241
 10
-168.653866
 20
-126.249941
 42
0.203240
 10
-170.285650
 20
-126.903722
 42
0.194591
 10
-170.961556
 20
-128.482085
 42
0.112603
 10
-170.719969
 20
-129.476369
 42
0.000000
 10
-168.895452
 20
-133.023515
 42
-0.112603
 10
-168.653866
 20
-134.017796
 42
-0.194591
 10
-169.329774
 20
-135.596160
 42
-0.203240
 10
-170.961556
 20
-136.249939
 42
0.000000
  0
LWPOLYLINE
  5
3F2
100
AcDbEntity
  8
SCHRAFF
  6
CONTINUOUS
 62
     9
100
AcDbPolyline
 90
    15
 10
-170.961557
 20
-136.249941
 42
-0.203241
 10
-172.593342
 20
-135.596162
 42
-0.194592
 10
-173.269250
 20
-134.017796
 42
-0.098414
 10
-173.083205
 20
-133.139742
 42
0.000000
 10
-171.203144
 20
-129.476369
 42
0.112603
 10
-170.961556
 20
-128.482085
 42
0.194592
 10
-171.637465
 20
-126.903720
 42
0.203241
 10
-173.269251
 20
-126.249941
 42
0.203240
 10
-174.901034
 20
-126.903722
 42
0.194591
 10
-175.576941
 20
-128.482085
 42
0.112603
 10
-175.335353
 20
-129.476369
 42
0.000000
 10
-173.510836
 20
-133.023515
 42
-0.112603
 10
-173.269251
 20
-134.017796
 42
-0.194591
 10
-173.945158
 20
-135.596160
 42
-0.203240
 10
-175.576941
 20
-136.249939
 42
0.000000
  0
LWPOLYLINE
  5
402
100
AcDbEntity
  8
SCHRAFF
  6
CONTINUOUS
 62
     9
100
AcDbPolyline
 90
    15
 10
-175.576941
 20
-136.249941
 42
-0.203241
 10
-177.208726
 20
-135.596162
 42
-0.194592
 10
-177.884635
 20
-134.017796
 42
-0.098414
 10
-177.698590
 20
-133.139742
 42
0.000000
 10
-175.818528
 20
-129.476369
 42
0.112603
 10
-175.576941
 20
-128.482085
 42
0.194592
 10
-176.252850
 20
-126.903720
 42
0.203241
 10
-177.884635
 20
-126.249941
 42
0.203240
 10
-179.516419
 20
-126.903722
 42
0.194591
 10
-180.192325
 20
-128.482085
 42
0.112603
 10
-179.950738
 20
-129.476369
 42
0.000000
 10
-178.126221
 20
-133.023515
 42
-0.112603
 10
-177.884635
 20
-134.017796
 42
-0.194591
 10
-178.560543
 20
-135.596160
 42
-0.203240
 10
-180.192326
 20
-136.249939
 42
0.000000
  0
LWPOLYLINE
  5
412
100
AcDbEntity
  8
SCHRAFF
  6
CONTINUOUS
 62
     9
100
AcDbPolyline
 90
    15
 10
-180.192326
 20
-136.249941
 42
-0.203241
 10
-181.824111
 20
-135.596162
 42
-0.194592
 10
-182.500019
 20
-134.017796
 42
-0.098414
 10
-182.313975
 20
-133.139742
 42
0.000000
 10
-180.433913
 20
-129.476369
 42
0.112603
 10
-180.192326
 20
-128.482085
 42
0.194592
 10
-180.868234
 20
-126.903720
 42
0.203241
 10
-182.500020
 20
-126.249941
 42
0.203240
 10
-184.131804
 20
-126.903722
 42
0.194591
 10
-184.807710
 20
-128.482085
 42
0.112603
 10
-184.566123
 20
-129.476369
 42
0.000000
 10
-182.741606
 20
-133.023515
 42
-0.112603
 10
-182.500020
 20
-134.017796
 42
-0.194591
 10
-183.175927
 20
-135.596160
 42
-0.203240
 10
-184.807710
 20
-136.249939
 42
0.000000
  0
LWPOLYLINE
  5
422
100
AcDbEntity
  8
SCHRAFF
  6
CONTINUOUS
 62
     9
100
AcDbPolyline
 90
    15
 10
-184.807710
 20
-136.249941
 42
-0.203241
 10
-186.439496
 20
-135.596162
 42
-0.194592
 10
-187.115404
 20
-134.017796
 42
-0.098414
 10
-186.929359
 20
-133.139742
 42
0.000000
 10
-185.049298
 20
-129.476369
 42
0.112603
 10
-184.807710
 20
-128.482085
 42
0.194592
 10
-185.483619
 20
-126.903720
 42
0.203241
 10
-187.115405
 20
-126.249941
 42
0.203240
 10
-188.747188
 20
-126.903722
 42
0.194591
 10
-189.423095
 20
-128.482085
 42
0.112603
 10
-189.181507
 20
-129.476369
 42
0.000000
 10
-187.356990
 20
-133.023515
 42
-0.112603
 10
-187.115405
 20
-134.017796
 42
-0.194591
 10
-187.791312
 20
-135.596160
 42
-0.203240
 10
-189.423095
 20
-136.249939
 42
0.000000
  0
LWPOLYLINE
  5
432
100
AcDbEntity
  8
SCHRAFF
  6
CONTINUOUS
 62
     9
100
AcDbPolyline
 90
    15
 10
-189.423095
 20
-136.249941
 42
-0.203241
 10
-191.054880
 20
-135.596162
 42
-0.194592
 10
-191.730788
 20
-134.017796
 42
-0.098414
 10
-191.544744
 20
-133.139742
 42
0.000000
 10
-189.664682
 20
-129.476369
 42
0.112603
 10
-189.423095
 20
-128.482085
 42
0.194592
 10
-190.099003
 20
-126.903720
 42
0.203241
 10
-191.730789
 20
-126.249941
 42
0.203240
 10
-193.362573
 20
-126.903722
 42
0.194591
 10
-194.038479
 20
-128.482085
 42
0.112603
 10
-193.796892
 20
-129.476369
 42
0.000000
 10
-191.972375
 20
-133.023515
 42
-0.112603
 10
-191.730789
 20
-134.017796
 42
-0.194591
 10
-192.406697
 20
-135.596160
 42
-0.203240
 10
-194.038480
 20
-136.249939
 42
0.000000
  0
LWPOLYLINE
  5
442
100
AcDbEntity
  8
SCHRAFF
  6
CONTINUOUS
 62
     9
100
AcDbPolyline
 90
    15
 10
-194.038480
 20
-136.249941
 42
-0.203241
 10
-195.670265
 20
-135.596162
 42
-0.194592
 10
-196.346173
 20
-134.017796
 42
-0.098414
 10
-196.160129
 20
-133.139742
 42
0.000000
 10
-194.280067
 20
-129.476369
 42
0.112603
 10
-194.038480
 20
-128.482085
 42
0.194592
 10
-194.714388
 20
-126.903720
 42
0.203241
 10
-196.346174
 20
-126.249941
 42
0.203240
 10
-197.977958
 20
-126.903722
 42
0.194591
 10
-198.653864
 20
-128.482085
 42
0.112603
 10
-198.412277
 20
-129.476369
 42
0.000000
 10
-196.587759
 20
-133.023515
 42
-0.112603
 10
-196.346174
 20
-134.017796
 42
-0.194591
 10
-197.022081
 20
-135.596160
 42
-0.203240
 10
-198.653864
 20
-136.249939
 42
0.000000
  0
LWPOLYLINE
  5
452
100
AcDbEntity
  8
SCHRAFF
  6
CONTINUOUS
 62
     9
100
AcDbPolyline
 90
    15
 10
-198.653864
 20
-136.249941
 42
-0.203241
 10
-200.285650
 20
-135.596162
 42
-0.194592
 10
-200.961558
 20
-134.017796
 42
-0.098414
 10
-200.775513
 20
-133.139742
 42
0.000000
 10
-198.895451
 20
-129.476369
 42
0.112603
 10
-198.653864
 20
-128.482085
 42
0.194592
 10
-199.329773
 20
-126.903720
 42
0.203241
 10
-200.961558
 20
-126.249941
 42
0.203240
 10
-202.593342
 20
-126.903722
 42
0.194591
 10
-203.269248
 20
-128.482085
 42
0.112603
 10
-203.027661
 20
-129.476369
 42
0.000000
 10
-201.203144
 20
-133.023515
 42
-0.112603
 10
-200.961558
 20
-134.017796
 42
-0.194591
 10
-201.637466
 20
-135.596160
 42
-0.203240
 10
-203.269249
 20
-136.249939
 42
0.000000
  0
LWPOLYLINE
  5
462
100
AcDbEntity
  8
SCHRAFF
  6
CONTINUOUS
 62
     9
100
AcDbPolyline
 90
    15
 10
-203.269249
 20
-136.249941
 42
-0.203241
 10
-204.901034
 20
-135.596162
 42
-0.194592
 10
-205.576942
 20
-134.017796
 42
-0.098414
 10
-205.390898
 20
-133.139742
 42
0.000000
 10
-203.510836
 20
-129.476369
 42
0.112603
 10
-203.269249
 20
-128.482085
 42
0.194592
 10
-203.945157
 20
-126.903720
 42
0.203241
 10
-205.576943
 20
-126.249941
 42
0.203240
 10
-207.208727
 20
-126.903722
 42
0.194591
 10
-207.884633
 20
-128.482085
 42
0.112603
 10
-207.643046
 20
-129.476369
 42
0.000000
 10
-205.818529
 20
-133.023515
 42
-0.112603
 10
-205.576943
 20
-134.017796
 42
-0.194591
 10
-206.252850
 20
-135.596160
 42
-0.203240
 10
-207.884633
 20
-136.249939
 42
0.000000
  0
LWPOLYLINE
  5
472
100
AcDbEntity
  8
SCHRAFF
  6
CONTINUOUS
 62
     9
100
AcDbPolyline
 90
    15
 10
-207.884634
 20
-136.249941
 42
-0.203241
 10
-209.516419
 20
-135.596162
 42
-0.194592
 10
-210.192327
 20
-134.017796
 42
-0.098414
 10
-210.006282
 20
-133.139742
 42
0.000000
 10
-208.126221
 20
-129.476369
 42
0.112603
 10
-207.884633
 20
-128.482085
 42
0.194592
 10
-208.560542
 20
-126.903720
 42
0.203241
 10
-210.192328
 20
-126.249941
 42
0.203240
 10
-211.824111
 20
-126.903722
 42
0.194591
 10
-212.500018
 20
-128.482085
 42
0.112603
 10
-212.258430
 20
-129.476369
 42
0.000000
 10
-210.433913
 20
-133.023515
 42
-0.112603
 10
-210.192328
 20
-134.017796
 42
-0.194591
 10
-210.868235
 20
-135.596160
 42
-0.203240
 10
-212.500018
 20
-136.249939
 42
0.000000
  0
ENDBLK
  5
482
100
AcDbEntity
  8
0
100
AcDbBlockEnd
  0
BLOCK
  5
483
100
AcDbEntity
  8
SCHRAFF
100
AcDbBlockBegin
  2
B-12
 70
    66
 10
0.000000
 20
0.000000
 30
0.000000
  0
HATCH
  5
484
100
AcDbEntity
  8
SCHRAFF
 62
   254
440
     0
100
AcDbHatch
 10
0.000000
 20
0.000000
 30
0.000000
210
0.000000
220
0.000000
230
1.000000
  2
SOLID
 70
     1
 71
     1
 91
     1
 92
    18
 72
     1
 73
     0
 93
     6
 10
-152.500018
 20
-136.249941
 42
0.000000
 10
212.500023
 20
-136.249941
 42
0.000000
 10
212.500023
 20
-131.249941
 42
0.000000
 10
-147.500018
 20
-131.249941
 42
0.000000
 10
-152.500018
 20
-131.249941
 42
0.000000
 10
-152.500018
 20
-136.249941
 42
0.000000
 97
     0
 75
     0
 76
     1
 98
     0
  0
ENDBLK
  5
485
100
AcDbEntity
  8
0
100
AcDbBlockEnd
  0
BLOCK
  5
486
100
AcDbEntity
  8
SCHRAFF
100
AcDbBlockBegin
  2
B-13
 70
    66
 10
0.000000
 20
0.000000
 30
0.000000
  0
HATCH
  5
487
100
AcDbEntity
  8
SCHRAFF
 62
    51
440
     0
100
AcDbHatch
 10
0.000000
 20
0.000000
 30
0.000000
210
0.000000
220
0.000000
230
1.000000
  2
SOLID
 70
     1
 71
     1
 91
     1
 92
    18
 72
     1
 73
     0
 93
     9
 10
-147.500018
 20
296.250078
 42
0.000000
 10
-147.500018
 20
-23.249941
 42
0.000000
 10
-67.500018
 20
-23.249941
 42
0.000000
 10
-67.500018
 20
104.750056
 42
0.000000
 10
-87.500018
 20
104.750056
 42
0.000000
 10
-87.500018
 20
164.750056
 42
0.000000
 10
-67.500018
 20
164.750056
 42
0.000000
 10
-67.500018
 20
296.250078
 42
0.000000
 10
-147.500018
 20
296.250078
 42
0.000000
 97
     0
 75
     0
 76
     1
 98
     0
  0
HATCH
  5
488
100
AcDbEntity
  8
SCHRAFF
  6
CONTINUOUS
 62
     9
100
AcDbHatch
 10
0.000000
 20
0.000000
 30
0.000000
210
0.000000
220
0.000000
230
1.000000
  2
_U
 70
     0
 71
     1
 91
     1
 92
    18
 72
     1
 73
     0
 93
     9
 10
-67.500018
 20
-24.249941
 42
0.000000
 10
-67.500018
 20
104.750056
 42
0.000000
 10
-87.500018
 20
104.750056
 42
0.000000
 10
-87.500018
 20
164.750056
 42
0.000000
 10
-67.500018
 20
164.750056
 42
0.000000
 10
-67.500018
 20
296.250078
 42
0.000000
 10
-147.500018
 20
296.250078
 42
0.000000
 10
-147.500018
 20
-24.249941
 42
0.000000
 10
-67.500018
 20
-24.249941
 42
0.000000
 97
     0
 75
     0
 76
     0
 52
0.000000
 41
1.000000
 77
     0
 78
     1
 53
90.000000
 43
-0.000000
 44
0.000000
 45
-13.750000
 46
0.000000
 79
     0
 98
     0
  0
ENDBLK
  5
489
100
AcDbEntity
  8
0
100
AcDbBlockEnd
  0
BLOCK
  5
48A
100
AcDbEntity
  8
SCHRAFF
100
AcDbBlockBegin
  2
B-14
 70
    66
 10
0.000000
 20
0.000000
 30
0.000000
  0
HATCH
  5
48B
100
AcDbEntity
  8
SCHRAFF
 62
   254
440
     0
100
AcDbHatch
 10
0.000000
 20
0.000000
 30
0.000000
210
0.000000
220
0.000000
230
1.000000
  2
SOLID
 70
     1
 71
     1
 91
     1
 92
    18
 72
     1
 73
     0
 93
     5
 10
-152.500018
 20
-23.249941
 42
0.000000
 10
-147.500018
 20
-23.249941
 42
0.000000
 10
-147.500018
 20
296.250078
 42
0.000000
 10
-152.500018
 20
296.250078
 42
0.000000
 10
-152.500018
 20
-23.249941
 42
0.000000
 97
     0
 75
     0
 76
     1
 98
     0
  0
ENDBLK
  5
48C
100
AcDbEntity
  8
0
100
AcDbBlockEnd
  0
BLOCK
  5
48D
100
AcDbEntity
  8
Detail
100
AcDbBlockBegin
  2
B-15
 70
    66
 10
0.000000
 20
0.000000
 30
0.000000
  0
LWPOLYLINE
  5
48E
100
AcDbEntity
  8
Detail
  6
CONTINUOUS
 62
     6
100
AcDbPolyline
 90
     4
 10
212.500023
 20
-131.249941
 42
0.000000
 10
-152.500018
 20
-131.249941
 42
0.000000
 10
-152.500018
 20
-136.249941
 42
0.000000
 10
212.500023
 20
-136.249941
 42
0.000000
  0
ENDBLK
  5
493
100
AcDbEntity
  8
0
100
AcDbBlockEnd
  0
BLOCK
  5
494
100
AcDbEntity
  8
L
100
AcDbBlockBegin
  2
B-16
 70
    66
 10
0.000000
 20
0.000000
 30
0.000000
  0
LWPOLYLINE
  5
495
100
AcDbEntity
  8
L
  6
CONTINUOUS
 62
     3
100
AcDbPolyline
 90
     4
 10
-212.500018
 20
-136.249941
 42
0.000000
 10
-152.500018
 20
-136.249941
 42
0.000000
 10
-152.500018
 20
-126.249941
 42
0.000000
 10
-212.500018
 20
-126.249941
 42
0.000000
  0
ENDBLK
  5
49A
100
AcDbEntity
  8
0
100
AcDbBlockEnd
  0
BLOCK
  5
49B
100
AcDbEntity
  8
SCHRAFF
100
AcDbBlockBegin
  2
B-17
 70
    66
 10
0.000000
 20
0.000000
 30
0.000000
  0
HATCH
  5
49C
100
AcDbEntity
  8
SCHRAFF
 62
     9
440
     0
100
AcDbHatch
 10
0.000000
 20
0.000000
 30
0.000000
210
0.000000
220
0.000000
230
1.000000
  2
SOLID
 70
     1
 71
     1
 91
     1
 92
    18
 72
     1
 73
     0
 93
     5
 10
212.500023
 20
-47.249941
 42
0.000000
 10
-61.500018
 20
-47.249941
 42
0.000000
 10
-61.500018
 20
-51.249941
 42
0.000000
 10
212.500023
 20
-51.249941
 42
0.000000
 10
212.500023
 20
-47.249941
 42
0.000000
 97
     0
 75
     0
 76
     1
 98
     0
  0
ENDBLK
  5
49D
100
AcDbEntity
  8
0
100
AcDbBlockEnd
  0
BLOCK
  5
49E
100
AcDbEntity
  8
SCHRAFF
100
AcDbBlockBegin
  2
B-18
 70
    66
 10
0.000000
 20
0.000000
 30
0.000000
  0
HATCH
  5
49F
100
AcDbEntity
  8
SCHRAFF
 62
     9
440
     0
100
AcDbHatch
 10
0.000000
 20
0.000000
 30
0.000000
210
0.000000
220
0.000000
230
1.000000
  2
SOLID
 70
     1
 71
     1
 91
     1
 92
    18
 72
     1
 73
     0
 93
     7
 10
-63.500018
 20
-30.249941
 42
0.000000
 10
-63.500018
 20
296.250078
 42
0.000000
 10
-67.500018
 20
296.250078
 42
0.000000
 10
-67.500018
 20
-23.249941
 42
0.000000
 10
-65.500018
 20
-23.249941
 42
0.000000
 10
-65.500018
 20
-30.249941
 42
0.000000
 10
-63.500018
 20
-30.249941
 42
0.000000
 97
     0
 75
     0
 76
     1
 98
     0
  0
ENDBLK
  5
4A0
100
AcDbEntity
  8
0
100
AcDbBlockEnd
  0
BLOCK
  5
4A1
100
AcDbEntity
  8
SCHRAFF
100
AcDbBlockBegin
  2
B-19
 70
    66
 10
0.000000
 20
0.000000
 30
0.000000
  0
HATCH
  5
4A2
100
AcDbEntity
  8
SCHRAFF
  6
CONTINUOUS
 62
     9
100
AcDbHatch
 10
0.000000
 20
0.000000
 30
0.000000
210
0.000000
220
0.000000
230
1.000000
  2
_U
 70
     0
 71
     1
 91
     1
 92
    18
 72
     1
 73
     0
 93
     5
 10
-212.500018
 20
-136.249941
 42
0.000000
 10
-212.500018
 20
-196.249941
 42
0.000000
 10
212.500023
 20
-196.249941
 42
0.000000
 10
212.500023
 20
-136.249941
 42
0.000000
 10
-212.500018
 20
-136.249941
 42
0.000000
 97
     0
 75
     0
 76
     0
 52
0.000000
 41
1.000000
 77
     0
 78
     1
 53
45.000000
 43
-0.000000
 44
0.000000
 45
-17.677670
 46
17.677670
 79
     0
 98
     0
  0
ENDBLK
  5
4A3
100
AcDbEntity
  8
0
100
AcDbBlockEnd
  0
BLOCK
  5
4A4
100
AcDbEntity
  8
Detail
100
AcDbBlockBegin
  2
B-20
 70
    66
 10
0.000000
 20
0.000000
 30
0.000000
  0
ENDBLK
  5
4A5
100
AcDbEntity
  8
0
100
AcDbBlockEnd
  0
BLOCK
  5
4A6
100
AcDbEntity
  8
Detail
100
AcDbBlockBegin
  2
B-21
 70
    66
 10
0.000000
 20
0.000000
 30
0.000000
  0
LWPOLYLINE
  5
4A7
100
AcDbEntity
  8
Detail
  6
CONTINUOUS
 62
     2
100
AcDbPolyline
 90
     2
 10
212.500023
 20
-136.249941
 42
0.000000
 10
-212.500018
 20
-136.249941
 42
0.000000
  0
ENDBLK
  5
4AA
100
AcDbEntity
  8
0
100
AcDbBlockEnd
  0
BLOCK
  5
4AB
100
AcDbEntity
  8
Detail
100
AcDbBlockBegin
  2
B-22
 70
    66
 10
0.000000
 20
0.000000
 30
0.000000
  0
LWPOLYLINE
  5
4AC
100
AcDbEntity
  8
Detail
  6
CONTINUOUS
 62
     6
100
AcDbPolyline
 90
     6
 10
-67.500018
 20
296.250078
 42
0.000000
 10
-67.500018
 20
-23.249941
 42
0.000000
 10
-65.500018
 20
-23.249941
 42
0.000000
 10
-65.500018
 20
-30.249941
 42
0.000000
 10
-63.500018
 20
-30.249941
 42
0.000000
 10
-63.500018
 20
296.250078
 42
0.000000
  0
ENDBLK
  5
4B3
100
AcDbEntity
  8
0
100
AcDbBlockEnd
  0
BLOCK
  5
4B4
100
AcDbEntity
  8
Detail
100
AcDbBlockBegin
  2
B-23
 70
    66
 10
0.000000
 20
0.000000
 30
0.000000
  0
LWPOLYLINE
  5
4B5
100
AcDbEntity
  8
Detail
  6
CONTINUOUS
 62
     6
100
AcDbPolyline
 90
   329
 10
-61.500018
 20
296.250059
 42
0.000000
 10
-62.000018
 20
295.250059
 42
0.000000
 10
-61.500018
 20
294.250059
 42
0.000000
 10
-61.500018
 20
293.250059
 42
0.000000
 10
-61.000018
 20
292.250059
 42
0.000000
 10
-61.500018
 20
291.250059
 42
0.000000
 10
-61.500018
 20
290.250059
 42
0.000000
 10
-62.000018
 20
289.250059
 42
0.000000
 10
-61.500018
 20
288.250059
 42
0.000000
 10
-61.500018
 20
287.250059
 42
0.000000
 10
-61.000018
 20
286.250059
 42
0.000000
 10
-61.500018
 20
285.242392
 42
0.000000
 10
-61.500018
 20
284.250059
 42
0.000000
 10
-62.000018
 20
283.250059
 42
0.000000
 10
-61.500018
 20
282.250059
 42
0.000000
 10
-61.500018
 20
281.250059
 42
0.000000
 10
-61.000018
 20
280.250059
 42
0.000000
 10
-61.500018
 20
279.250059
 42
0.000000
 10
-61.500018
 20
278.250059
 42
0.000000
 10
-62.000018
 20
277.250059
 42
0.000000
 10
-61.500018
 20
276.250059
 42
0.000000
 10
-61.500018
 20
275.250059
 42
0.000000
 10
-61.000018
 20
274.250059
 42
0.000000
 10
-61.500018
 20
273.250059
 42
0.000000
 10
-61.500018
 20
272.250059
 42
0.000000
 10
-62.000018
 20
271.250059
 42
0.000000
 10
-61.500018
 20
270.250059
 42
0.000000
 10
-61.500018
 20
269.250059
 42
0.000000
 10
-61.000018
 20
268.250059
 42
0.000000
 10
-61.500018
 20
267.250059
 42
0.000000
 10
-61.500018
 20
266.250059
 42
0.000000
 10
-62.000018
 20
265.250059
 42
0.000000
 10
-61.500018
 20
264.250059
 42
0.000000
 10
-61.500018
 20
263.250059
 42
0.000000
 10
-61.000018
 20
262.250059
 42
0.000000
 10
-61.500018
 20
261.250059
 42
0.000000
 10
-61.500018
 20
260.250059
 42
0.000000
 10
-62.000018
 20
259.250059
 42
0.000000
 10
-61.500018
 20
258.250059
 42
0.000000
 10
-61.500018
 20
257.250059
 42
0.000000
 10
-61.000018
 20
256.250059
 42
0.000000
 10
-61.500018
 20
255.250059
 42
0.000000
 10
-61.500018
 20
254.250059
 42
0.000000
 10
-62.000018
 20
253.250059
 42
0.000000
 10
-61.500018
 20
252.250059
 42
0.000000
 10
-61.500018
 20
251.250059
 42
0.000000
 10
-61.000018
 20
250.250059
 42
0.000000
 10
-61.500018
 20
249.242392
 42
0.000000
 10
-61.500018
 20
248.250059
 42
0.000000
 10
-62.000018
 20
247.250059
 42
0.000000
 10
-61.500018
 20
246.250059
 42
0.000000
 10
-61.500018
 20
245.250059
 42
0.000000
 10
-61.000018
 20
244.250059
 42
0.000000
 10
-61.500018
 20
243.250059
 42
0.000000
 10
-61.500018
 20
242.250059
 42
0.000000
 10
-62.000018
 20
241.250059
 42
0.000000
 10
-61.500018
 20
240.250059
 42
0.000000
 10
-61.500018
 20
239.250059
 42
0.000000
 10
-61.000018
 20
238.250059
 42
0.000000
 10
-61.500018
 20
237.250059
 42
0.000000
 10
-61.500018
 20
236.250059
 42
0.000000
 10
-62.000018
 20
235.250059
 42
0.000000
 10
-61.500018
 20
234.250059
 42
0.000000
 10
-61.500018
 20
233.250059
 42
0.000000
 10
-61.000018
 20
232.250059
 42
0.000000
 10
-61.500018
 20
231.250059
 42
0.000000
 10
-61.500018
 20
230.250059
 42
0.000000
 10
-62.000018
 20
229.250059
 42
0.000000
 10
-61.500018
 20
228.250059
 42
0.000000
 10
-61.500018
 20
227.250059
 42
0.000000
 10
-61.000018
 20
226.250059
 42
0.000000
 10
-61.500018
 20
225.250059
 42
0.000000
 10
-61.500018
 20
224.250059
 42
0.000000
 10
-62.000018
 20
223.250059
 42
0.000000
 10
-61.500018
 20
222.250059
 42
0.000000
 10
-61.500018
 20
221.250059
 42
0.000000
 10
-61.000018
 20
220.250059
 42
0.000000
 10
-61.500018
 20
219.250059
 42
0.000000
 10
-61.500018
 20
218.250059
 42
0.000000
 10
-62.000018
 20
217.250059
 42
0.000000
 10
-61.500018
 20
216.250059
 42
0.000000
 10
-61.500018
 20
215.250059
 42
0.000000
 10
-61.000018
 20
214.250059
 42
0.000000
 10
-61.500018
 20
213.250059
 42
0.000000
 10
-61.500018
 20
212.250059
 42
0.000000
 10
-62.000018
 20
211.250059
 42
0.000000
 10
-61.500018
 20
210.250059
 42
0.000000
 10
-61.500018
 20
209.250059
 42
0.000000
 10
-61.000018
 20
208.250059
 42
0.000000
 10
-61.500018
 20
207.250059
 42
0.000000
 10
-61.500018
 20
206.250059
 42
0.000000
 10
-62.000018
 20
205.250059
 42
0.000000
 10
-61.500018
 20
204.250059
 42
0.000000
 10
-61.500018
 20
203.250059
 42
0.000000
 10
-61.000018
 20
202.250059
 42
0.000000
 10
-61.500018
 20
201.250059
 42
0.000000
 10
-61.500018
 20
200.250059
 42
0.000000
 10
-62.000018
 20
199.250059
 42
0.000000
 10
-61.500018
 20
198.250059
 42
0.000000
 10
-61.500018
 20
197.250059
 42
0.000000
 10
-61.000018
 20
196.250059
 42
0.000000
 10
-61.500018
 20
195.250059
 42
0.000000
 10
-61.500018
 20
194.250059
 42
0.000000
 10
-62.000018
 20
193.250059
 42
0.000000
 10
-61.500018
 20
192.250059
 42
0.000000
 10
-61.500018
 20
191.250059
 42
0.000000
 10
-61.000018
 20
190.250059
 42
0.000000
 10
-61.500018
 20
189.250059
 42
0.000000
 10
-61.500018
 20
188.250059
 42
0.000000
 10
-62.000018
 20
187.250059
 42
0.000000
 10
-61.500018
 20
186.250059
 42
0.000000
 10
-61.500018
 20
185.250059
 42
0.000000
 10
-61.000018
 20
184.250059
 42
0.000000
 10
-61.500018
 20
183.250059
 42
0.000000
 10
-61.500018
 20
182.250059
 42
0.000000
 10
-62.000018
 20
181.250059
 42
0.000000
 10
-61.500018
 20
180.250059
 42
0.000000
 10
-61.500018
 20
179.250059
 42
0.000000
 10
-61.000018
 20
178.250059
 42
0.000000
 10
-61.500018
 20
177.250059
 42
0.000000
 10
-61.500018
 20
176.250059
 42
0.000000
 10
-62.000018
 20
175.250059
 42
0.000000
 10
-61.500018
 20
174.250059
 42
0.000000
 10
-61.495620
 20
173.241263
 42
0.000000
 10
-61.000018
 20
172.250059
 42
0.000000
 10
-61.500018
 20
171.250059
 42
0.000000
 10
-61.500018
 20
170.250059
 42
0.000000
 10
-62.000018
 20
169.250059
 42
0.000000
 10
-61.500018
 20
168.250059
 42
0.000000
 10
-61.500018
 20
167.250059
 42
0.000000
 10
-61.000018
 20
166.250059
 42
0.000000
 10
-61.500018
 20
165.250059
 42
0.000000
 10
-61.500018
 20
164.250059
 42
0.000000
 10
-62.000018
 20
163.250059
 42
0.000000
 10
-61.500018
 20
162.250059
 42
0.000000
 10
-61.500018
 20
161.250059
 42
0.000000
 10
-61.000018
 20
160.250059
 42
0.000000
 10
-61.500018
 20
159.250059
 42
0.000000
 10
-61.500018
 20
158.250059
 42
0.000000
 10
-62.000018
 20
157.250059
 42
0.000000
 10
-61.500018
 20
156.250059
 42
0.000000
 10
-61.500018
 20
155.250059
 42
0.000000
 10
-61.000018
 20
154.250059
 42
0.000000
 10
-61.500018
 20
153.250059
 42
0.000000
 10
-61.500018
 20
152.250059
 42
0.000000
 10
-62.000018
 20
151.250059
 42
0.000000
 10
-61.500018
 20
150.250059
 42
0.000000
 10
-61.500018
 20
149.250059
 42
0.000000
 10
-61.000018
 20
148.250059
 42
0.000000
 10
-61.500018
 20
147.250059
 42
0.000000
 10
-61.500018
 20
146.250059
 42
0.000000
 10
-62.000018
 20
145.250059
 42
0.000000
 10
-61.500018
 20
144.250059
 42
0.000000
 10
-61.500018
 20
143.250059
 42
0.000000
 10
-61.000018
 20
142.250059
 42
0.000000
 10
-61.500018
 20
141.242392
 42
0.000000
 10
-61.500018
 20
140.250059
 42
0.000000
 10
-62.000018
 20
139.250059
 42
0.000000
 10
-61.500018
 20
138.250059
 42
0.000000
 10
-61.500018
 20
137.250059
 42
0.000000
 10
-61.000018
 20
136.250059
 42
0.000000
 10
-61.500018
 20
135.250059
 42
0.000000
 10
-61.500018
 20
134.250059
 42
0.000000
 10
-62.000018
 20
133.250059
 42
0.000000
 10
-61.500018
 20
132.250059
 42
0.000000
 10
-61.500018
 20
131.250059
 42
0.000000
 10
-61.000018
 20
130.250059
 42
0.000000
 10
-61.500018
 20
129.250059
 42
0.000000
 10
-61.500018
 20
128.250059
 42
0.000000
 10
-62.000018
 20
127.250059
 42
0.000000
 10
-61.500018
 20
126.250059
 42
0.000000
 10
-61.500018
 20
125.250059
 42
0.000000
 10
-61.000018
 20
124.250059
 42
0.000000
 10
-61.500018
 20
123.250059
 42
0.000000
 10
-61.500018
 20
122.250059
 42
0.000000
 10
-62.000018
 20
121.250059
 42
0.000000
 10
-61.500018
 20
120.250059
 42
0.000000
 10
-61.500018
 20
119.250059
 42
0.000000
 10
-61.000018
 20
118.250059
 42
0.000000
 10
-61.500018
 20
117.250059
 42
0.000000
 10
-61.500018
 20
116.250059
 42
0.000000
 10
-62.000018
 20
115.250059
 42
0.000000
 10
-61.500018
 20
114.250059
 42
0.000000
 10
-61.500018
 20
113.250059
 42
0.000000
 10
-61.000018
 20
112.250059
 42
0.000000
 10
-61.500018
 20
111.250059
 42
0.000000
 10
-61.500018
 20
110.250059
 42
0.000000
 10
-62.000018
 20
109.250059
 42
0.000000
 10
-61.500018
 20
108.250059
 42
0.000000
 10
-61.500018
 20
107.250059
 42
0.000000
 10
-61.000018
 20
106.250059
 42
0.000000
 10
-61.500018
 20
105.250059
 42
0.000000
 10
-61.500018
 20
104.250059
 42
0.000000
 10
-62.000018
 20
103.250059
 42
0.000000
 10
-61.500018
 20
102.250059
 42
0.000000
 10
-61.500018
 20
101.250059
 42
0.000000
 10
-61.000018
 20
100.250059
 42
0.000000
 10
-61.500018
 20
99.250059
 42
0.000000
 10
-61.500018
 20
98.250059
 42
0.000000
 10
-62.000018
 20
97.250059
 42
0.000000
 10
-61.500018
 20
96.250059
 42
0.000000
 10
-61.500018
 20
95.250059
 42
0.000000
 10
-61.000018
 20
94.250059
 42
0.000000
 10
-61.500018
 20
93.250059
 42
0.000000
 10
-61.500018
 20
92.250059
 42
0.000000
 10
-62.000018
 20
91.250059
 42
0.000000
 10
-61.500018
 20
90.250059
 42
0.000000
 10
-61.500018
 20
89.250059
 42
0.000000
 10
-61.000018
 20
88.250059
 42
0.000000
 10
-61.500018
 20
87.250059
 42
0.000000
 10
-61.500018
 20
86.250059
 42
0.000000
 10
-62.000018
 20
85.250059
 42
0.000000
 10
-61.500018
 20
84.250059
 42
0.000000
 10
-61.500018
 20
83.250059
 42
0.000000
 10
-61.000018
 20
82.250059
 42
0.000000
 10
-61.500018
 20
81.250059
 42
0.000000
 10
-61.500018
 20
80.250059
 42
0.000000
 10
-62.000018
 20
79.250059
 42
0.000000
 10
-61.500018
 20
78.250059
 42
0.000000
 10
-61.500018
 20
77.250059
 42
0.000000
 10
-61.000018
 20
76.250059
 42
0.000000
 10
-61.500018
 20
75.250059
 42
0.000000
 10
-61.500018
 20
74.250059
 42
0.000000
 10
-62.000018
 20
73.250059
 42
0.000000
 10
-61.500018
 20
72.250059
 42
0.000000
 10
-61.500018
 20
71.250059
 42
0.000000
 10
-61.000018
 20
70.250059
 42
0.000000
 10
-61.500018
 20
69.250059
 42
0.000000
 10
-61.500018
 20
68.250059
 42
0.000000
 10
-62.000018
 20
67.250059
 42
0.000000
 10
-61.500018
 20
66.250059
 42
0.000000
 10
-61.500018
 20
65.250059
 42
0.000000
 10
-61.000018
 20
64.250059
 42
0.000000
 10
-61.500018
 20
63.250059
 42
0.000000
 10
-61.500018
 20
62.250059
 42
0.000000
 10
-62.000018
 20
61.250059
 42
0.000000
 10
-61.500018
 20
60.250059
 42
0.000000
 10
-61.500018
 20
59.250059
 42
0.000000
 10
-61.000018
 20
58.250059
 42
0.000000
 10
-61.500018
 20
57.250059
 42
0.000000
 10
-61.500018
 20
56.250059
 42
0.000000
 10
-62.000018
 20
55.250059
 42
0.000000
 10
-61.500018
 20
54.250059
 42
0.000000
 10
-61.500018
 20
53.250059
 42
0.000000
 10
-61.000018
 20
52.250059
 42
0.000000
 10
-61.500018
 20
51.250059
 42
0.000000
 10
-61.500018
 20
50.250059
 42
0.000000
 10
-62.000018
 20
49.250059
 42
0.000000
 10
-61.500018
 20
48.250059
 42
0.000000
 10
-61.500018
 20
47.250059
 42
0.000000
 10
-61.000018
 20
46.250059
 42
0.000000
 10
-61.500018
 20
45.250059
 42
0.000000
 10
-61.500018
 20
44.250059
 42
0.000000
 10
-62.000018
 20
43.250059
 42
0.000000
 10
-61.500018
 20
42.250059
 42
0.000000
 10
-61.500018
 20
41.250059
 42
0.000000
 10
-61.000018
 20
40.250059
 42
0.000000
 10
-61.500018
 20
39.250059
 42
0.000000
 10
-61.500018
 20
38.250059
 42
0.000000
 10
-62.000018
 20
37.250059
 42
0.000000
 10
-61.500018
 20
36.250059
 42
0.000000
 10
-61.500018
 20
35.250059
 42
0.000000
 10
-61.000018
 20
34.250059
 42
0.000000
 10
-61.500018
 20
33.250059
 42
0.000000
 10
-61.500018
 20
32.250059
 42
0.000000
 10
-62.000018
 20
31.250059
 42
0.000000
 10
-61.500018
 20
30.250059
 42
0.000000
 10
-61.500018
 20
29.250059
 42
0.000000
 10
-61.000018
 20
28.250059
 42
0.000000
 10
-61.500018
 20
27.250059
 42
0.000000
 10
-61.500018
 20
26.250059
 42
0.000000
 10
-62.000018
 20
25.250059
 42
0.000000
 10
-61.500018
 20
24.250059
 42
0.000000
 10
-61.500018
 20
23.250059
 42
0.000000
 10
-61.000018
 20
22.250059
 42
0.000000
 10
-61.500018
 20
21.250059
 42
0.000000
 10
-61.500018
 20
20.250059
 42
0.000000
 10
-62.000018
 20
19.250059
 42
0.000000
 10
-61.500018
 20
18.250059
 42
0.000000
 10
-61.500018
 20
17.250059
 42
0.000000
 10
-61.000018
 20
16.250059
 42
0.000000
 10
-61.500018
 20
15.250059
 42
0.000000
 10
-61.500018
 20
14.250059
 42
0.000000
 10
-62.000018
 20
13.250059
 42
0.000000
 10
-61.500018
 20
12.250059
 42
0.000000
 10
-61.500018
 20
11.250059
 42
0.000000
 10
-61.000018
 20
10.250059
 42
0.000000
 10
-61.500018
 20
9.250059
 42
0.000000
 10
-61.500018
 20
8.250059
 42
0.000000
 10
-62.000018
 20
7.250059
 42
0.000000
 10
-61.500018
 20
6.250059
 42
0.000000
 10
-61.500018
 20
5.250059
 42
0.000000
 10
-61.000018
 20
4.250059
 42
0.000000
 10
-61.500018
 20
3.242392
 42
0.000000
 10
-61.500018
 20
2.250059
 42
0.000000
 10
-62.000018
 20
1.250059
 42
0.000000
 10
-61.500018
 20
0.250059
 42
0.000000
 10
-61.500018
 20
-0.749941
 42
0.000000
 10
-61.000018
 20
-1.749941
 42
0.000000
 10
-61.500018
 20
-2.749941
 42
0.000000
 10
-61.500018
 20
-3.749941
 42
0.000000
 10
-62.000018
 20
-4.749941
 42
0.000000
 10
-61.500018
 20
-5.749941
 42
0.000000
 10
-61.500018
 20
-6.749941
 42
0.000000
 10
-61.000018
 20
-7.749941
 42
0.000000
 10
-61.500018
 20
-8.749941
 42
0.000000
 10
-61.500018
 20
-9.749941
 42
0.000000
 10
-62.000018
 20
-10.749941
 42
0.000000
 10
-61.500018
 20
-11.749941
 42
0.000000
 10
-61.500018
 20
-12.749941
 42
0.000000
 10
-61.000018
 20
-13.749941
 42
0.000000
 10
-61.500018
 20
-14.749941
 42
0.000000
 10
-61.500018
 20
-15.749941
 42
0.000000
 10
-62.000018
 20
-16.749941
 42
0.000000
 10
-61.500018
 20
-17.749941
 42
0.000000
 10
-61.500018
 20
-18.749941
 42
0.000000
 10
-61.007096
 20
-19.764098
 42
0.000000
 10
-61.500018
 20
-20.749941
 42
0.000000
 10
-61.500018
 20
-21.749941
 42
0.000000
 10
-62.000018
 20
-22.749941
 42
0.000000
 10
-61.500018
 20
-23.749941
 42
0.000000
 10
-61.500018
 20
-24.749941
 42
0.000000
 10
-61.000018
 20
-25.749941
 42
0.000000
 10
-61.500018
 20
-26.749941
 42
0.000000
 10
-61.500018
 20
-27.749941
 42
0.000000
 10
-62.000018
 20
-28.749941
 42
0.000000
 10
-61.500018
 20
-29.760137
 42
0.000000
 10
-61.500018
 20
-30.749941
 42
0.000000
 10
-63.500018
 20
-32.249941
 42
0.000000
  0
ENDBLK
  5
5FF
100
AcDbEntity
  8
0
100
AcDbBlockEnd
  0
BLOCK
  5
600
100
AcDbEntity
  8
Detail
100
AcDbBlockBegin
  2
B-24
 70
    66
 10
0.000000
 20
0.000000
 30
0.000000
  0
LWPOLYLINE
  5
601
100
AcDbEntity
  8
Detail
  6
HIDDEN
 62
     9
100
AcDbPolyline
 90
     2
 10
-64.500018
 20
296.250078
 42
0.000000
 10
-64.500018
 20
-30.249941
 42
0.000000
  0
ENDBLK
  5
604
100
AcDbEntity
  8
0
100
AcDbBlockEnd
  0
BLOCK
  5
605
100
AcDbEntity
  8
Detail
100
AcDbBlockBegin
  2
B-25
 70
    66
 10
0.000000
 20
0.000000
 30
0.000000
  0
LWPOLYLINE
  5
606
100
AcDbEntity
  8
Detail
  6
HIDDEN
 62
     9
100
AcDbPolyline
 90
     2
 10
-61.500018
 20
-48.249941
 42
0.000000
 10
212.500023
 20
-48.249941
 42
0.000000
  0
LWPOLYLINE
  5
609
100
AcDbEntity
  8
Detail
  6
CONTINUOUS
 62
     6
100
AcDbPolyline
 90
     4
 10
212.500023
 20
-51.249941
 42
0.000000
 10
-61.500018
 20
-51.249941
 42
0.000000
 10
-61.500018
 20
-47.249941
 42
0.000000
 10
212.500023
 20
-47.249941
 42
0.000000
  0
ENDBLK
  5
60E
100
AcDbEntity
  8
0
100
AcDbBlockEnd
  0
BLOCK
  5
60F
100
AcDbEntity
  8
Detail
100
AcDbBlockBegin
  2
B-26
 70
    66
 10
0.000000
 20
0.000000
 30
0.000000
  0
MTEXT
  5
611
100
AcDbEntity
  8
Detail
 62
     7
100
AcDbMText
 10
79.375020
 20
87.250056
 30
0.000000
 40
4.999990
 41
59.482357
 71
     1
 72
     5
  1
WDVS-Dämmstoff
  7
Arial
 50
0.000000
  0
ENDBLK
  5
612
100
AcDbEntity
  8
0
100
AcDbBlockEnd
  0
BLOCK
  5
613
100
AcDbEntity
  8
Detail
100
AcDbBlockBegin
  2
B-27
 70
    66
 10
0.000000
 20
0.000000
 30
0.000000
  0
MTEXT
  5
614
100
AcDbEntity
  8
Detail
 62
     7
100
AcDbMText
 10
79.375020
 20
62.250056
 30
0.000000
 40
4.999990
 41
60.059856
 71
     1
 72
     5
  1
Armierungsschicht
  7
Arial
 50
0.000000
  0
ENDBLK
  5
615
100
AcDbEntity
  8
0
100
AcDbBlockEnd
  0
BLOCK
  5
616
100
AcDbEntity
  8
Detail
100
AcDbBlockBegin
  2
B-28
 70
    66
 10
0.000000
 20
0.000000
 30
0.000000
  0
MTEXT
  5
617
100
AcDbEntity
  8
Detail
 62
     7
100
AcDbMText
 10
79.375020
 20
37.250056
 30
0.000000
 40
4.999990
 41
30.449927
 71
     1
 72
     5
  1
Deckputz
  7
Arial
 50
0.000000
  0
ENDBLK
  5
618
100
AcDbEntity
  8
0
100
AcDbBlockEnd
  0
BLOCK
  5
619
100
AcDbEntity
  8
Detail
100
AcDbBlockBegin
  2
B-29
 70
    66
 10
0.000000
 20
0.000000
 30
0.000000
  0
MTEXT
  5
61A
100
AcDbEntity
  8
Detail
 62
     7
100
AcDbMText
 10
79.375020
 20
132.250066
 30
0.000000
 40
4.999990
 41
82.372302
 71
     7
 72
     5
  1
Verdübelung versenkt mit
  7
Arial
 50
0.000000
  0
MTEXT
  5
61B
100
AcDbEntity
  8
Detail
 62
     7
100
AcDbMText
 10
79.375020
 20
124.750081
 30
0.000000
 40
4.999990
 41
82.634802
 71
     7
 72
     5
  1
Thermorondell abgedeckt
  7
Arial
 50
0.000000
  0
ENDBLK
  5
61C
100
AcDbEntity
  8
0
100
AcDbBlockEnd
  0
BLOCK
  5
61D
100
AcDbEntity
  8
Detail
100
AcDbBlockBegin
  2
B-30
 70
    66
 10
0.000000
 20
0.000000
 30
0.000000
  0
MTEXT
  5
61E
100
AcDbEntity
  8
Detail
 62
     7
100
AcDbMText
 10
79.375020
 20
12.250056
 30
0.000000
 40
4.999990
 41
50.347379
 71
     1
 72
     5
  1
MW-Dämmstoff
  7
Arial
 50
0.000000
  0
ENDBLK
  5
61F
100
AcDbEntity
  8
0
100
AcDbBlockEnd
  0
BLOCK
  5
620
100
AcDbEntity
  8
SCHRAFF
100
AcDbBlockBegin
  2
B-31
 70
    66
 10
0.000000
 20
0.000000
 30
0.000000
  0
HATCH
  5
621
100
AcDbEntity
  8
SCHRAFF
 62
     7
440
     0
100
AcDbHatch
 10
0.000000
 20
0.000000
 30
0.000000
210
0.000000
220
0.000000
230
1.000000
  2
SOLID
 70
     1
 71
     1
 91
     1
 92
    18
 72
     1
 73
     0
 93
     3
 10
-107.000018
 20
84.750056
 42
1.000000
 10
-108.000018
 20
84.750056
 42
1.000000
 10
-107.000018
 20
84.750056
 42
0.000000
 97
     0
 75
     0
 76
     1
 98
     0
  0
CIRCLE
  5
622
100
AcDbEntity
  8
Detail
  6
CONTINUOUS
 62
     7
100
AcDbCircle
 10
-107.500018
 20
84.750056
 40
0.500000
  0
ENDBLK
  5
623
100
AcDbEntity
  8
0
100
AcDbBlockEnd
  0
BLOCK
  5
624
100
AcDbEntity
  8
SCHRAFF
100
AcDbBlockBegin
  2
B-32
 70
    66
 10
0.000000
 20
0.000000
 30
0.000000
  0
HATCH
  5
625
100
AcDbEntity
  8
SCHRAFF
 62
     7
440
     0
100
AcDbHatch
 10
0.000000
 20
0.000000
 30
0.000000
210
0.000000
220
0.000000
230
1.000000
  2
SOLID
 70
     1
 71
     1
 91
     1
 92
    18
 72
     1
 73
     0
 93
     3
 10
-65.000018
 20
59.750057
 42
1.000000
 10
-66.000018
 20
59.750057
 42
1.000000
 10
-65.000018
 20
59.750057
 42
0.000000
 97
     0
 75
     0
 76
     1
 98
     0
  0
CIRCLE
  5
626
100
AcDbEntity
  8
Detail
  6
CONTINUOUS
 62
     7
100
AcDbCircle
 10
-65.500018
 20
59.750057
 40
0.500000
  0
ENDBLK
  5
627
100
AcDbEntity
  8
0
100
AcDbBlockEnd
  0
BLOCK
  5
628
100
AcDbEntity
  8
SCHRAFF
100
AcDbBlockBegin
  2
B-33
 70
    66
 10
0.000000
 20
0.000000
 30
0.000000
  0
HATCH
  5
629
100
AcDbEntity
  8
SCHRAFF
 62
     7
440
     0
100
AcDbHatch
 10
0.000000
 20
0.000000
 30
0.000000
210
0.000000
220
0.000000
230
1.000000
  2
SOLID
 70
     1
 71
     1
 91
     1
 92
    18
 72
     1
 73
     0
 93
     3
 10
-62.000018
 20
34.750058
 42
1.000000
 10
-63.000018
 20
34.750058
 42
1.000000
 10
-62.000018
 20
34.750058
 42
0.000000
 97
     0
 75
     0
 76
     1
 98
     0
  0
CIRCLE
  5
62A
100
AcDbEntity
  8
Detail
  6
CONTINUOUS
 62
     7
100
AcDbCircle
 10
-62.500018
 20
34.750058
 40
0.500000
  0
ENDBLK
  5
62B
100
AcDbEntity
  8
0
100
AcDbBlockEnd
  0
BLOCK
  5
62C
100
AcDbEntity
  8
SCHRAFF
100
AcDbBlockBegin
  2
B-34
 70
    66
 10
0.000000
 20
0.000000
 30
0.000000
  0
HATCH
  5
62D
100
AcDbEntity
  8
SCHRAFF
 62
     7
440
     0
100
AcDbHatch
 10
0.000000
 20
0.000000
 30
0.000000
210
0.000000
220
0.000000
230
1.000000
  2
SOLID
 70
     1
 71
     1
 91
     1
 92
    18
 72
     1
 73
     0
 93
     3
 10
-85.500018
 20
134.750056
 42
1.000000
 10
-86.500018
 20
134.750056
 42
1.000000
 10
-85.500018
 20
134.750056
 42
0.000000
 97
     0
 75
     0
 76
     1
 98
     0
  0
CIRCLE
  5
62E
100
AcDbEntity
  8
Detail
  6
CONTINUOUS
 62
     7
100
AcDbCircle
 10
-86.000018
 20
134.750056
 40
0.500000
  0
ENDBLK
  5
62F
100
AcDbEntity
  8
0
100
AcDbBlockEnd
  0
BLOCK
  5
630
100
AcDbEntity
  8
SCHRAFF
100
AcDbBlockBegin
  2
B-35
 70
    66
 10
0.000000
 20
0.000000
 30
0.000000
  0
HATCH
  5
631
100
AcDbEntity
  8
SCHRAFF
  6
CONTINUOUS
 62
     9
100
AcDbHatch
 10
0.000000
 20
0.000000
 30
0.000000
210
0.000000
220
0.000000
230
1.000000
  2
_U
 70
     0
 71
     1
 91
     1
 92
    18
 72
     1
 73
     0
 93
     5
 10
-152.500018
 20
-126.249941
 42
0.000000
 10
-152.500018
 20
296.250078
 42
0.000000
 10
-212.500018
 20
296.250078
 42
0.000000
 10
-212.500018
 20
-126.249941
 42
0.000000
 10
-152.500018
 20
-126.249941
 42
0.000000
 97
     0
 75
     0
 76
     0
 52
0.000000
 41
1.000000
 77
     0
 78
     1
 53
45.000000
 43
-0.000000
 44
0.000000
 45
-17.677670
 46
17.677670
 79
     0
 98
     0
  0
ENDBLK
  5
632
100
AcDbEntity
  8
0
100
AcDbBlockEnd
  0
BLOCK
  5
633
100
AcDbEntity
  8
L
100
AcDbBlockBegin
  2
B-36
 70
    66
 10
0.000000
 20
0.000000
 30
0.000000
  0
LWPOLYLINE
  5
634
100
AcDbEntity
  8
L
  6
CONTINUOUS
 62
     3
100
AcDbPolyline
 90
     5
 10
-91.500018
 20
-49.249941
 42
0.000000
 10
-150.500018
 20
-49.249941
 42
0.000000
 10
-150.500018
 20
-25.249941
 42
0.000000
 10
-91.500018
 20
-25.249941
 42
0.000000
 10
-91.500018
 20
-49.249941
 42
0.000000
  0
ENDBLK
  5
63A
100
AcDbEntity
  8
0
100
AcDbBlockEnd
  0
BLOCK
  5
63B
100
AcDbEntity
  8
SCHRAFF
100
AcDbBlockBegin
  2
B-37
 70
    66
 10
0.000000
 20
0.000000
 30
0.000000
  0
HATCH
  5
63C
100
AcDbEntity
  8
SCHRAFF
 62
     7
440
     0
100
AcDbHatch
 10
0.000000
 20
0.000000
 30
0.000000
210
0.000000
220
0.000000
230
1.000000
  2
SOLID
 70
     1
 71
     1
 91
     1
 92
    18
 72
     1
 73
     0
 93
     3
 10
-120.500018
 20
-37.249941
 42
1.000000
 10
-121.500018
 20
-37.249941
 42
1.000000
 10
-120.500018
 20
-37.249941
 42
0.000000
 97
     0
 75
     0
 76
     1
 98
     0
  0
CIRCLE
  5
63D
100
AcDbEntity
  8
Detail
  6
CONTINUOUS
 62
     7
100
AcDbCircle
 10
-121.000018
 20
-37.249941
 40
0.500000
  0
ENDBLK
  5
63E
100
AcDbEntity
  8
0
100
AcDbBlockEnd
  0
BLOCK
  5
63F
100
AcDbEntity
  8
Detail
100
AcDbBlockBegin
  2
B-38
 70
    66
 10
0.000000
 20
0.000000
 30
0.000000
  0
MTEXT
  5
640
100
AcDbEntity
  8
Detail
 62
     7
100
AcDbMText
 10
79.375020
 20
112.250056
 30
0.000000
 40
4.999990
 41
38.902407
 71
     1
 72
     5
  1
Klebemörtel
  7
Arial
 50
0.000000
  0
ENDBLK
  5
641
100
AcDbEntity
  8
0
100
AcDbBlockEnd
  0
BLOCK
  5
642
100
AcDbEntity
  8
SCHRAFF
100
AcDbBlockBegin
  2
B-39
 70
    66
 10
0.000000
 20
0.000000
 30
0.000000
  0
HATCH
  5
643
100
AcDbEntity
  8
SCHRAFF
 62
     7
440
     0
100
AcDbHatch
 10
0.000000
 20
0.000000
 30
0.000000
210
0.000000
220
0.000000
230
1.000000
  2
SOLID
 70
     1
 71
     1
 91
     1
 92
    18
 72
     1
 73
     0
 93
     3
 10
-149.500018
 20
109.750056
 42
1.000000
 10
-150.500018
 20
109.750056
 42
1.000000
 10
-149.500018
 20
109.750056
 42
0.000000
 97
     0
 75
     0
 76
     1
 98
     0
  0
CIRCLE
  5
644
100
AcDbEntity
  8
Detail
  6
CONTINUOUS
 62
     7
100
AcDbCircle
 10
-150.000018
 20
109.750056
 40
0.500000
  0
ENDBLK
  5
645
100
AcDbEntity
  8
0
100
AcDbBlockEnd
  0
BLOCK
  5
646
100
AcDbEntity
  8
Detail
100
AcDbBlockBegin
  2
B-40
 70
    66
 10
0.000000
 20
0.000000
 30
0.000000
  0
LWPOLYLINE
  5
647
100
AcDbEntity
  8
Detail
  6
CONTINUOUS
 62
     9
100
AcDbPolyline
 90
     2
 10
-116.000018
 20
141.750056
 42
0.000000
 10
-116.000018
 20
127.770643
 42
0.000000
  0
LWPOLYLINE
  5
64A
100
AcDbEntity
  8
Detail
  6
CONTINUOUS
 62
     9
100
AcDbPolyline
 90
    83
 10
-87.500018
 20
104.750056
 42
0.000000
 10
-87.000018
 20
104.750056
 42
0.000000
 10
-86.000018
 20
109.750056
 42
0.000000
 10
-86.000018
 20
159.750056
 42
0.000000
 10
-87.000018
 20
164.750056
 42
0.000000
 10
-87.500018
 20
164.750056
 42
0.000000
 10
-87.500018
 20
147.750056
 42
0.000000
 10
-88.750018
 20
144.000056
 42
0.000000
 10
-92.500018
 20
142.750056
 42
0.000000
 10
-116.000018
 20
141.750056
 42
0.000000
 10
-122.000018
 20
139.250056
 42
0.000000
 10
-164.462215
 20
138.710056
 42
0.000000
 10
-165.828158
 20
138.463047
 42
0.000000
 10
-165.903911
 20
138.710056
 42
0.000000
 10
-168.686215
 20
138.710056
 42
0.000000
 10
-170.052158
 20
138.463047
 42
0.000000
 10
-170.127911
 20
138.710056
 42
0.000000
 10
-172.910215
 20
138.710056
 42
0.000000
 10
-174.276158
 20
138.463047
 42
0.000000
 10
-174.351827
 20
138.705256
 42
0.000000
 10
-177.134215
 20
138.710056
 42
0.000000
 10
-178.500158
 20
138.463047
 42
0.000000
 10
-178.575911
 20
138.710056
 42
0.000000
 10
-181.358215
 20
138.710056
 42
0.000000
 10
-182.724158
 20
138.463047
 42
0.000000
 10
-182.799911
 20
138.710056
 42
0.000000
 10
-185.582215
 20
138.710056
 42
0.000000
 10
-186.948158
 20
138.463047
 42
0.000000
 10
-187.023911
 20
138.710056
 42
0.000000
 10
-189.806215
 20
138.710056
 42
0.000000
 10
-191.172158
 20
138.463047
 42
0.000000
 10
-191.247911
 20
138.710056
 42
0.000000
 10
-194.030215
 20
138.710056
 42
0.000000
 10
-195.396158
 20
138.463047
 42
0.000000
 10
-195.471911
 20
138.710056
 42
0.000000
 10
-198.254215
 20
138.710056
 42
0.000000
 10
-199.458372
 20
138.427624
 42
0.000000
 10
-199.917355
 20
138.590055
 42
0.000000
 10
-200.894215
 20
138.155800
 42
0.000000
 10
-201.134215
 20
137.630056
 42
0.000000
 10
-201.902215
 20
137.630056
 42
0.000000
 10
-203.420108
 20
137.089088
 42
0.000000
 10
-204.253725
 20
135.710056
 42
0.000000
 10
-206.000018
 20
134.750056
 42
0.000000
 10
-204.253725
 20
133.790056
 42
0.000000
 10
-203.420108
 20
132.411024
 42
0.000000
 10
-202.157414
 20
131.883663
 42
0.000000
 10
-201.134215
 20
131.870056
 42
0.000000
 10
-200.894215
 20
131.344312
 42
0.000000
 10
-200.142059
 20
130.910056
 42
0.000000
 10
-199.692646
 20
130.910056
 42
0.000000
 10
-199.458372
 20
131.072488
 42
0.000000
 10
-198.254215
 20
130.790056
 42
0.000000
 10
-195.471911
 20
130.790056
 42
0.000000
 10
-195.396158
 20
131.037065
 42
0.000000
 10
-194.030215
 20
130.790056
 42
0.000000
 10
-191.247911
 20
130.790056
 42
0.000000
 10
-191.172158
 20
131.037065
 42
0.000000
 10
-189.806215
 20
130.790056
 42
0.000000
 10
-187.023911
 20
130.790056
 42
0.000000
 10
-186.948158
 20
131.037065
 42
0.000000
 10
-185.582215
 20
130.790056
 42
0.000000
 10
-182.799911
 20
130.790056
 42
0.000000
 10
-182.724158
 20
131.037065
 42
0.000000
 10
-181.358215
 20
130.790056
 42
0.000000
 10
-178.575911
 20
130.790056
 42
0.000000
 10
-178.500158
 20
131.037065
 42
0.000000
 10
-177.134215
 20
130.790056
 42
0.000000
 10
-174.351827
 20
130.794856
 42
0.000000
 10
-174.276158
 20
131.037065
 42
0.000000
 10
-172.910215
 20
130.790056
 42
0.000000
 10
-170.127911
 20
130.790056
 42
0.000000
 10
-170.052158
 20
131.037065
 42
0.000000
 10
-168.686215
 20
130.790056
 42
0.000000
 10
-165.903911
 20
130.790056
 42
0.000000
 10
-165.828158
 20
131.037065
 42
0.000000
 10
-164.462215
 20
130.790056
 42
0.000000
 10
-122.000018
 20
130.250056
 42
0.000000
 10
-116.000018
 20
127.750056
 42
0.000000
 10
-92.500018
 20
126.750056
 42
0.000000
 10
-88.750018
 20
125.500056
 42
0.000000
 10
-87.500018
 20
121.750056
 42
0.000000
 10
-87.500018
 20
104.750056
 42
0.000000
  0
LWPOLYLINE
  5
69E
100
AcDbEntity
  8
Detail
  6
CONTINUOUS
 62
     9
100
AcDbPolyline
 90
   203
 10
-206.000018
 20
134.750056
 42
0.000000
 10
-203.886942
 20
135.625321
 42
0.000000
 10
-203.385367
 20
136.494074
 42
0.000000
 10
-202.996692
 20
135.994074
 42
0.000000
 10
-201.916355
 20
136.441565
 42
0.000000
 10
-201.414780
 20
137.310319
 42
0.000000
 10
-201.026105
 20
136.810319
 42
0.000000
 10
-200.447328
 20
137.050056
 42
0.000000
 10
-199.846289
 20
137.050056
 42
0.000000
 10
-199.557614
 20
137.550056
 42
0.000000
 10
-199.168939
 20
137.050056
 42
0.000000
 10
-198.036289
 20
137.050056
 42
0.000000
 10
-197.747614
 20
137.550056
 42
0.000000
 10
-197.358939
 20
137.050056
 42
0.000000
 10
-196.226289
 20
137.050056
 42
0.000000
 10
-195.937614
 20
137.550056
 42
0.000000
 10
-195.548939
 20
137.050056
 42
0.000000
 10
-194.416289
 20
137.050056
 42
0.000000
 10
-194.127614
 20
137.550056
 42
0.000000
 10
-193.738939
 20
137.050056
 42
0.000000
 10
-192.606289
 20
137.050056
 42
0.000000
 10
-192.317614
 20
137.550056
 42
0.000000
 10
-191.928939
 20
137.050056
 42
0.000000
 10
-190.796289
 20
137.050056
 42
0.000000
 10
-190.507614
 20
137.550056
 42
0.000000
 10
-190.118939
 20
137.050056
 42
0.000000
 10
-188.986289
 20
137.050056
 42
0.000000
 10
-188.697614
 20
137.550056
 42
0.000000
 10
-188.308939
 20
137.050056
 42
0.000000
 10
-187.176289
 20
137.050056
 42
0.000000
 10
-186.887614
 20
137.550056
 42
0.000000
 10
-186.498939
 20
137.050056
 42
0.000000
 10
-185.366289
 20
137.050056
 42
0.000000
 10
-185.077614
 20
137.550056
 42
0.000000
 10
-184.688939
 20
137.050056
 42
0.000000
 10
-183.556289
 20
137.050056
 42
0.000000
 10
-183.267614
 20
137.550056
 42
0.000000
 10
-182.878939
 20
137.050056
 42
0.000000
 10
-181.746289
 20
137.050056
 42
0.000000
 10
-181.457614
 20
137.550056
 42
0.000000
 10
-181.068939
 20
137.050056
 42
0.000000
 10
-179.936289
 20
137.050056
 42
0.000000
 10
-179.647614
 20
137.550056
 42
0.000000
 10
-179.258939
 20
137.050056
 42
0.000000
 10
-178.126289
 20
137.050056
 42
0.000000
 10
-177.837614
 20
137.550056
 42
0.000000
 10
-177.448939
 20
137.050056
 42
0.000000
 10
-176.316289
 20
137.050056
 42
0.000000
 10
-176.027614
 20
137.550056
 42
0.000000
 10
-175.638939
 20
137.050056
 42
0.000000
 10
-174.506289
 20
137.050056
 42
0.000000
 10
-174.217614
 20
137.550056
 42
0.000000
 10
-173.828939
 20
137.050056
 42
0.000000
 10
-172.696289
 20
137.050056
 42
0.000000
 10
-172.407614
 20
137.550056
 42
0.000000
 10
-172.018939
 20
137.050056
 42
0.000000
 10
-170.886289
 20
137.050056
 42
0.000000
 10
-170.597614
 20
137.550056
 42
0.000000
 10
-170.186425
 20
137.050056
 42
0.000000
 10
-169.076289
 20
137.050056
 42
0.000000
 10
-168.787614
 20
137.550056
 42
0.000000
 10
-168.398939
 20
137.050056
 42
0.000000
 10
-167.266289
 20
137.050056
 42
0.000000
 10
-166.977614
 20
137.550056
 42
0.000000
 10
-166.588939
 20
137.050056
 42
0.000000
 10
-165.456289
 20
137.050056
 42
0.000000
 10
-165.167614
 20
137.550056
 42
0.000000
 10
-164.778939
 20
137.050056
 42
0.000000
 10
-163.646289
 20
137.050056
 42
0.000000
 10
-163.357614
 20
137.550056
 42
0.000000
 10
-162.968939
 20
137.050056
 42
0.000000
 10
-161.836289
 20
137.050056
 42
0.000000
 10
-161.547614
 20
137.550056
 42
0.000000
 10
-161.158939
 20
137.050056
 42
0.000000
 10
-160.026289
 20
137.050056
 42
0.000000
 10
-159.737614
 20
137.550056
 42
0.000000
 10
-159.348939
 20
137.050056
 42
0.000000
 10
-158.216289
 20
137.050056
 42
0.000000
 10
-157.927614
 20
137.550056
 42
0.000000
 10
-157.538939
 20
137.050056
 42
0.000000
 10
-156.406289
 20
137.050056
 42
0.000000
 10
-156.117614
 20
137.550056
 42
0.000000
 10
-155.728939
 20
137.050056
 42
0.000000
 10
-154.596289
 20
137.050056
 42
0.000000
 10
-154.307614
 20
137.550056
 42
0.000000
 10
-153.918939
 20
137.050056
 42
0.000000
 10
-152.786289
 20
137.050056
 42
0.000000
 10
-152.497614
 20
137.550056
 42
0.000000
 10
-152.108939
 20
137.050056
 42
0.000000
 10
-150.976289
 20
137.050056
 42
0.000000
 10
-150.687614
 20
137.550056
 42
0.000000
 10
-150.298939
 20
137.050056
 42
0.000000
 10
-149.166289
 20
137.050056
 42
0.000000
 10
-148.877614
 20
137.550056
 42
0.000000
 10
-148.488939
 20
137.050056
 42
0.000000
 10
-147.356289
 20
137.050056
 42
0.000000
 10
-147.067614
 20
137.550056
 42
0.000000
 10
-146.678939
 20
137.050056
 42
0.000000
 10
-146.000018
 20
137.050056
 42
0.000000
 10
-145.826813
 20
137.150056
 42
0.000000
 10
-122.000018
 20
139.250056
 42
0.000000
 10
-122.000018
 20
130.250056
 42
0.000000
 10
-145.826813
 20
132.350056
 42
0.000000
 10
-146.000018
 20
132.450056
 42
0.000000
 10
-146.162614
 20
131.950056
 42
0.000000
 10
-146.451289
 20
132.450056
 42
0.000000
 10
-147.583939
 20
132.450056
 42
0.000000
 10
-147.972614
 20
131.950056
 42
0.000000
 10
-148.261289
 20
132.450056
 42
0.000000
 10
-149.393939
 20
132.450056
 42
0.000000
 10
-149.782614
 20
131.950056
 42
0.000000
 10
-150.071289
 20
132.450056
 42
0.000000
 10
-151.203939
 20
132.450056
 42
0.000000
 10
-151.592614
 20
131.950056
 42
0.000000
 10
-151.881289
 20
132.450056
 42
0.000000
 10
-153.013939
 20
132.450056
 42
0.000000
 10
-153.402614
 20
131.950056
 42
0.000000
 10
-153.691289
 20
132.450056
 42
0.000000
 10
-154.823939
 20
132.450056
 42
0.000000
 10
-155.212614
 20
131.950056
 42
0.000000
 10
-155.501289
 20
132.450056
 42
0.000000
 10
-156.633939
 20
132.450056
 42
0.000000
 10
-157.022614
 20
131.950056
 42
0.000000
 10
-157.311289
 20
132.450056
 42
0.000000
 10
-158.443939
 20
132.450056
 42
0.000000
 10
-158.832614
 20
131.950056
 42
0.000000
 10
-159.121289
 20
132.450056
 42
0.000000
 10
-160.253939
 20
132.450056
 42
0.000000
 10
-160.642614
 20
131.950056
 42
0.000000
 10
-160.931289
 20
132.450056
 42
0.000000
 10
-162.063939
 20
132.450056
 42
0.000000
 10
-162.452614
 20
131.950056
 42
0.000000
 10
-162.741289
 20
132.450056
 42
0.000000
 10
-163.873939
 20
132.450056
 42
0.000000
 10
-164.262614
 20
131.950056
 42
0.000000
 10
-164.551289
 20
132.450056
 42
0.000000
 10
-165.683939
 20
132.450056
 42
0.000000
 10
-166.072614
 20
131.950056
 42
0.000000
 10
-166.361289
 20
132.450056
 42
0.000000
 10
-167.493939
 20
132.450056
 42
0.000000
 10
-167.882614
 20
131.950056
 42
0.000000
 10
-168.171289
 20
132.450056
 42
0.000000
 10
-169.303939
 20
132.450056
 42
0.000000
 10
-169.692614
 20
131.950056
 42
0.000000
 10
-169.981289
 20
132.450056
 42
0.000000
 10
-171.113939
 20
132.450056
 42
0.000000
 10
-171.502614
 20
131.950056
 42
0.000000
 10
-171.791289
 20
132.450056
 42
0.000000
 10
-172.923939
 20
132.450056
 42
0.000000
 10
-173.312614
 20
131.950056
 42
0.000000
 10
-173.601289
 20
132.450056
 42
0.000000
 10
-174.733939
 20
132.450056
 42
0.000000
 10
-175.122614
 20
131.950056
 42
0.000000
 10
-175.411289
 20
132.450056
 42
0.000000
 10
-176.543939
 20
132.450056
 42
0.000000
 10
-176.932614
 20
131.950056
 42
0.000000
 10
-177.221289
 20
132.450056
 42
0.000000
 10
-178.353939
 20
132.450056
 42
0.000000
 10
-178.742614
 20
131.950056
 42
0.000000
 10
-179.031289
 20
132.450056
 42
0.000000
 10
-180.163939
 20
132.450056
 42
0.000000
 10
-180.552614
 20
131.950056
 42
0.000000
 10
-180.841289
 20
132.450056
 42
0.000000
 10
-181.973939
 20
132.450056
 42
0.000000
 10
-182.362614
 20
131.950056
 42
0.000000
 10
-182.651289
 20
132.450056
 42
0.000000
 10
-183.783939
 20
132.450056
 42
0.000000
 10
-184.172614
 20
131.950056
 42
0.000000
 10
-184.461289
 20
132.450056
 42
0.000000
 10
-185.593939
 20
132.450056
 42
0.000000
 10
-185.982614
 20
131.950056
 42
0.000000
 10
-186.271289
 20
132.450056
 42
0.000000
 10
-187.403939
 20
132.450056
 42
0.000000
 10
-187.792614
 20
131.950056
 42
0.000000
 10
-188.081289
 20
132.450056
 42
0.000000
 10
-189.213939
 20
132.450056
 42
0.000000
 10
-189.602614
 20
131.950056
 42
0.000000
 10
-189.891289
 20
132.450056
 42
0.000000
 10
-191.023939
 20
132.450056
 42
0.000000
 10
-191.412614
 20
131.950056
 42
0.000000
 10
-191.701289
 20
132.450056
 42
0.000000
 10
-192.833939
 20
132.450056
 42
0.000000
 10
-193.222614
 20
131.950056
 42
0.000000
 10
-193.511289
 20
132.450056
 42
0.000000
 10
-194.643939
 20
132.450056
 42
0.000000
 10
-195.032614
 20
131.950056
 42
0.000000
 10
-195.321289
 20
132.450056
 42
0.000000
 10
-196.453939
 20
132.450056
 42
0.000000
 10
-196.842614
 20
131.950056
 42
0.000000
 10
-197.131289
 20
132.450056
 42
0.000000
 10
-198.263939
 20
132.450056
 42
0.000000
 10
-198.652614
 20
131.950056
 42
0.000000
 10
-198.941289
 20
132.450056
 42
0.000000
 10
-200.073939
 20
132.450056
 42
0.000000
 10
-200.462614
 20
131.950056
 42
0.000000
 10
-200.846829
 20
132.615535
 42
0.000000
 10
-201.775689
 20
133.000281
 42
0.000000
 10
-202.164364
 20
132.500281
 42
0.000000
 10
-202.665938
 20
133.369035
 42
0.000000
 10
-203.449302
 20
133.693515
 42
0.000000
 10
-203.837977
 20
133.193515
 42
0.000000
 10
-204.339552
 20
134.062268
 42
0.000000
 10
-206.000018
 20
134.750056
 42
0.000000
  0
ENDBLK
  5
76A
100
AcDbEntity
  8
0
100
AcDbBlockEnd
  0
BLOCK
  5
76B
100
AcDbEntity
  8
Detail
100
AcDbBlockBegin
  2
B-42
 70
    66
 10
0.000000
 20
0.000000
 30
0.000000
  0
LWPOLYLINE
  5
76C
100
AcDbEntity
  8
Detail
  6
CONTINUOUS
 62
     3
100
AcDbPolyline
 90
     5
 10
-67.500018
 20
164.750056
 42
0.000000
 10
-87.500018
 20
164.750056
 42
0.000000
 10
-87.500018
 20
104.750056
 42
0.000000
 10
-67.500018
 20
104.750056
 42
0.000000
 10
-67.500018
 20
164.750056
 42
0.000000
  0
ENDBLK
  5
772
100
AcDbEntity
  8
0
100
AcDbBlockEnd
  0
BLOCK
  5
773
100
AcDbEntity
  8
L
100
AcDbBlockBegin
  2
B-43
 70
    66
 10
0.000000
 20
0.000000
 30
0.000000
  0
LWPOLYLINE
  5
774
100
AcDbEntity
  8
L
  6
CONTINUOUS
 62
     3
100
AcDbPolyline
 90
     8
 10
212.500023
 20
-131.249941
 42
0.000000
 10
-150.500018
 20
-131.249941
 42
0.000000
 10
-150.500018
 20
-51.249941
 42
0.000000
 10
67.489689
 20
-51.249941
 42
0.000000
 10
67.489689
 20
-71.249941
 42
0.000000
 10
127.489689
 20
-71.249941
 42
0.000000
 10
127.489689
 20
-51.249941
 42
0.000000
 10
212.500023
 20
-51.249941
 42
0.000000
  0
ENDBLK
  5
77D
100
AcDbEntity
  8
0
100
AcDbBlockEnd
  0
BLOCK
  5
77E
100
AcDbEntity
  8
Detail
100
AcDbBlockBegin
  2
B-44
 70
    66
 10
0.000000
 20
0.000000
 30
0.000000
  0
LWPOLYLINE
  5
77F
100
AcDbEntity
  8
Detail
  6
CONTINUOUS
 62
     7
100
AcDbPolyline
 90
     2
 10
77.500023
 20
84.750059
 42
0.000000
 10
-107.500018
 20
84.750056
 42
0.000000
  0
ENDBLK
  5
782
100
AcDbEntity
  8
0
100
AcDbBlockEnd
  0
BLOCK
  5
783
100
AcDbEntity
  8
Detail
100
AcDbBlockBegin
  2
B-45
 70
    66
 10
0.000000
 20
0.000000
 30
0.000000
  0
LWPOLYLINE
  5
784
100
AcDbEntity
  8
Detail
  6
CONTINUOUS
 62
     7
100
AcDbPolyline
 90
     2
 10
77.500023
 20
59.750059
 42
0.000000
 10
-65.500018
 20
59.750057
 42
0.000000
  0
ENDBLK
  5
787
100
AcDbEntity
  8
0
100
AcDbBlockEnd
  0
BLOCK
  5
788
100
AcDbEntity
  8
Detail
100
AcDbBlockBegin
  2
B-46
 70
    66
 10
0.000000
 20
0.000000
 30
0.000000
  0
LWPOLYLINE
  5
789
100
AcDbEntity
  8
Detail
  6
CONTINUOUS
 62
     7
100
AcDbPolyline
 90
     2
 10
77.500023
 20
34.750059
 42
0.000000
 10
-62.500018
 20
34.750058
 42
0.000000
  0
ENDBLK
  5
78C
100
AcDbEntity
  8
0
100
AcDbBlockEnd
  0
BLOCK
  5
78D
100
AcDbEntity
  8
Detail
100
AcDbBlockBegin
  2
B-47
 70
    66
 10
0.000000
 20
0.000000
 30
0.000000
  0
LWPOLYLINE
  5
78E
100
AcDbEntity
  8
Detail
  6
CONTINUOUS
 62
     7
100
AcDbPolyline
 90
     2
 10
77.500023
 20
134.750059
 42
0.000000
 10
-86.000018
 20
134.750056
 42
0.000000
  0
ENDBLK
  5
791
100
AcDbEntity
  8
0
100
AcDbBlockEnd
  0
BLOCK
  5
792
100
AcDbEntity
  8
Detail
100
AcDbBlockBegin
  2
B-48
 70
    66
 10
0.000000
 20
0.000000
 30
0.000000
  0
LWPOLYLINE
  5
793
100
AcDbEntity
  8
Detail
  6
CONTINUOUS
 62
     7
100
AcDbPolyline
 90
     2
 10
77.500023
 20
109.750059
 42
0.000000
 10
-150.000018
 20
109.750056
 42
0.000000
  0
LWPOLYLINE
  5
796
100
AcDbEntity
  8
Detail
  6
CONTINUOUS
 62
     7
100
AcDbPolyline
 90
     3
 10
77.500023
 20
9.750059
 42
0.000000
 10
-121.000018
 20
9.750059
 42
0.000000
 10
-121.000018
 20
-37.249941
 42
0.000000
  0
ENDBLK
  5
79A
100
AcDbEntity
  8
0
100
AcDbBlockEnd
  0
BLOCK
  5
79B
100
AcDbEntity
  8
Detail
100
AcDbBlockBegin
  2
B-49
 70
    66
 10
0.000000
 20
0.000000
 30
0.000000
  0
MTEXT
  5
79C
100
AcDbEntity
  8
Detail
 62
     7
100
AcDbMText
 10
-211.093768
 20
-225.937528
 30
0.000000
 40
3.749990
 41
353.428963
 71
     7
 72
     5
  1
Capatect Details sind allgemeine planerische Vorschläge. Sie stellen schematisch die Ausführung dar. Ihnen zugrunde liegen die entsprechenden 
  7
Arial
 50
0.000000
  0
MTEXT
  5
79D
100
AcDbEntity
  8
Detail
 62
     7
100
AcDbMText
 10
-211.093768
 20
-231.562513
 30
0.000000
 40
3.749990
 41
392.764473
 71
     7
 72
     5
  1
Produktdatenblätter sowie Systemzulassungen. Die Möglichkeit der Detailanwendung sowie deren Vollständigkeit sind im speziellen Anwendungsfall vom Planer / 
  7
Arial
 50
0.000000
  0
MTEXT
  5
79E
100
AcDbEntity
  8
Detail
 62
     7
100
AcDbMText
 10
-211.093768
 20
-237.187498
 30
0.000000
 40
3.749990
 41
107.887184
 71
     7
 72
     5
  1
Unternehmer eigenverantwortlich zu prüfen. 
  7
Arial
 50
0.000000
  0
ENDBLK
  5
79F
100
AcDbEntity
  8
0
100
AcDbBlockEnd
  0
BLOCK
  5
7A0
100
AcDbEntity
  8
Detail
100
AcDbBlockBegin
  2
B-50
 70
    66
 10
0.000000
 20
0.000000
 30
0.000000
  0
LWPOLYLINE
  5
7A1
100
AcDbEntity
  8
Detail
  6
CONTINUOUS
 62
     6
100
AcDbPolyline
 90
     2
 10
237.500023
 20
-246.249941
 42
0.000000
 10
-237.500018
 20
-246.249941
 42
0.000000
  0
ENDBLK
  5
7A4
100
AcDbEntity
  8
0
100
AcDbBlockEnd
  0
BLOCK
  5
7A5
100
AcDbEntity
  8
Detail
100
AcDbBlockBegin
  2
B-51
 70
    66
 10
0.000000
 20
0.000000
 30
0.000000
  0
MTEXT
  5
7A6
100
AcDbEntity
  8
Detail
 62
     7
100
AcDbMText
 10
-210.625002
 20
-252.656291
 30
0.000000
 40
5.625000
 41
106.253438
 71
     1
 72
     5
  1
System:	WDVS mit Putz 
  7
Arial
 50
0.000000
  0
ENDBLK
  5
7A7
100
AcDbEntity
  8
0
100
AcDbBlockEnd
  0
BLOCK
  5
7A8
100
AcDbEntity
  8
Detail
100
AcDbBlockBegin
  2
B-52
 70
    66
 10
0.000000
 20
0.000000
 30
0.000000
  0
MTEXT
  5
7A9
100
AcDbEntity
  8
Detail
 62
     7
100
AcDbMText
 10
-210.625002
 20
-295.781291
 30
0.000000
 40
5.625000
 41
151.849688
 71
     7
 72
     5
  1
Detail:	Innenecke mit Dehnfuge - Schlaufe
  7
Arial
 50
0.000000
  0
MTEXT
  5
7AA
100
AcDbEntity
  8
Detail
 62
     7
100
AcDbMText
 10
-210.625002
 20
-304.218791
 30
0.000000
 40
5.625000
 41
89.775000
 71
     7
 72
     5
  1
	(Horizontalschnitt)
  7
Arial
 50
0.000000
  0
ENDBLK
  5
7AB
100
AcDbEntity
  8
0
100
AcDbBlockEnd
  0
BLOCK
  5
7AC
100
AcDbEntity
  8
Detail
100
AcDbBlockBegin
  2
B-53
 70
    66
 10
0.000000
 20
0.000000
 30
0.000000
  0
MTEXT
  5
7AD
100
AcDbEntity
  8
Detail
 62
     7
100
AcDbMText
 10
6.314834
 20
-252.500041
 30
0.000000
 40
5.000000
 41
93.712500
 71
     1
 72
     5
  1
Plannummer:	105-1318
  7
Arial
 50
0.000000
  0
ENDBLK
  5
7AE
100
AcDbEntity
  8
0
100
AcDbBlockEnd
  0
BLOCK
  5
7AF
100
AcDbEntity
  8
Detail
100
AcDbBlockBegin
  2
B-54
 70
    66
 10
0.000000
 20
0.000000
 30
0.000000
  0
MTEXT
  5
7B0
100
AcDbEntity
  8
Detail
 62
     7
100
AcDbMText
 10
6.314834
 20
-277.500041
 30
0.000000
 40
5.000000
 41
91.035000
 71
     1
 72
     5
  1
Massstab:		ca. 1:2,5
  7
Arial
 50
0.000000
  0
ENDBLK
  5
7B1
100
AcDbEntity
  8
0
100
AcDbBlockEnd
  0
BLOCK
  5
7B2
100
AcDbEntity
  8
Detail
100
AcDbBlockBegin
  2
B-55
 70
    66
 10
0.000000
 20
0.000000
 30
0.000000
  0
MTEXT
  5
7B3
100
AcDbEntity
  8
Detail
 62
     7
100
AcDbMText
 10
6.314834
 20
-302.500041
 30
0.000000
 40
5.000000
 41
99.435000
 71
     1
 72
     5
  1
Aktualisierung:	14.07.2016
  7
Arial
 50
0.000000
  0
ENDBLK
  5
7B4
100
AcDbEntity
  8
0
100
AcDbBlockEnd
  0
BLOCK
  5
7B5
100
AcDbEntity
  8
Detail
100
AcDbBlockBegin
  2
B-56
 70
    66
 10
0.000000
 20
0.000000
 30
0.000000
  0
LWPOLYLINE
  5
7B6
100
AcDbEntity
  8
Detail
  6
CONTINUOUS
 62
     6
100
AcDbPolyline
 90
     2
 10
-20.560166
 20
-321.249941
 42
0.000000
 10
-20.560166
 20
-246.249941
 42
0.000000
  0
LWPOLYLINE
  5
7B9
100
AcDbEntity
  8
Detail
  6
CONTINUOUS
 62
     6
100
AcDbPolyline
 90
     2
 10
-237.500018
 20
-321.249941
 42
0.000000
 10
120.969928
 20
-321.249941
 42
0.000000
  0
LWPOLYLINE
  5
7BC
100
AcDbEntity
  8
Detail
  6
CONTINUOUS
 62
     6
100
AcDbPolyline
 90
     2
 10
-20.560166
 20
-271.249941
 42
0.000000
 10
120.969928
 20
-271.249941
 42
0.000000
  0
LWPOLYLINE
  5
7BF
100
AcDbEntity
  8
Detail
  6
CONTINUOUS
 62
     6
100
AcDbPolyline
 90
     2
 10
-20.560166
 20
-296.249941
 42
0.000000
 10
120.969928
 20
-296.249941
 42
0.000000
  0
ENDBLK
  5
7C2
100
AcDbEntity
  8
0
100
AcDbBlockEnd
  0
BLOCK
  5
7C3
100
AcDbEntity
  8
Detail
100
AcDbBlockBegin
  2
B-57
 70
    66
 10
0.000000
 20
0.000000
 30
0.000000
  0
LWPOLYLINE
  5
7C4
100
AcDbEntity
  8
Detail
  6
CONTINUOUS
 62
     6
100
AcDbPolyline
 90
     2
 10
-20.560166
 20
-283.749941
 42
0.000000
 10
-237.500018
 20
-283.749941
 42
0.000000
  0
ENDBLK
  5
7C7
100
AcDbEntity
  8
0
100
AcDbBlockEnd
  0
BLOCK
  5
7C8
100
AcDbEntity
  8
Detail
100
AcDbBlockBegin
  2
B-58
 70
    66
 10
0.000000
 20
0.000000
 30
0.000000
  0
LWPOLYLINE
  5
7C9
100
AcDbEntity
  8
Detail
  6
CONTINUOUS
 62
     6
100
AcDbPolyline
 90
     2
 10
120.969928
 20
-346.249941
 42
0.000000
 10
120.969928
 20
-246.249941
 42
0.000000
  0
ENDBLK
  5
7CC
100
AcDbEntity
  8
0
100
AcDbBlockEnd
  0
BLOCK
  5
7CD
100
AcDbEntity
  8
Detail
100
AcDbBlockBegin
  2
B-59
 70
    66
 10
0.000000
 20
0.000000
 30
0.000000
  0
LWPOLYLINE
  5
7CE
100
AcDbEntity
  8
Detail
  6
CONTINUOUS
 62
     6
100
AcDbPolyline
 90
     5
 10
-237.500018
 20
-346.249941
 42
0.000000
 10
237.500023
 20
-346.249941
 42
0.000000
 10
237.500023
 20
346.250078
 42
0.000000
 10
-237.500018
 20
346.250078
 42
0.000000
 10
-237.500018
 20
-346.249941
 42
0.000000
  0
ENDBLK
  5
7D4
100
AcDbEntity
  8
0
100
AcDbBlockEnd
  0
BLOCK
  5
7D5
100
AcDbEntity
  8
SCHRAFF
100
AcDbBlockBegin
  2
B-60
 70
    66
 10
0.000000
 20
0.000000
 30
0.000000
  0
HATCH
  5
7D6
100
AcDbEntity
  8
SCHRAFF
  6
CONTINUOUS
 62
     9
100
AcDbHatch
 10
0.000000
 20
0.000000
 30
0.000000
210
0.000000
220
0.000000
230
1.000000
  2
_U
 70
     0
 71
     1
 91
     1
 92
    18
 72
     1
 73
     0
 93
     5
 10
-67.500018
 20
104.750056
 42
0.000000
 10
-67.500018
 20
164.750056
 42
0.000000
 10
-87.500018
 20
164.750056
 42
0.000000
 10
-87.500018
 20
104.750056
 42
0.000000
 10
-67.500018
 20
104.750056
 42
0.000000
 97
     0
 75
     0
 76
     0
 52
0.000000
 41
1.000000
 77
     0
 78
     1
 53
90.000000
 43
-0.000000
 44
0.000000
 45
-6.875000
 46
0.000000
 79
     0
 98
     0
  0
ENDBLK
  5
7D7
100
AcDbEntity
  8
0
100
AcDbBlockEnd
  0
BLOCK
  5
7D8
100
AcDbEntity
  8
Detail
100
AcDbBlockBegin
  2
B-61
 70
    66
 10
0.000000
 20
0.000000
 30
0.000000
  0
MTEXT
  5
7D9
100
AcDbEntity
  8
Detail
 62
     7
100
AcDbMText
 10
39.374975
 20
-332.500019
 30
0.000000
 40
4.999982
 41
51.922313
 71
     7
 72
     5
  1
info@daw.swiss
  7
Arial
 50
0.000000
  0
MTEXT
  5
7DA
100
AcDbEntity
  8
Detail
 62
     7
100
AcDbMText
 10
39.374975
 20
-339.999993
 30
0.000000
 40
4.999982
 41
54.599803
 71
     7
 72
     5
  1
www.capatect.ch
  7
Arial
 50
0.000000
  0
ENDBLK
  5
7DB
100
AcDbEntity
  8
0
100
AcDbBlockEnd
  0
BLOCK
  5
7DC
100
AcDbEntity
  8
Detail
100
AcDbBlockBegin
  2
B-62
 70
    66
 10
0.000000
 20
0.000000
 30
0.000000
  0
MTEXT
  5
7DD
100
AcDbEntity
  8
Detail
 62
     7
100
AcDbMText
 10
-85.625025
 20
-332.500016
 30
0.000000
 40
4.999980
 41
72.134711
 71
     7
 72
     5
  1
Telefon 043 399 42 22
  7
Arial
 50
0.000000
  0
MTEXT
  5
7DE
100
AcDbEntity
  8
Detail
 62
     7
100
AcDbMText
 10
-85.625025
 20
-339.999986
 30
0.000000
 40
4.999980
 41
71.767213
 71
     7
 72
     5
  1
Telefax 043 399 42 23
  7
Arial
 50
0.000000
  0
ENDBLK
  5
7DF
100
AcDbEntity
  8
0
100
AcDbBlockEnd
  0
BLOCK
  5
7E0
100
AcDbEntity
  8
Detail
100
AcDbBlockBegin
  2
B-63
 70
    66
 10
0.000000
 20
0.000000
 30
0.000000
  0
MTEXT
  5
7E1
100
AcDbEntity
  8
Detail
 62
     7
100
AcDbMText
 10
-210.625009
 20
-332.500016
 30
0.000000
 40
4.999980
 41
58.117268
 71
     7
 72
     5
  1
DAW Schweiz AG
  7
Arial
 50
0.000000
  0
MTEXT
  5
7E2
100
AcDbEntity
  8
Detail
 62
     7
100
AcDbMText
 10
-210.625009
 20
-339.999986
 30
0.000000
 40
4.999980
 41
108.149567
 71
     7
 72
     5
  1
Gewerbestrasse 6, 8606 Nänikon
  7
Arial
 50
0.000000
  0
ENDBLK
  5
7E3
100
AcDbEntity
  8
0
100
AcDbBlockEnd
  0
BLOCK
  5
7E4
100
AcDbEntity
  8
Detail
100
AcDbBlockBegin
  2
B-64
 70
    66
 10
0.000000
 20
0.000000
 30
0.000000
  0
LWPOLYLINE
  5
7E5
100
AcDbEntity
  8
Detail
  6
CONTINUOUS
 62
     9
100
AcDbPolyline
 90
     2
 10
90.489689
 20
-99.749941
 42
0.000000
 10
104.469102
 20
-99.749941
 42
0.000000
  0
LWPOLYLINE
  5
7E8
100
AcDbEntity
  8
Detail
  6
CONTINUOUS
 62
     9
100
AcDbPolyline
 90
    83
 10
127.489689
 20
-71.249941
 42
0.000000
 10
127.489689
 20
-70.749941
 42
0.000000
 10
122.489689
 20
-69.749941
 42
0.000000
 10
72.489689
 20
-69.749941
 42
0.000000
 10
67.489689
 20
-70.749941
 42
0.000000
 10
67.489689
 20
-71.249941
 42
0.000000
 10
84.489689
 20
-71.249941
 42
0.000000
 10
88.239689
 20
-72.499941
 42
0.000000
 10
89.489689
 20
-76.249941
 42
0.000000
 10
90.489689
 20
-99.749941
 42
0.000000
 10
92.989689
 20
-105.749941
 42
0.000000
 10
93.529689
 20
-148.212138
 42
0.000000
 10
93.776698
 20
-149.578081
 42
0.000000
 10
93.529689
 20
-149.653834
 42
0.000000
 10
93.529689
 20
-152.436138
 42
0.000000
 10
93.776698
 20
-153.802081
 42
0.000000
 10
93.529689
 20
-153.877834
 42
0.000000
 10
93.529689
 20
-156.660138
 42
0.000000
 10
93.776698
 20
-158.026081
 42
0.000000
 10
93.534489
 20
-158.101750
 42
0.000000
 10
93.529689
 20
-160.884138
 42
0.000000
 10
93.776698
 20
-162.250081
 42
0.000000
 10
93.529689
 20
-162.325834
 42
0.000000
 10
93.529689
 20
-165.108138
 42
0.000000
 10
93.776698
 20
-166.474081
 42
0.000000
 10
93.529689
 20
-166.549834
 42
0.000000
 10
93.529689
 20
-169.332138
 42
0.000000
 10
93.776698
 20
-170.698081
 42
0.000000
 10
93.529689
 20
-170.773834
 42
0.000000
 10
93.529689
 20
-173.556138
 42
0.000000
 10
93.776698
 20
-174.922081
 42
0.000000
 10
93.529689
 20
-174.997834
 42
0.000000
 10
93.529689
 20
-177.780138
 42
0.000000
 10
93.776698
 20
-179.146081
 42
0.000000
 10
93.529689
 20
-179.221834
 42
0.000000
 10
93.529689
 20
-182.004138
 42
0.000000
 10
93.812121
 20
-183.208294
 42
0.000000
 10
93.649690
 20
-183.667277
 42
0.000000
 10
94.083945
 20
-184.644138
 42
0.000000
 10
94.609689
 20
-184.884138
 42
0.000000
 10
94.609689
 20
-185.652138
 42
0.000000
 10
95.150657
 20
-187.170031
 42
0.000000
 10
96.529689
 20
-188.003648
 42
0.000000
 10
97.489689
 20
-189.749941
 42
0.000000
 10
98.449689
 20
-188.003648
 42
0.000000
 10
99.828721
 20
-187.170031
 42
0.000000
 10
100.356082
 20
-185.907337
 42
0.000000
 10
100.369689
 20
-184.884138
 42
0.000000
 10
100.895433
 20
-184.644138
 42
0.000000
 10
101.329689
 20
-183.891982
 42
0.000000
 10
101.329689
 20
-183.442569
 42
0.000000
 10
101.167257
 20
-183.208294
 42
0.000000
 10
101.449689
 20
-182.004138
 42
0.000000
 10
101.449689
 20
-179.221834
 42
0.000000
 10
101.202680
 20
-179.146081
 42
0.000000
 10
101.449689
 20
-177.780138
 42
0.000000
 10
101.449689
 20
-174.997834
 42
0.000000
 10
101.202680
 20
-174.922081
 42
0.000000
 10
101.449689
 20
-173.556138
 42
0.000000
 10
101.449689
 20
-170.773834
 42
0.000000
 10
101.202680
 20
-170.698081
 42
0.000000
 10
101.449689
 20
-169.332138
 42
0.000000
 10
101.449689
 20
-166.549834
 42
0.000000
 10
101.202680
 20
-166.474081
 42
0.000000
 10
101.449689
 20
-165.108138
 42
0.000000
 10
101.449689
 20
-162.325834
 42
0.000000
 10
101.202680
 20
-162.250081
 42
0.000000
 10
101.449689
 20
-160.884138
 42
0.000000
 10
101.444889
 20
-158.101750
 42
0.000000
 10
101.202680
 20
-158.026081
 42
0.000000
 10
101.449689
 20
-156.660138
 42
0.000000
 10
101.449689
 20
-153.877834
 42
0.000000
 10
101.202680
 20
-153.802081
 42
0.000000
 10
101.449689
 20
-152.436138
 42
0.000000
 10
101.449689
 20
-149.653834
 42
0.000000
 10
101.202680
 20
-149.578081
 42
0.000000
 10
101.449689
 20
-148.212138
 42
0.000000
 10
101.989689
 20
-105.749941
 42
0.000000
 10
104.489689
 20
-99.749941
 42
0.000000
 10
105.489689
 20
-76.249941
 42
0.000000
 10
106.739689
 20
-72.499941
 42
0.000000
 10
110.489689
 20
-71.249941
 42
0.000000
 10
127.489689
 20
-71.249941
 42
0.000000
  0
LWPOLYLINE
  5
83C
100
AcDbEntity
  8
Detail
  6
CONTINUOUS
 62
     9
100
AcDbPolyline
 90
   203
 10
97.489689
 20
-189.749941
 42
0.000000
 10
96.614424
 20
-187.636865
 42
0.000000
 10
95.745670
 20
-187.135290
 42
0.000000
 10
96.245670
 20
-186.746615
 42
0.000000
 10
95.798180
 20
-185.666278
 42
0.000000
 10
94.929426
 20
-185.164703
 42
0.000000
 10
95.429426
 20
-184.776028
 42
0.000000
 10
95.189689
 20
-184.197251
 42
0.000000
 10
95.189689
 20
-183.596212
 42
0.000000
 10
94.689689
 20
-183.307537
 42
0.000000
 10
95.189689
 20
-182.918862
 42
0.000000
 10
95.189689
 20
-181.786212
 42
0.000000
 10
94.689689
 20
-181.497537
 42
0.000000
 10
95.189689
 20
-181.108862
 42
0.000000
 10
95.189689
 20
-179.976212
 42
0.000000
 10
94.689689
 20
-179.687537
 42
0.000000
 10
95.189689
 20
-179.298862
 42
0.000000
 10
95.189689
 20
-178.166212
 42
0.000000
 10
94.689689
 20
-177.877537
 42
0.000000
 10
95.189689
 20
-177.488862
 42
0.000000
 10
95.189689
 20
-176.356212
 42
0.000000
 10
94.689689
 20
-176.067537
 42
0.000000
 10
95.189689
 20
-175.678862
 42
0.000000
 10
95.189689
 20
-174.546212
 42
0.000000
 10
94.689689
 20
-174.257537
 42
0.000000
 10
95.189689
 20
-173.868862
 42
0.000000
 10
95.189689
 20
-172.736212
 42
0.000000
 10
94.689689
 20
-172.447537
 42
0.000000
 10
95.189689
 20
-172.058862
 42
0.000000
 10
95.189689
 20
-170.926212
 42
0.000000
 10
94.689689
 20
-170.637537
 42
0.000000
 10
95.189689
 20
-170.248862
 42
0.000000
 10
95.189689
 20
-169.116212
 42
0.000000
 10
94.689689
 20
-168.827537
 42
0.000000
 10
95.189689
 20
-168.438862
 42
0.000000
 10
95.189689
 20
-167.306212
 42
0.000000
 10
94.689689
 20
-167.017537
 42
0.000000
 10
95.189689
 20
-166.628862
 42
0.000000
 10
95.189689
 20
-165.496212
 42
0.000000
 10
94.689689
 20
-165.207537
 42
0.000000
 10
95.189689
 20
-164.818862
 42
0.000000
 10
95.189689
 20
-163.686212
 42
0.000000
 10
94.689689
 20
-163.397537
 42
0.000000
 10
95.189689
 20
-163.008862
 42
0.000000
 10
95.189689
 20
-161.876212
 42
0.000000
 10
94.689689
 20
-161.587537
 42
0.000000
 10
95.189689
 20
-161.198862
 42
0.000000
 10
95.189689
 20
-160.066212
 42
0.000000
 10
94.689689
 20
-159.777537
 42
0.000000
 10
95.189689
 20
-159.388862
 42
0.000000
 10
95.189689
 20
-158.256212
 42
0.000000
 10
94.689689
 20
-157.967537
 42
0.000000
 10
95.189689
 20
-157.578862
 42
0.000000
 10
95.189689
 20
-156.446212
 42
0.000000
 10
94.689689
 20
-156.157537
 42
0.000000
 10
95.189689
 20
-155.768862
 42
0.000000
 10
95.189689
 20
-154.636212
 42
0.000000
 10
94.689689
 20
-154.347537
 42
0.000000
 10
95.189689
 20
-153.936348
 42
0.000000
 10
95.189689
 20
-152.826212
 42
0.000000
 10
94.689689
 20
-152.537537
 42
0.000000
 10
95.189689
 20
-152.148862
 42
0.000000
 10
95.189689
 20
-151.016212
 42
0.000000
 10
94.689689
 20
-150.727537
 42
0.000000
 10
95.189689
 20
-150.338862
 42
0.000000
 10
95.189689
 20
-149.206212
 42
0.000000
 10
94.689689
 20
-148.917537
 42
0.000000
 10
95.189689
 20
-148.528862
 42
0.000000
 10
95.189689
 20
-147.396212
 42
0.000000
 10
94.689689
 20
-147.107537
 42
0.000000
 10
95.189689
 20
-146.718862
 42
0.000000
 10
95.189689
 20
-145.586212
 42
0.000000
 10
94.689689
 20
-145.297537
 42
0.000000
 10
95.189689
 20
-144.908862
 42
0.000000
 10
95.189689
 20
-143.776212
 42
0.000000
 10
94.689689
 20
-143.487537
 42
0.000000
 10
95.189689
 20
-143.098862
 42
0.000000
 10
95.189689
 20
-141.966212
 42
0.000000
 10
94.689689
 20
-141.677537
 42
0.000000
 10
95.189689
 20
-141.288862
 42
0.000000
 10
95.189689
 20
-140.156212
 42
0.000000
 10
94.689689
 20
-139.867537
 42
0.000000
 10
95.189689
 20
-139.478862
 42
0.000000
 10
95.189689
 20
-138.346212
 42
0.000000
 10
94.689689
 20
-138.057537
 42
0.000000
 10
95.189689
 20
-137.668862
 42
0.000000
 10
95.189689
 20
-136.536212
 42
0.000000
 10
94.689689
 20
-136.247537
 42
0.000000
 10
95.189689
 20
-135.858862
 42
0.000000
 10
95.189689
 20
-134.726212
 42
0.000000
 10
94.689689
 20
-134.437537
 42
0.000000
 10
95.189689
 20
-134.048862
 42
0.000000
 10
95.189689
 20
-132.916212
 42
0.000000
 10
94.689689
 20
-132.627537
 42
0.000000
 10
95.189689
 20
-132.238862
 42
0.000000
 10
95.189689
 20
-131.106212
 42
0.000000
 10
94.689689
 20
-130.817537
 42
0.000000
 10
95.189689
 20
-130.428862
 42
0.000000
 10
95.189689
 20
-129.749941
 42
0.000000
 10
95.089689
 20
-129.576736
 42
0.000000
 10
92.989689
 20
-105.749941
 42
0.000000
 10
101.989689
 20
-105.749941
 42
0.000000
 10
99.889689
 20
-129.576736
 42
0.000000
 10
99.789689
 20
-129.749941
 42
0.000000
 10
100.289689
 20
-129.912537
 42
0.000000
 10
99.789689
 20
-130.201212
 42
0.000000
 10
99.789689
 20
-131.333862
 42
0.000000
 10
100.289689
 20
-131.722537
 42
0.000000
 10
99.789689
 20
-132.011212
 42
0.000000
 10
99.789689
 20
-133.143862
 42
0.000000
 10
100.289689
 20
-133.532537
 42
0.000000
 10
99.789689
 20
-133.821212
 42
0.000000
 10
99.789689
 20
-134.953862
 42
0.000000
 10
100.289689
 20
-135.342537
 42
0.000000
 10
99.789689
 20
-135.631212
 42
0.000000
 10
99.789689
 20
-136.763862
 42
0.000000
 10
100.289689
 20
-137.152537
 42
0.000000
 10
99.789689
 20
-137.441212
 42
0.000000
 10
99.789689
 20
-138.573862
 42
0.000000
 10
100.289689
 20
-138.962537
 42
0.000000
 10
99.789689
 20
-139.251212
 42
0.000000
 10
99.789689
 20
-140.383862
 42
0.000000
 10
100.289689
 20
-140.772537
 42
0.000000
 10
99.789689
 20
-141.061212
 42
0.000000
 10
99.789689
 20
-142.193862
 42
0.000000
 10
100.289689
 20
-142.582537
 42
0.000000
 10
99.789689
 20
-142.871212
 42
0.000000
 10
99.789689
 20
-144.003862
 42
0.000000
 10
100.289689
 20
-144.392537
 42
0.000000
 10
99.789689
 20
-144.681212
 42
0.000000
 10
99.789689
 20
-145.813862
 42
0.000000
 10
100.289689
 20
-146.202537
 42
0.000000
 10
99.789689
 20
-146.491212
 42
0.000000
 10
99.789689
 20
-147.623862
 42
0.000000
 10
100.289689
 20
-148.012537
 42
0.000000
 10
99.789689
 20
-148.301212
 42
0.000000
 10
99.789689
 20
-149.433862
 42
0.000000
 10
100.289689
 20
-149.822537
 42
0.000000
 10
99.789689
 20
-150.111212
 42
0.000000
 10
99.789689
 20
-151.243862
 42
0.000000
 10
100.289689
 20
-151.632537
 42
0.000000
 10
99.789689
 20
-151.921212
 42
0.000000
 10
99.789689
 20
-153.053862
 42
0.000000
 10
100.289689
 20
-153.442537
 42
0.000000
 10
99.789689
 20
-153.731212
 42
0.000000
 10
99.789689
 20
-154.863862
 42
0.000000
 10
100.289689
 20
-155.252537
 42
0.000000
 10
99.789689
 20
-155.541212
 42
0.000000
 10
99.789689
 20
-156.673862
 42
0.000000
 10
100.289689
 20
-157.062537
 42
0.000000
 10
99.789689
 20
-157.351212
 42
0.000000
 10
99.789689
 20
-158.483862
 42
0.000000
 10
100.289689
 20
-158.872537
 42
0.000000
 10
99.789689
 20
-159.161212
 42
0.000000
 10
99.789689
 20
-160.293862
 42
0.000000
 10
100.289689
 20
-160.682537
 42
0.000000
 10
99.789689
 20
-160.971212
 42
0.000000
 10
99.789689
 20
-162.103862
 42
0.000000
 10
100.289689
 20
-162.492537
 42
0.000000
 10
99.789689
 20
-162.781212
 42
0.000000
 10
99.789689
 20
-163.913862
 42
0.000000
 10
100.289689
 20
-164.302537
 42
0.000000
 10
99.789689
 20
-164.591212
 42
0.000000
 10
99.789689
 20
-165.723862
 42
0.000000
 10
100.289689
 20
-166.112537
 42
0.000000
 10
99.789689
 20
-166.401212
 42
0.000000
 10
99.789689
 20
-167.533862
 42
0.000000
 10
100.289689
 20
-167.922537
 42
0.000000
 10
99.789689
 20
-168.211212
 42
0.000000
 10
99.789689
 20
-169.343862
 42
0.000000
 10
100.289689
 20
-169.732537
 42
0.000000
 10
99.789689
 20
-170.021212
 42
0.000000
 10
99.789689
 20
-171.153862
 42
0.000000
 10
100.289689
 20
-171.542537
 42
0.000000
 10
99.789689
 20
-171.831212
 42
0.000000
 10
99.789689
 20
-172.963862
 42
0.000000
 10
100.289689
 20
-173.352537
 42
0.000000
 10
99.789689
 20
-173.641212
 42
0.000000
 10
99.789689
 20
-174.773862
 42
0.000000
 10
100.289689
 20
-175.162537
 42
0.000000
 10
99.789689
 20
-175.451212
 42
0.000000
 10
99.789689
 20
-176.583862
 42
0.000000
 10
100.289689
 20
-176.972537
 42
0.000000
 10
99.789689
 20
-177.261212
 42
0.000000
 10
99.789689
 20
-178.393862
 42
0.000000
 10
100.289689
 20
-178.782537
 42
0.000000
 10
99.789689
 20
-179.071212
 42
0.000000
 10
99.789689
 20
-180.203862
 42
0.000000
 10
100.289689
 20
-180.592537
 42
0.000000
 10
99.789689
 20
-180.881212
 42
0.000000
 10
99.789689
 20
-182.013862
 42
0.000000
 10
100.289689
 20
-182.402537
 42
0.000000
 10
99.789689
 20
-182.691212
 42
0.000000
 10
99.789689
 20
-183.823862
 42
0.000000
 10
100.289689
 20
-184.212537
 42
0.000000
 10
99.624210
 20
-184.596752
 42
0.000000
 10
99.239463
 20
-185.525612
 42
0.000000
 10
99.739463
 20
-185.914287
 42
0.000000
 10
98.870710
 20
-186.415861
 42
0.000000
 10
98.546230
 20
-187.199225
 42
0.000000
 10
99.046230
 20
-187.587900
 42
0.000000
 10
98.177476
 20
-188.089475
 42
0.000000
 10
97.489689
 20
-189.749941
 42
0.000000
  0
ENDBLK
  5
908
100
AcDbEntity
  8
0
100
AcDbBlockEnd
  0
BLOCK
  5
909
100
AcDbEntity
  8
Detail
100
AcDbBlockBegin
  2
B-66
 70
    66
 10
0.000000
 20
0.000000
 30
0.000000
  0
LWPOLYLINE
  5
90A
100
AcDbEntity
  8
Detail
  6
CONTINUOUS
 62
     3
100
AcDbPolyline
 90
     5
 10
67.489689
 20
-51.249941
 42
0.000000
 10
67.489689
 20
-71.249941
 42
0.000000
 10
127.489689
 20
-71.249941
 42
0.000000
 10
127.489689
 20
-51.249941
 42
0.000000
 10
67.489689
 20
-51.249941
 42
0.000000
  0
ENDBLK
  5
910
100
AcDbEntity
  8
0
100
AcDbBlockEnd
  0
BLOCK
  5
911
100
AcDbEntity
  8
Detail
100
AcDbBlockBegin
  2
B-67
 70
    66
 10
0.000000
 20
0.000000
 30
0.000000
  0
MTEXT
  5
912
100
AcDbEntity
  8
Detail
 62
     7
100
AcDbMText
 10
79.375020
 20
-12.749944
 30
0.000000
 40
4.999990
 41
71.819828
 71
     1
 72
     5
  1
Dehnfugenprofil Typ V
  7
Arial
 50
0.000000
  0
ENDBLK
  5
913
100
AcDbEntity
  8
0
100
AcDbBlockEnd
  0
BLOCK
  5
914
100
AcDbEntity
  8
Detail
100
AcDbBlockBegin
  2
B-68
 70
    66
 10
0.000000
 20
0.000000
 30
0.000000
  0
LWPOLYLINE
  5
915
100
AcDbEntity
  8
Detail
  6
CONTINUOUS
 62
     6
100
AcDbPolyline
 90
     4
 10
-152.500018
 20
296.250078
 42
0.000000
 10
-152.500018
 20
-23.249941
 42
0.000000
 10
-147.500018
 20
-23.249941
 42
0.000000
 10
-147.500018
 20
296.250078
 42
0.000000
  0
ENDBLK
  5
91A
100
AcDbEntity
  8
0
100
AcDbBlockEnd
  0
BLOCK
  5
91B
100
AcDbEntity
  8
L
100
AcDbBlockBegin
  2
B-69
 70
    66
 10
0.000000
 20
0.000000
 30
0.000000
  0
LWPOLYLINE
  5
91C
100
AcDbEntity
  8
L
  6
CONTINUOUS
 62
     2
100
AcDbPolyline
 90
     3
 10
-212.500018
 20
-126.249941
 42
0.000000
 10
-152.500018
 20
-126.249941
 42
0.000000
 10
-152.500018
 20
296.250078
 42
0.000000
  0
ENDBLK
  5
920
100
AcDbEntity
  8
0
100
AcDbBlockEnd
  0
BLOCK
  5
921
100
AcDbEntity
  8
L
100
AcDbBlockBegin
  2
B-70
 70
    66
 10
0.000000
 20
0.000000
 30
0.000000
  0
LWPOLYLINE
  5
922
100
AcDbEntity
  8
L
  6
CONTINUOUS
 62
     3
100
AcDbPolyline
 90
     4
 10
-67.500018
 20
296.250078
 42
0.000000
 10
-67.500018
 20
-23.249941
 42
0.000000
 10
-147.500018
 20
-23.249941
 42
0.000000
 10
-147.500018
 20
296.250078
 42
0.000000
  0
ENDBLK
  5
927
100
AcDbEntity
  8
0
100
AcDbBlockEnd
  0
BLOCK
  5
928
100
AcDbEntity
  8
L
100
AcDbBlockBegin
  2
B-71
 70
    66
 10
0.000000
 20
0.000000
 30
0.000000
  0
LWPOLYLINE
  5
929
100
AcDbEntity
  8
L
  6
HIDDEN
 62
     9
100
AcDbPolyline
 90
     2
 10
-66.500018
 20
-2.249941
 42
0.000000
 10
-66.500018
 20
67.750059
 42
0.000000
  0
LWPOLYLINE
  5
92C
100
AcDbEntity
  8
L
  6
HIDDEN
 62
     9
100
AcDbPolyline
 90
     2
 10
-31.500018
 20
-50.249941
 42
0.000000
 10
38.499982
 20
-50.249941
 42
0.000000
  0
ENDBLK
  5
92F
100
AcDbEntity
  8
0
100
AcDbBlockEnd
  0
BLOCK
  5
930
100
AcDbEntity
  8
SCHRAFF
100
AcDbBlockBegin
  2
B-72
 70
    66
 10
0.000000
 20
0.000000
 30
0.000000
  0
HATCH
  5
931
100
AcDbEntity
  8
SCHRAFF
 62
   250
440
     0
100
AcDbHatch
 10
0.000000
 20
0.000000
 30
0.000000
210
0.000000
220
0.000000
230
1.000000
  2
SOLID
 70
     1
 71
     1
 91
     1
 92
    18
 72
     1
 73
     0
 93
     9
 10
-81.000018
 20
-49.249941
 42
-1.000000
 10
-81.000018
 20
-32.249941
 42
0.000000
 10
-67.500018
 20
-32.249941
 42
0.000000
 10
-67.500018
 20
-30.249941
 42
0.000000
 10
-81.000018
 20
-30.249941
 42
1.000000
 10
-81.000018
 20
-51.249941
 42
0.000000
 10
-61.500018
 20
-51.249941
 42
0.000000
 10
-61.500018
 20
-49.249941
 42
0.000000
 10
-81.000018
 20
-49.249941
 42
0.000000
 97
     0
 75
     0
 76
     1
 98
     0
  0
ENDBLK
  5
932
100
AcDbEntity
  8
0
100
AcDbBlockEnd
  0
BLOCK
  5
933
100
AcDbEntity
  8
SCHRAFF
100
AcDbBlockBegin
  2
B-73
 70
    66
 10
0.000000
 20
0.000000
 30
0.000000
  0
HATCH
  5
934
100
AcDbEntity
  8
SCHRAFF
 62
   250
440
     0
100
AcDbHatch
 10
0.000000
 20
0.000000
 30
0.000000
210
0.000000
220
0.000000
230
1.000000
  2
SOLID
 70
     1
 71
     1
 91
     1
 92
    18
 72
     1
 73
     0
 93
    11
 10
-65.500018
 20
-2.249941
 42
0.000000
 10
-65.500018
 20
-30.249941
 42
0.000000
 10
-63.500018
 20
-30.249941
 42
0.000000
 10
-63.500018
 20
-32.249941
 42
0.000000
 10
-67.500018
 20
-32.249941
 42
0.000000
 10
-67.500018
 20
-25.249941
 42
0.000000
 10
-77.500018
 20
-25.249941
 42
0.000000
 10
-77.500018
 20
-23.249941
 42
0.000000
 10
-67.500018
 20
-23.249941
 42
0.000000
 10
-67.500018
 20
-2.249941
 42
0.000000
 10
-65.500018
 20
-2.249941
 42
0.000000
 97
     0
 75
     0
 76
     1
 98
     0
  0
HATCH
  5
935
100
AcDbEntity
  8
SCHRAFF
 62
   250
440
     0
100
AcDbHatch
 10
0.000000
 20
0.000000
 30
0.000000
210
0.000000
220
0.000000
230
1.000000
  2
SOLID
 70
     1
 71
     1
 91
     1
 92
    18
 72
     1
 73
     0
 93
     7
 10
-31.500018
 20
-49.249941
 42
0.000000
 10
-59.500018
 20
-49.249941
 42
0.000000
 10
-59.500018
 20
-47.249941
 42
0.000000
 10
-61.500018
 20
-47.249941
 42
0.000000
 10
-61.500018
 20
-51.249941
 42
0.000000
 10
-31.500018
 20
-51.249941
 42
0.000000
 10
-31.500018
 20
-49.249941
 42
0.000000
 97
     0
 75
     0
 76
     1
 98
     0
  0
ENDBLK
  5
936
100
AcDbEntity
  8
0
100
AcDbBlockEnd
  0
BLOCK
  5
937
100
AcDbEntity
  8
Detail
100
AcDbBlockBegin
  2
B-74
 70
    66
 10
0.000000
 20
0.000000
 30
0.000000
  0
LWPOLYLINE
  5
938
100
AcDbEntity
  8
Detail
  6
CONTINUOUS
 62
     4
100
AcDbPolyline
 90
     7
 10
-61.500018
 20
-49.249941
 42
0.000000
 10
-61.500018
 20
-47.249941
 42
0.000000
 10
-59.500018
 20
-47.249941
 42
0.000000
 10
-59.500018
 20
-49.249941
 42
0.000000
 10
-31.500018
 20
-49.249941
 42
0.000000
 10
-31.500018
 20
-51.249941
 42
0.000000
 10
-61.500018
 20
-51.249941
 42
0.000000
  0
LWPOLYLINE
  5
940
100
AcDbEntity
  8
Detail
  6
CONTINUOUS
 62
     4
100
AcDbPolyline
 90
    11
 10
-67.500018
 20
-32.249941
 42
0.000000
 10
-63.500018
 20
-32.249941
 42
0.000000
 10
-63.500018
 20
-30.249941
 42
0.000000
 10
-65.500018
 20
-30.249941
 42
0.000000
 10
-65.500018
 20
-2.249941
 42
0.000000
 10
-67.500018
 20
-2.249941
 42
0.000000
 10
-67.500018
 20
-23.249941
 42
0.000000
 10
-77.500018
 20
-23.249941
 42
0.000000
 10
-77.500018
 20
-25.249941
 42
0.000000
 10
-67.500018
 20
-25.249941
 42
0.000000
 10
-67.500018
 20
-30.249941
 42
0.000000
  0
ENDBLK
  5
94C
100
AcDbEntity
  8
0
100
AcDbBlockEnd
  0
BLOCK
  5
94D
100
AcDbEntity
  8
Detail
100
AcDbBlockBegin
  2
B-75
 70
    66
 10
0.000000
 20
0.000000
 30
0.000000
  0
LWPOLYLINE
  5
94E
100
AcDbEntity
  8
Detail
  6
CONTINUOUS
 62
     4
100
AcDbPolyline
 90
     2
 10
-67.500018
 20
-30.249941
 42
0.000000
 10
-81.000018
 20
-30.249941
 42
0.000000
  0
LWPOLYLINE
  5
951
100
AcDbEntity
  8
Detail
  6
CONTINUOUS
 62
     4
100
AcDbPolyline
 90
     3
 10
-81.000018
 20
-49.249941
 42
-1.000000
 10
-81.000018
 20
-32.249941
 42
0.000000
 10
-67.500018
 20
-32.249941
 42
0.000000
  0
LWPOLYLINE
  5
955
100
AcDbEntity
  8
Detail
  6
CONTINUOUS
 62
     4
100
AcDbPolyline
 90
     2
 10
-81.000018
 20
-51.249941
 42
-1.000000
 10
-81.000018
 20
-30.249941
 42
0.000000
  0
LWPOLYLINE
  5
958
100
AcDbEntity
  8
Detail
  6
CONTINUOUS
 62
     4
100
AcDbPolyline
 90
     2
 10
-61.500018
 20
-49.249941
 42
0.000000
 10
-81.000018
 20
-49.249941
 42
0.000000
  0
LWPOLYLINE
  5
95B
100
AcDbEntity
  8
Detail
  6
CONTINUOUS
 62
     4
100
AcDbPolyline
 90
     2
 10
-81.000018
 20
-51.249941
 42
0.000000
 10
-61.500018
 20
-51.249941
 42
0.000000
  0
ENDBLK
  5
95E
100
AcDbEntity
  8
0
100
AcDbBlockEnd
  0
BLOCK
  5
95F
100
AcDbEntity
  8
SCHRAFF
100
AcDbBlockBegin
  2
B-76
 70
    66
 10
0.000000
 20
0.000000
 30
0.000000
  0
HATCH
  5
960
100
AcDbEntity
  8
SCHRAFF
 62
     7
440
     0
100
AcDbHatch
 10
0.000000
 20
0.000000
 30
0.000000
210
0.000000
220
0.000000
230
1.000000
  2
SOLID
 70
     1
 71
     1
 91
     1
 92
    18
 72
     1
 73
     0
 93
     3
 10
-66.000018
 20
-15.249941
 42
1.000000
 10
-67.000018
 20
-15.249941
 42
1.000000
 10
-66.000018
 20
-15.249941
 42
0.000000
 97
     0
 75
     0
 76
     1
 98
     0
  0
CIRCLE
  5
961
100
AcDbEntity
  8
Detail
  6
CONTINUOUS
 62
     7
100
AcDbCircle
 10
-66.500018
 20
-15.249941
 40
0.500000
  0
LWPOLYLINE
  5
962
100
AcDbEntity
  8
Detail
  6
CONTINUOUS
 62
     7
100
AcDbPolyline
 90
     2
 10
77.500023
 20
-15.249941
 42
0.000000
 10
-66.500018
 20
-15.249941
 42
0.000000
  0
ENDBLK
  5
965
100
AcDbEntity
  8
0
100
AcDbBlockEnd
  0
ENDSEC
  0
SECTION
  2
ENTITIES
  0
INSERT
  5
966
100
AcDbEntity
  8
Detail
100
AcDbBlockReference
  2
B
 10
0.000000
 20
0.000000
 30
0.000000
 41
1.000000
 42
1.000000
 43
1.000000
 50
0.000000
  0
INSERT
  5
967
100
AcDbEntity
  8
0
100
AcDbBlockReference
  2
B-2
 10
0.000000
 20
0.000000
 30
0.000000
 41
1.000000
 42
1.000000
 43
1.000000
 50
0.000000
  0
INSERT
  5
968
100
AcDbEntity
  8
0
100
AcDbBlockReference
  2
B-3
 10
0.000000
 20
0.000000
 30
0.000000
 41
1.000000
 42
1.000000
 43
1.000000
 50
0.000000
  0
INSERT
  5
969
100
AcDbEntity
  8
0
100
AcDbBlockReference
  2
B-4
 10
0.000000
 20
0.000000
 30
0.000000
 41
1.000000
 42
1.000000
 43
1.000000
 50
0.000000
  0
INSERT
  5
96A
100
AcDbEntity
  8
0
100
AcDbBlockReference
  2
B-5
 10
0.000000
 20
0.000000
 30
0.000000
 41
1.000000
 42
1.000000
 43
1.000000
 50
0.000000
  0
INSERT
  5
96B
100
AcDbEntity
  8
Detail
100
AcDbBlockReference
  2
B-6
 10
0.000000
 20
0.000000
 30
0.000000
 41
1.000000
 42
1.000000
 43
1.000000
 50
0.000000
  0
INSERT
  5
96C
100
AcDbEntity
  8
0
100
AcDbBlockReference
  2
B-7
 10
0.000000
 20
0.000000
 30
0.000000
 41
1.000000
 42
1.000000
 43
1.000000
 50
0.000000
  0
INSERT
  5
96D
100
AcDbEntity
  8
0
100
AcDbBlockReference
  2
B-8
 10
0.000000
 20
0.000000
 30
0.000000
 41
1.000000
 42
1.000000
 43
1.000000
 50
0.000000
  0
INSERT
  5
96E
100
AcDbEntity
  8
0
100
AcDbBlockReference
  2
B-9
 10
0.000000
 20
0.000000
 30
0.000000
 41
1.000000
 42
1.000000
 43
1.000000
 50
0.000000
  0
INSERT
  5
96F
100
AcDbEntity
  8
0
100
AcDbBlockReference
  2
B-10
 10
0.000000
 20
0.000000
 30
0.000000
 41
1.000000
 42
1.000000
 43
1.000000
 50
0.000000
  0
INSERT
  5
970
100
AcDbEntity
  8
0
100
AcDbBlockReference
  2
B-11
 10
0.000000
 20
0.000000
 30
0.000000
 41
1.000000
 42
1.000000
 43
1.000000
 50
0.000000
  0
INSERT
  5
971
100
AcDbEntity
  8
0
100
AcDbBlockReference
  2
B-12
 10
0.000000
 20
0.000000
 30
0.000000
 41
1.000000
 42
1.000000
 43
1.000000
 50
0.000000
  0
INSERT
  5
972
100
AcDbEntity
  8
0
100
AcDbBlockReference
  2
B-13
 10
0.000000
 20
0.000000
 30
0.000000
 41
1.000000
 42
1.000000
 43
1.000000
 50
0.000000
  0
INSERT
  5
973
100
AcDbEntity
  8
0
100
AcDbBlockReference
  2
B-14
 10
0.000000
 20
0.000000
 30
0.000000
 41
1.000000
 42
1.000000
 43
1.000000
 50
0.000000
  0
INSERT
  5
974
100
AcDbEntity
  8
Detail
100
AcDbBlockReference
  2
B-15
 10
0.000000
 20
0.000000
 30
0.000000
 41
1.000000
 42
1.000000
 43
1.000000
 50
0.000000
  0
INSERT
  5
975
100
AcDbEntity
  8
L
100
AcDbBlockReference
  2
B-16
 10
0.000000
 20
0.000000
 30
0.000000
 41
1.000000
 42
1.000000
 43
1.000000
 50
0.000000
  0
INSERT
  5
976
100
AcDbEntity
  8
0
100
AcDbBlockReference
  2
B-17
 10
0.000000
 20
0.000000
 30
0.000000
 41
1.000000
 42
1.000000
 43
1.000000
 50
0.000000
  0
INSERT
  5
977
100
AcDbEntity
  8
0
100
AcDbBlockReference
  2
B-18
 10
0.000000
 20
0.000000
 30
0.000000
 41
1.000000
 42
1.000000
 43
1.000000
 50
0.000000
  0
INSERT
  5
978
100
AcDbEntity
  8
0
100
AcDbBlockReference
  2
B-19
 10
0.000000
 20
0.000000
 30
0.000000
 41
1.000000
 42
1.000000
 43
1.000000
 50
0.000000
  0
INSERT
  5
979
100
AcDbEntity
  8
Detail
100
AcDbBlockReference
  2
B-20
 10
0.000000
 20
0.000000
 30
0.000000
 41
1.000000
 42
1.000000
 43
1.000000
 50
0.000000
  0
INSERT
  5
97A
100
AcDbEntity
  8
Detail
100
AcDbBlockReference
  2
B-21
 10
0.000000
 20
0.000000
 30
0.000000
 41
1.000000
 42
1.000000
 43
1.000000
 50
0.000000
  0
INSERT
  5
97B
100
AcDbEntity
  8
Detail
100
AcDbBlockReference
  2
B-22
 10
0.000000
 20
0.000000
 30
0.000000
 41
1.000000
 42
1.000000
 43
1.000000
 50
0.000000
  0
INSERT
  5
97C
100
AcDbEntity
  8
Detail
100
AcDbBlockReference
  2
B-23
 10
0.000000
 20
0.000000
 30
0.000000
 41
1.000000
 42
1.000000
 43
1.000000
 50
0.000000
  0
INSERT
  5
97D
100
AcDbEntity
  8
Detail
100
AcDbBlockReference
  2
B-24
 10
0.000000
 20
0.000000
 30
0.000000
 41
1.000000
 42
1.000000
 43
1.000000
 50
0.000000
  0
INSERT
  5
97E
100
AcDbEntity
  8
Detail
100
AcDbBlockReference
  2
B-25
 10
0.000000
 20
0.000000
 30
0.000000
 41
1.000000
 42
1.000000
 43
1.000000
 50
0.000000
  0
INSERT
  5
97F
100
AcDbEntity
  8
Detail
100
AcDbBlockReference
  2
B-26
 10
0.000000
 20
0.000000
 30
0.000000
 41
1.000000
 42
1.000000
 43
1.000000
 50
0.000000
  0
INSERT
  5
980
100
AcDbEntity
  8
Detail
100
AcDbBlockReference
  2
B-27
 10
0.000000
 20
0.000000
 30
0.000000
 41
1.000000
 42
1.000000
 43
1.000000
 50
0.000000
  0
INSERT
  5
981
100
AcDbEntity
  8
Detail
100
AcDbBlockReference
  2
B-28
 10
0.000000
 20
0.000000
 30
0.000000
 41
1.000000
 42
1.000000
 43
1.000000
 50
0.000000
  0
INSERT
  5
982
100
AcDbEntity
  8
Detail
100
AcDbBlockReference
  2
B-29
 10
0.000000
 20
0.000000
 30
0.000000
 41
1.000000
 42
1.000000
 43
1.000000
 50
0.000000
  0
INSERT
  5
983
100
AcDbEntity
  8
Detail
100
AcDbBlockReference
  2
B-30
 10
0.000000
 20
0.000000
 30
0.000000
 41
1.000000
 42
1.000000
 43
1.000000
 50
0.000000
  0
INSERT
  5
984
100
AcDbEntity
  8
0
100
AcDbBlockReference
  2
B-31
 10
0.000000
 20
0.000000
 30
0.000000
 41
1.000000
 42
1.000000
 43
1.000000
 50
0.000000
  0
INSERT
  5
985
100
AcDbEntity
  8
0
100
AcDbBlockReference
  2
B-32
 10
0.000000
 20
0.000000
 30
0.000000
 41
1.000000
 42
1.000000
 43
1.000000
 50
0.000000
  0
INSERT
  5
986
100
AcDbEntity
  8
0
100
AcDbBlockReference
  2
B-33
 10
0.000000
 20
0.000000
 30
0.000000
 41
1.000000
 42
1.000000
 43
1.000000
 50
0.000000
  0
INSERT
  5
987
100
AcDbEntity
  8
0
100
AcDbBlockReference
  2
B-34
 10
0.000000
 20
0.000000
 30
0.000000
 41
1.000000
 42
1.000000
 43
1.000000
 50
0.000000
  0
INSERT
  5
988
100
AcDbEntity
  8
0
100
AcDbBlockReference
  2
B-35
 10
0.000000
 20
0.000000
 30
0.000000
 41
1.000000
 42
1.000000
 43
1.000000
 50
0.000000
  0
INSERT
  5
989
100
AcDbEntity
  8
L
100
AcDbBlockReference
  2
B-36
 10
0.000000
 20
0.000000
 30
0.000000
 41
1.000000
 42
1.000000
 43
1.000000
 50
0.000000
  0
INSERT
  5
98A
100
AcDbEntity
  8
0
100
AcDbBlockReference
  2
B-37
 10
0.000000
 20
0.000000
 30
0.000000
 41
1.000000
 42
1.000000
 43
1.000000
 50
0.000000
  0
INSERT
  5
98B
100
AcDbEntity
  8
Detail
100
AcDbBlockReference
  2
B-38
 10
0.000000
 20
0.000000
 30
0.000000
 41
1.000000
 42
1.000000
 43
1.000000
 50
0.000000
  0
INSERT
  5
98C
100
AcDbEntity
  8
0
100
AcDbBlockReference
  2
B-39
 10
0.000000
 20
0.000000
 30
0.000000
 41
1.000000
 42
1.000000
 43
1.000000
 50
0.000000
  0
INSERT
  5
98D
100
AcDbEntity
  8
Detail
100
AcDbBlockReference
  2
B-40
 10
0.000000
 20
0.000000
 30
0.000000
 41
1.000000
 42
1.000000
 43
1.000000
 50
0.000000
  0
INSERT
  5
98E
100
AcDbEntity
  8
Detail
100
AcDbBlockReference
  2
B-42
 10
0.000000
 20
0.000000
 30
0.000000
 41
1.000000
 42
1.000000
 43
1.000000
 50
0.000000
  0
INSERT
  5
98F
100
AcDbEntity
  8
L
100
AcDbBlockReference
  2
B-43
 10
0.000000
 20
0.000000
 30
0.000000
 41
1.000000
 42
1.000000
 43
1.000000
 50
0.000000
  0
INSERT
  5
990
100
AcDbEntity
  8
Detail
100
AcDbBlockReference
  2
B-44
 10
0.000000
 20
0.000000
 30
0.000000
 41
1.000000
 42
1.000000
 43
1.000000
 50
0.000000
  0
INSERT
  5
991
100
AcDbEntity
  8
Detail
100
AcDbBlockReference
  2
B-45
 10
0.000000
 20
0.000000
 30
0.000000
 41
1.000000
 42
1.000000
 43
1.000000
 50
0.000000
  0
INSERT
  5
992
100
AcDbEntity
  8
Detail
100
AcDbBlockReference
  2
B-46
 10
0.000000
 20
0.000000
 30
0.000000
 41
1.000000
 42
1.000000
 43
1.000000
 50
0.000000
  0
INSERT
  5
993
100
AcDbEntity
  8
Detail
100
AcDbBlockReference
  2
B-47
 10
0.000000
 20
0.000000
 30
0.000000
 41
1.000000
 42
1.000000
 43
1.000000
 50
0.000000
  0
INSERT
  5
994
100
AcDbEntity
  8
Detail
100
AcDbBlockReference
  2
B-48
 10
0.000000
 20
0.000000
 30
0.000000
 41
1.000000
 42
1.000000
 43
1.000000
 50
0.000000
  0
INSERT
  5
995
100
AcDbEntity
  8
Detail
100
AcDbBlockReference
  2
B-49
 10
0.000000
 20
0.000000
 30
0.000000
 41
1.000000
 42
1.000000
 43
1.000000
 50
0.000000
  0
INSERT
  5
996
100
AcDbEntity
  8
Detail
100
AcDbBlockReference
  2
B-50
 10
0.000000
 20
0.000000
 30
0.000000
 41
1.000000
 42
1.000000
 43
1.000000
 50
0.000000
  0
INSERT
  5
997
100
AcDbEntity
  8
Detail
100
AcDbBlockReference
  2
B-51
 10
0.000000
 20
0.000000
 30
0.000000
 41
1.000000
 42
1.000000
 43
1.000000
 50
0.000000
  0
INSERT
  5
998
100
AcDbEntity
  8
Detail
100
AcDbBlockReference
  2
B-52
 10
0.000000
 20
0.000000
 30
0.000000
 41
1.000000
 42
1.000000
 43
1.000000
 50
0.000000
  0
INSERT
  5
999
100
AcDbEntity
  8
Detail
100
AcDbBlockReference
  2
B-53
 10
0.000000
 20
0.000000
 30
0.000000
 41
1.000000
 42
1.000000
 43
1.000000
 50
0.000000
  0
INSERT
  5
99A
100
AcDbEntity
  8
Detail
100
AcDbBlockReference
  2
B-54
 10
0.000000
 20
0.000000
 30
0.000000
 41
1.000000
 42
1.000000
 43
1.000000
 50
0.000000
  0
INSERT
  5
99B
100
AcDbEntity
  8
Detail
100
AcDbBlockReference
  2
B-55
 10
0.000000
 20
0.000000
 30
0.000000
 41
1.000000
 42
1.000000
 43
1.000000
 50
0.000000
  0
INSERT
  5
99C
100
AcDbEntity
  8
Detail
100
AcDbBlockReference
  2
B-56
 10
0.000000
 20
0.000000
 30
0.000000
 41
1.000000
 42
1.000000
 43
1.000000
 50
0.000000
  0
INSERT
  5
99D
100
AcDbEntity
  8
Detail
100
AcDbBlockReference
  2
B-57
 10
0.000000
 20
0.000000
 30
0.000000
 41
1.000000
 42
1.000000
 43
1.000000
 50
0.000000
  0
INSERT
  5
99E
100
AcDbEntity
  8
Detail
100
AcDbBlockReference
  2
B-58
 10
0.000000
 20
0.000000
 30
0.000000
 41
1.000000
 42
1.000000
 43
1.000000
 50
0.000000
  0
INSERT
  5
99F
100
AcDbEntity
  8
Detail
100
AcDbBlockReference
  2
B-59
 10
0.000000
 20
0.000000
 30
0.000000
 41
1.000000
 42
1.000000
 43
1.000000
 50
0.000000
  0
INSERT
  5
9A0
100
AcDbEntity
  8
0
100
AcDbBlockReference
  2
B-60
 10
0.000000
 20
0.000000
 30
0.000000
 41
1.000000
 42
1.000000
 43
1.000000
 50
0.000000
  0
INSERT
  5
9A1
100
AcDbEntity
  8
Detail
100
AcDbBlockReference
  2
B-61
 10
0.000000
 20
0.000000
 30
0.000000
 41
1.000000
 42
1.000000
 43
1.000000
 50
0.000000
  0
INSERT
  5
9A2
100
AcDbEntity
  8
Detail
100
AcDbBlockReference
  2
B-62
 10
0.000000
 20
0.000000
 30
0.000000
 41
1.000000
 42
1.000000
 43
1.000000
 50
0.000000
  0
INSERT
  5
9A3
100
AcDbEntity
  8
Detail
100
AcDbBlockReference
  2
B-63
 10
0.000000
 20
0.000000
 30
0.000000
 41
1.000000
 42
1.000000
 43
1.000000
 50
0.000000
  0
INSERT
  5
9A4
100
AcDbEntity
  8
Detail
100
AcDbBlockReference
  2
B-64
 10
0.000000
 20
0.000000
 30
0.000000
 41
1.000000
 42
1.000000
 43
1.000000
 50
0.000000
  0
INSERT
  5
9A5
100
AcDbEntity
  8
Detail
100
AcDbBlockReference
  2
B-66
 10
0.000000
 20
0.000000
 30
0.000000
 41
1.000000
 42
1.000000
 43
1.000000
 50
0.000000
  0
INSERT
  5
9A6
100
AcDbEntity
  8
Detail
100
AcDbBlockReference
  2
B-67
 10
0.000000
 20
0.000000
 30
0.000000
 41
1.000000
 42
1.000000
 43
1.000000
 50
0.000000
  0
INSERT
  5
9A7
100
AcDbEntity
  8
Detail
100
AcDbBlockReference
  2
B-68
 10
0.000000
 20
0.000000
 30
0.000000
 41
1.000000
 42
1.000000
 43
1.000000
 50
0.000000
  0
INSERT
  5
9A8
100
AcDbEntity
  8
L
100
AcDbBlockReference
  2
B-69
 10
0.000000
 20
0.000000
 30
0.000000
 41
1.000000
 42
1.000000
 43
1.000000
 50
0.000000
  0
INSERT
  5
9A9
100
AcDbEntity
  8
L
100
AcDbBlockReference
  2
B-70
 10
0.000000
 20
0.000000
 30
0.000000
 41
1.000000
 42
1.000000
 43
1.000000
 50
0.000000
  0
INSERT
  5
9AA
100
AcDbEntity
  8
L
100
AcDbBlockReference
  2
B-71
 10
0.000000
 20
0.000000
 30
0.000000
 41
1.000000
 42
1.000000
 43
1.000000
 50
0.000000
  0
INSERT
  5
9AB
100
AcDbEntity
  8
0
100
AcDbBlockReference
  2
B-72
 10
0.000000
 20
0.000000
 30
0.000000
 41
1.000000
 42
1.000000
 43
1.000000
 50
0.000000
  0
INSERT
  5
9AC
100
AcDbEntity
  8
0
100
AcDbBlockReference
  2
B-73
 10
0.000000
 20
0.000000
 30
0.000000
 41
1.000000
 42
1.000000
 43
1.000000
 50
0.000000
  0
INSERT
  5
9AD
100
AcDbEntity
  8
Detail
100
AcDbBlockReference
  2
B-74
 10
0.000000
 20
0.000000
 30
0.000000
 41
1.000000
 42
1.000000
 43
1.000000
 50
0.000000
  0
INSERT
  5
9AE
100
AcDbEntity
  8
Detail
100
AcDbBlockReference
  2
B-75
 10
0.000000
 20
0.000000
 30
0.000000
 41
1.000000
 42
1.000000
 43
1.000000
 50
0.000000
  0
INSERT
  5
9AF
100
AcDbEntity
  8
0
100
AcDbBlockReference
  2
B-76
 10
0.000000
 20
0.000000
 30
0.000000
 41
1.000000
 42
1.000000
 43
1.000000
 50
0.000000
  0
ENDSEC
  0
SECTION
  2
OBJECTS
  0
DICTIONARY
  5
C
330
0
100
AcDbDictionary
281
     1
  3
ACAD_COLOR
350
6B
  3
ACAD_GROUP
350
D
  3
ACAD_IMAGE_DICT
350
1E2
  3
ACAD_IMAGE_VARS
350
1E3
  3
ACAD_MATERIAL
350
6A
  3
ACAD_MLINESTYLE
350
17
  3
ACAD_PLOTSETTINGS
350
19
  3
ACAD_PLOTSTYLENAME
350
E
  3
ACAD_SCALELIST
350
10C
  3
ACAD_TABLESTYLE
350
7E
  3
ACAD_VISUALSTYLE
350
EF
  3
ACDB_RECOMPOSE_DATA
350
15D
  3
AcDbVariableDictionary
350
5E
  0
DICTIONARY
  5
13C
330
10
100
AcDbDictionary
280
     1
281
     1
  0
DICTIONARY
  5
203
330
202
100
AcDbDictionary
280
     1
281
     1
  0
DICTIONARY
  5
6B
102
{ACAD_REACTORS
330
C
102
}
330
C
100
AcDbDictionary
281
     1
  0
DICTIONARY
  5
D
102
{ACAD_REACTORS
330
C
102
}
330
C
100
AcDbDictionary
281
     1
  0
DICTIONARY
  5
1E2
102
{ACAD_REACTORS
330
C
102
}
330
C
100
AcDbDictionary
281
     1
  3
WDVS mit Putz_Innenecke mit Dehnfuge - Schlaufe_5_1.tif
350
225
  0
RASTERVARIABLES
  5
1E3
102
{ACAD_REACTORS
330
C
102
}
330
C
100
AcDbRasterVariables
 90
        0
 70
     1
 71
     1
 72
     1
  0
DICTIONARY
  5
6A
102
{ACAD_REACTORS
330
C
102
}
330
C
100
AcDbDictionary
281
     1
  3
ByBlock
350
ED
  3
ByLayer
350
EC
  3
Global
350
EE
  0
DICTIONARY
  5
12D
102
{ACAD_REACTORS
330
C
102
}
330
C
100
AcDbDictionary
281
     1
  3
Annotative
350
13B
  3
Standard
350
12E
  0
DICTIONARY
  5
17
102
{ACAD_REACTORS
330
C
102
}
330
C
100
AcDbDictionary
281
     1
  3
Standard
350
18
  0
DICTIONARY
  5
19
102
{ACAD_REACTORS
330
C
102
}
330
C
100
AcDbDictionary
281
     1
  0
ACDBDICTIONARYWDFLT
  5
E
102
{ACAD_REACTORS
330
C
102
}
330
C
100
AcDbDictionary
281
     1
  3
Normal
350
F
100
AcDbDictionaryWithDefault
340
F
  0
DICTIONARY
  5
10C
102
{ACAD_REACTORS
330
C
102
}
330
C
100
AcDbDictionary
281
     1
  3
A0
350
10D
  3
A1
350
1BE
  3
A2
350
1BF
  3
A3
350
1C0
  3
A4
350
1C1
  3
A5
350
1C2
  3
A6
350
1C3
  3
A7
350
1C4
  3
A8
350
1C5
  3
A9
350
1C6
  3
B0
350
1C7
  3
B1
350
1C8
  3
B2
350
1C9
  3
B3
350
1CA
  3
B4
350
1CB
  3
B5
350
1CC
  3
B6
350
1CD
  0
DICTIONARY
  5
7E
102
{ACAD_REACTORS
330
C
102
}
330
C
100
AcDbDictionary
281
     1
  3
Standard
350
7F
  0
DICTIONARY
  5
EF
102
{ACAD_REACTORS
330
C
102
}
330
C
100
AcDbDictionary
281
     1
  3
2dWireframe
350
F5
  3
3D Hidden
350
F7
  3
3dWireframe
350
F6
  3
Basic
350
F4
  3
Brighten
350
FB
  3
ColorChange
350
FF
  3
Conceptual
350
F8
  3
Dim
350
FA
  3
Facepattern
350
FE
  3
Flat
350
F0
  3
FlatWithEdges
350
F1
  3
Gouraud
350
F2
  3
GouraudWithEdges
350
F3
  3
Linepattern
350
FD
  3
Realistic
350
F9
  3
Thicken
350
FC
  0
XRECORD
  5
15D
102
{ACAD_REACTORS
330
C
102
}
330
C
100
AcDbXrecord
280
     1
 90
        1
330
7F
  0
DICTIONARY
  5
5E
102
{ACAD_REACTORS
330
C
102
}
330
C
100
AcDbDictionary
281
     1
  3
CANNOSCALE
350
146
  3
CMLEADERSTYLE
350
145
  3
CTABLESTYLE
350
84
  3
DIMASSOC
350
5F
  3
HIDETEXT
350
63
  3
LAYEREVAL
350
1AE
  3
LAYERNOTIFY
350
1AF
  0
MATERIAL
  5
ED
102
{ACAD_REACTORS
330
6A
102
}
330
6A
100
AcDbMaterial
  1
ByBlock
 94
       63
  0
MATERIAL
  5
EC
102
{ACAD_REACTORS
330
6A
102
}
330
6A
100
AcDbMaterial
  1
ByLayer
 94
       63
  0
MATERIAL
  5
EE
102
{ACAD_XDICTIONARY
360
173
102
}
102
{ACAD_REACTORS
330
6A
102
}
330
6A
100
AcDbMaterial
  1
Global
 43
0.0007999999797903
 43
0.0
 43
0.0
 43
0.0
 43
0.0
 43
0.0007999999797903
 43
0.0
 43
0.0
 43
0.0
 43
0.0
 43
1.0
 43
0.0
 43
0.0
 43
0.0
 43
0.0
 43
1.0
 49
0.0007999999797903
 49
0.0
 49
0.0
 49
0.0
 49
0.0
 49
0.0007999999797903
 49
0.0
 49
0.0
 49
0.0
 49
0.0
 49
1.0
 49
0.0
 49
0.0
 49
0.0
 49
0.0
 49
1.0
142
0.0007999999797903
142
0.0
142
0.0
142
0.0
142
0.0
142
0.0007999999797903
142
0.0
142
0.0
142
0.0
142
0.0
142
1.0
142
0.0
142
0.0
142
0.0
142
0.0
142
1.0
144
0.0007999999797903
144
0.0
144
0.0
144
0.0
144
0.0
144
0.0007999999797903
144
0.0
144
0.0
144
0.0
144
0.0
144
1.0
144
0.0
144
0.0
144
0.0
144
0.0
144
1.0
 94
       63
1001
ACAD
1070
    -1
1070
     3
1070
     0
1000

1071
        0
1070
     0
  0
MLINESTYLE
  5
18
102
{ACAD_REACTORS
330
17
102
}
330
17
100
AcDbMlineStyle
  2
STANDARD
 70
     0
  3

 62
   256
 51
90.0
 52
90.0
 71
     2
 49
0.5
 62
   256
  6
BYLAYER
 49
-0.5
 62
   256
  6
BYLAYER
  0
ACDBPLACEHOLDER
  5
F
102
{ACAD_REACTORS
330
E
102
}
330
E
  0
SCALE
  5
10D
102
{ACAD_REACTORS
330
10C
102
}
330
10C
100
AcDbScale
 70
     0
300
1:1
140
1.0
141
1.0
290
     1
  0
SCALE
  5
1BE
102
{ACAD_REACTORS
330
10C
102
}
330
10C
100
AcDbScale
 70
     0
300
1:2
140
1.0
141
2.0
290
     0
  0
SCALE
  5
1BF
102
{ACAD_REACTORS
330
10C
102
}
330
10C
100
AcDbScale
 70
     0
300
1:4
140
1.0
141
4.0
290
     0
  0
SCALE
  5
1C0
102
{ACAD_REACTORS
330
10C
102
}
330
10C
100
AcDbScale
 70
     0
300
1:5
140
1.0
141
5.0
290
     0
  0
SCALE
  5
1C1
102
{ACAD_REACTORS
330
10C
102
}
330
10C
100
AcDbScale
 70
     0
300
1:8
140
1.0
141
8.0
290
     0
  0
SCALE
  5
1C2
102
{ACAD_REACTORS
330
10C
102
}
330
10C
100
AcDbScale
 70
     0
300
1:10
140
1.0
141
10.0
290
     0
  0
SCALE
  5
1C3
102
{ACAD_REACTORS
330
10C
102
}
330
10C
100
AcDbScale
 70
     0
300
1:16
140
1.0
141
16.0
290
     0
  0
SCALE
  5
1C4
102
{ACAD_REACTORS
330
10C
102
}
330
10C
100
AcDbScale
 70
     0
300
1:20
140
1.0
141
20.0
290
     0
  0
SCALE
  5
1C5
102
{ACAD_REACTORS
330
10C
102
}
330
10C
100
AcDbScale
 70
     0
300
1:30
140
1.0
141
30.0
290
     0
  0
SCALE
  5
1C6
102
{ACAD_REACTORS
330
10C
102
}
330
10C
100
AcDbScale
 70
     0
300
1:40
140
1.0
141
40.0
290
     0
  0
SCALE
  5
1C7
102
{ACAD_REACTORS
330
10C
102
}
330
10C
100
AcDbScale
 70
     0
300
1:50
140
1.0
141
50.0
290
     0
  0
SCALE
  5
1C8
102
{ACAD_REACTORS
330
10C
102
}
330
10C
100
AcDbScale
 70
     0
300
1:100
140
1.0
141
100.0
290
     0
  0
SCALE
  5
1C9
102
{ACAD_REACTORS
330
10C
102
}
330
10C
100
AcDbScale
 70
     0
300
2:1
140
2.0
141
1.0
290
     0
  0
SCALE
  5
1CA
102
{ACAD_REACTORS
330
10C
102
}
330
10C
100
AcDbScale
 70
     0
300
4:1
140
4.0
141
1.0
290
     0
  0
SCALE
  5
1CB
102
{ACAD_REACTORS
330
10C
102
}
330
10C
100
AcDbScale
 70
     0
300
8:1
140
8.0
141
1.0
290
     0
  0
SCALE
  5
1CC
102
{ACAD_REACTORS
330
10C
102
}
330
10C
100
AcDbScale
 70
     0
300
10:1
140
10.0
141
1.0
290
     0
  0
SCALE
  5
1CD
102
{ACAD_REACTORS
330
10C
102
}
330
10C
100
AcDbScale
 70
     0
300
100:1
140
100.0
141
1.0
290
     0
  0
TABLESTYLE
  5
7F
102
{ACAD_XDICTIONARY
360
162
102
}
102
{ACAD_REACTORS
330
7E
102
}
330
7E
100
AcDbTableStyle
  3
Standard
 70
     0
 71
     0
 40
1.5
 41
1.5
280
     0
281
     0
  7
Standard
140
4.5
170
     2
 62
     0
 63
     7
283
     0
 90
      512
 91
        0
  1

274
    -2
284
     1
 64
     0
275
    -2
285
     1
 65
     0
276
    -2
286
     1
 66
     0
277
    -2
287
     1
 67
     0
278
    -2
288
     1
 68
     0
279
    -2
289
     1
 69
     0
  7
Standard
140
6.0
170
     5
 62
     0
 63
     7
283
     0
 90
      512
 91
        0
  1

274
    -2
284
     1
 64
     0
275
    -2
285
     1
 65
     0
276
    -2
286
     1
 66
     0
277
    -2
287
     1
 67
     0
278
    -2
288
     1
 68
     0
279
    -2
289
     1
 69
     0
  7
Standard
140
4.5
170
     5
 62
     0
 63
     7
283
     0
 90
      512
 91
        0
  1

274
    -2
284
     1
 64
     0
275
    -2
285
     1
 65
     0
276
    -2
286
     1
 66
     0
277
    -2
287
     1
 67
     0
278
    -2
288
     1
 68
     0
279
    -2
289
     1
 69
     0
  0
VISUALSTYLE
  5
F5
102
{ACAD_REACTORS
330
EF
102
}
330
EF
100
AcDbVisualStyle
  2
2dWireframe
 70
     4
 71
     0
 72
     2
 73
     1
 90
        0
 40
-0.6
 41
-30.0
 62
     5
 63
     7
421
 16777215
 74
     1
 91
        4
 64
     7
 65
   257
 75
     1
175
     1
 42
1.0
 92
        0
 66
   257
 43
1.0
 76
     1
 77
     6
 78
     2
 67
     7
 79
     5
170
     0
171
     0
290
     0
174
     0
 93
        1
 44
0.0
173
     0
291
     0
 45
0.0
  0
VISUALSTYLE
  5
F7
102
{ACAD_REACTORS
330
EF
102
}
330
EF
100
AcDbVisualStyle
  2
3D Hidden
 70
     6
 71
     1
 72
     2
 73
     2
 90
        0
 40
-0.6
 41
-30.0
 62
     5
 63
     7
421
 16777215
 74
     2
 91
        2
 64
     7
 65
   257
 75
     2
175
     1
 42
40.0
 92
        0
 66
   257
 43
1.0
 76
     1
 77
     6
 78
     2
 67
     7
 79
     3
170
     0
171
     0
290
     0
174
     0
 93
        1
 44
0.0
173
     0
291
     0
 45
0.0
  0
VISUALSTYLE
  5
F6
102
{ACAD_REACTORS
330
EF
102
}
330
EF
100
AcDbVisualStyle
  2
3dWireframe
 70
     5
 71
     0
 72
     2
 73
     1
 90
        0
 40
-0.6
 41
-30.0
 62
     5
 63
     7
421
 16777215
 74
     1
 91
        4
 64
     7
 65
   257
 75
     1
175
     1
 42
1.0
 92
        0
 66
   257
 43
1.0
 76
     1
 77
     6
 78
     2
 67
     7
 79
     5
170
     0
171
     0
290
     0
174
     0
 93
        1
 44
0.0
173
     0
291
     0
 45
0.0
  0
VISUALSTYLE
  5
F4
102
{ACAD_REACTORS
330
EF
102
}
330
EF
100
AcDbVisualStyle
  2
Basic
 70
     7
 71
     1
 72
     0
 73
     1
 90
        0
 40
-0.6
 41
-30.0
 62
     5
 63
     7
421
 16777215
 74
     0
 91
        4
 64
     7
 65
   257
 75
     1
175
     1
 42
1.0
 92
        8
 66
     7
 43
1.0
 76
     1
 77
     6
 78
     2
 67
     7
 79
     5
170
     0
171
     0
290
     0
174
     0
 93
        1
 44
0.0
173
     0
291
     1
 45
0.0
  0
VISUALSTYLE
  5
FB
102
{ACAD_REACTORS
330
EF
102
}
330
EF
100
AcDbVisualStyle
  2
Brighten
 70
    12
 71
     2
 72
     2
 73
     1
 90
        0
 40
-0.6
 41
-30.0
 62
     5
 63
     7
421
 16777215
 74
     1
 91
        4
 64
     7
 65
   257
 75
     1
175
     1
 42
1.0
 92
        8
 66
     7
 43
1.0
 76
     1
 77
     6
 78
     2
 67
     7
 79
     5
170
     0
171
     0
290
     0
174
     0
 93
        1
 44
50.0
173
     0
291
     1
 45
0.0
  0
VISUALSTYLE
  5
FF
102
{ACAD_REACTORS
330
EF
102
}
330
EF
100
AcDbVisualStyle
  2
ColorChange
 70
    16
 71
     2
 72
     2
 73
     3
 90
        0
 40
-0.6
 41
-30.0
 62
     5
 63
     8
421
  8421504
 74
     1
 91
        4
 64
     7
 65
   257
 75
     1
175
     1
 42
1.0
 92
        8
 66
     8
424
  8421504
 43
1.0
 76
     1
 77
     6
 78
     2
 67
     7
 79
     5
170
     0
171
     0
290
     0
174
     0
 93
        1
 44
0.0
173
     0
291
     1
 45
0.0
  0
VISUALSTYLE
  5
F8
102
{ACAD_REACTORS
330
EF
102
}
330
EF
100
AcDbVisualStyle
  2
Conceptual
 70
     9
 71
     3
 72
     2
 73
     1
 90
        0
 40
-0.6
 41
-30.0
 62
     5
 63
     7
421
 16777215
 74
     2
 91
        2
 64
     7
 65
   257
 75
     1
175
     1
 42
40.0
 92
        8
 66
     7
 43
1.0
 76
     1
 77
     6
 78
     2
 67
     7
 79
     3
170
     0
171
     0
290
     0
174
     0
 93
        1
 44
0.0
173
     0
291
     0
 45
0.0
  0
VISUALSTYLE
  5
FA
102
{ACAD_REACTORS
330
EF
102
}
330
EF
100
AcDbVisualStyle
  2
Dim
 70
    11
 71
     2
 72
     2
 73
     1
 90
        0
 40
-0.6
 41
-30.0
 62
     5
 63
     7
421
 16777215
 74
     1
 91
        4
 64
     7
 65
   257
 75
     1
175
     1
 42
1.0
 92
        8
 66
     7
 43
1.0
 76
     1
 77
     6
 78
     2
 67
     7
 79
     5
170
     0
171
     0
290
     0
174
     0
 93
        1
 44
-50.0
173
     0
291
     1
 45
0.0
  0
VISUALSTYLE
  5
FE
102
{ACAD_REACTORS
330
EF
102
}
330
EF
100
AcDbVisualStyle
  2
Facepattern
 70
    15
 71
     2
 72
     2
 73
     1
 90
        0
 40
-0.6
 41
-30.0
 62
     5
 63
     7
421
 16777215
 74
     1
 91
        4
 64
     7
 65
   257
 75
     1
175
     1
 42
1.0
 92
        8
 66
     7
 43
1.0
 76
     1
 77
     6
 78
     2
 67
     7
 79
     5
170
     0
171
     0
290
     0
174
     0
 93
        1
 44
0.0
173
     0
291
     1
 45
0.0
  0
VISUALSTYLE
  5
F0
102
{ACAD_REACTORS
330
EF
102
}
330
EF
100
AcDbVisualStyle
  2
Flat
 70
     0
 71
     2
 72
     1
 73
     1
 90
        2
 40
-0.6
 41
30.0
 62
     5
 63
     7
421
 16777215
 74
     0
 91
        4
 64
     7
 65
   257
 75
     1
175
     1
 42
1.0
 92
        8
 66
     7
 43
1.0
 76
     1
 77
     6
 78
     2
 67
     7
 79
     5
170
     0
171
     0
290
     0
174
     0
 93
        1
 44
0.0
173
     0
291
     1
 45
0.0
  0
VISUALSTYLE
  5
F1
102
{ACAD_REACTORS
330
EF
102
}
330
EF
100
AcDbVisualStyle
  2
FlatWithEdges
 70
     1
 71
     2
 72
     1
 73
     1
 90
        2
 40
-0.6
 41
30.0
 62
     5
 63
     7
421
 16777215
 74
     1
 91
        4
 64
     7
 65
   257
 75
     1
175
     1
 42
1.0
 92
        0
 66
   257
 43
1.0
 76
     1
 77
     6
 78
     2
 67
     7
 79
     5
170
     0
171
     0
290
     0
174
     0
 93
        1
 44
0.0
173
     0
291
     1
 45
0.0
  0
VISUALSTYLE
  5
F2
102
{ACAD_REACTORS
330
EF
102
}
330
EF
100
AcDbVisualStyle
  2
Gouraud
 70
     2
 71
     2
 72
     2
 73
     1
 90
        2
 40
-0.6
 41
30.0
 62
     5
 63
     7
421
 16777215
 74
     0
 91
        4
 64
     7
 65
   257
 75
     1
175
     1
 42
1.0
 92
        0
 66
     7
 43
1.0
 76
     1
 77
     6
 78
     2
 67
     7
 79
     5
170
     0
171
     0
290
     0
174
     0
 93
        1
 44
0.0
173
     0
291
     1
 45
0.0
  0
VISUALSTYLE
  5
F3
102
{ACAD_REACTORS
330
EF
102
}
330
EF
100
AcDbVisualStyle
  2
GouraudWithEdges
 70
     3
 71
     2
 72
     2
 73
     1
 90
        2
 40
-0.6
 41
30.0
 62
     5
 63
     7
421
 16777215
 74
     1
 91
        4
 64
     7
 65
   257
 75
     1
175
     1
 42
1.0
 92
        0
 66
   257
 43
1.0
 76
     1
 77
     6
 78
     2
 67
     7
 79
     5
170
     0
171
     0
290
     0
174
     0
 93
        1
 44
0.0
173
     0
291
     1
 45
0.0
  0
VISUALSTYLE
  5
FD
102
{ACAD_REACTORS
330
EF
102
}
330
EF
100
AcDbVisualStyle
  2
Linepattern
 70
    14
 71
     2
 72
     2
 73
     1
 90
        0
 40
-0.6
 41
-30.0
 62
     5
 63
     7
421
 16777215
 74
     1
 91
        4
 64
     7
 65
   257
 75
     7
175
     7
 42
1.0
 92
        8
 66
     7
 43
1.0
 76
     1
 77
     6
 78
     2
 67
     7
 79
     5
170
     0
171
     0
290
     0
174
     0
 93
        1
 44
0.0
173
     0
291
     1
 45
0.0
  0
VISUALSTYLE
  5
F9
102
{ACAD_REACTORS
330
EF
102
}
330
EF
100
AcDbVisualStyle
  2
Realistic
 70
     8
 71
     2
 72
     2
 73
     1
 90
        0
 40
-0.6
 41
-30.0
 62
     5
 63
     7
421
 16777215
 74
     1
 91
        0
 64
     7
 65
   257
 75
     1
175
     1
 42
1.0
 92
        8
 66
     8
424
  7895160
 43
1.0
 76
     1
 77
     6
 78
     2
 67
     7
 79
     5
170
     0
171
     0
290
     0
174
     0
 93
       13
 44
0.0
173
     0
291
     0
 45
0.0
  0
VISUALSTYLE
  5
FC
102
{ACAD_REACTORS
330
EF
102
}
330
EF
100
AcDbVisualStyle
  2
Thicken
 70
    13
 71
     2
 72
     2
 73
     1
 90
        0
 40
-0.6
 41
-30.0
 62
     5
 63
     7
421
 16777215
 74
     1
 91
        4
 64
     7
 65
   257
 75
     1
175
     1
 42
1.0
 92
       12
 66
     7
 43
1.0
 76
     1
 77
     6
 78
     2
 67
     7
 79
     5
170
     0
171
     0
290
     0
174
     0
 93
        1
 44
0.0
173
     0
291
     1
 45
0.0
  0
DICTIONARYVAR
  5
146
102
{ACAD_REACTORS
330
5E
102
}
330
5E
100
DictionaryVariables
280
     0
  1
1:1
  0
DICTIONARYVAR
  5
145
102
{ACAD_REACTORS
330
5E
102
}
330
5E
100
DictionaryVariables
280
     0
  1
STANDARD
  0
DICTIONARYVAR
  5
84
102
{ACAD_REACTORS
330
5E
102
}
330
5E
100
DictionaryVariables
280
     0
  1
STANDARD
  0
DICTIONARYVAR
  5
5F
102
{ACAD_REACTORS
330
5E
102
}
330
5E
100
DictionaryVariables
280
     0
  1
2
  0
DICTIONARYVAR
  5
63
102
{ACAD_REACTORS
330
5E
102
}
330
5E
100
DictionaryVariables
280
     0
  1
1
  0
DICTIONARYVAR
  5
1AE
102
{ACAD_REACTORS
330
5E
102
}
330
5E
100
DictionaryVariables
280
     0
  1
0
  0
DICTIONARYVAR
  5
1AF
102
{ACAD_REACTORS
330
5E
102
}
330
5E
100
DictionaryVariables
280
     0
  1
0
  0
DICTIONARY
  5
173
330
EE
100
AcDbDictionary
280
     1
281
     1
  3
BUMPTILE
360
175
  3
DIFFUSETILE
360
174
  3
OPACITYTILE
360
176
  3
REFLECTIONTILE
360
177
  0
DICTIONARY
  5
162
330
7F
100
AcDbDictionary
280
     1
281
     1
  3
ACAD_ROUNDTRIP_2008_TABLESTYLE_CELLSTYLEMAP
360
1E7
  0
XRECORD
  5
175
102
{ACAD_REACTORS
330
173
102
}
330
173
100
AcDbXrecord
280
     1
270
     1
271
     1
  0
XRECORD
  5
174
102
{ACAD_REACTORS
330
173
102
}
330
173
100
AcDbXrecord
280
     1
270
     1
271
     1
  0
XRECORD
  5
176
102
{ACAD_REACTORS
330
173
102
}
330
173
100
AcDbXrecord
280
     1
270
     1
271
     1
  0
XRECORD
  5
177
102
{ACAD_REACTORS
330
173
102
}
330
173
100
AcDbXrecord
280
     1
270
     1
271
     1
  0
CELLSTYLEMAP
  5
1E7
102
{ACAD_REACTORS
330
162
102
}
330
162
100
AcDbCellStyleMap
 90
        3
300
CELLSTYLE
  1
TABLEFORMAT_BEGIN
 90
        5
170
     1
 91
        0
 92
    32768
 62
   257
 93
        1
300
CONTENTFORMAT
  1
CONTENTFORMAT_BEGIN
 90
        0
 91
        0
 92
      512
 93
        0
300

 40
0.0
140
1.0
 94
        5
 62
     0
340
11
144
6.0
309
CONTENTFORMAT_END
171
     1
301
MARGIN
  1
CELLMARGIN_BEGIN
 40
1.5
 40
1.5
 40
1.5
 40
1.5
 40
4.5
 40
4.5
309
CELLMARGIN_END
 94
        6
 95
        1
302
GRIDFORMAT
  1
GRIDFORMAT_BEGIN
 90
        0
 91
        1
 62
     0
 92
       -2
340
7D8
 93
        0
 40
1.125
309
GRIDFORMAT_END
 95
        2
302
GRIDFORMAT
  1
GRIDFORMAT_BEGIN
 90
        0
 91
        1
 62
     0
 92
       -2
340
7D8
 93
        0
 40
1.125
309
GRIDFORMAT_END
 95
        4
302
GRIDFORMAT
  1
GRIDFORMAT_BEGIN
 90
        0
 91
        1
 62
     0
 92
       -2
340
7D8
 93
        0
 40
1.125
309
GRIDFORMAT_END
 95
        8
302
GRIDFORMAT
  1
GRIDFORMAT_BEGIN
 90
        0
 91
        1
 62
     0
 92
       -2
340
7D8
 93
        0
 40
1.125
309
GRIDFORMAT_END
 95
       16
302
GRIDFORMAT
  1
GRIDFORMAT_BEGIN
 90
        0
 91
        1
 62
     0
 92
       -2
340
7D8
 93
        0
 40
1.125
309
GRIDFORMAT_END
 95
       32
302
GRIDFORMAT
  1
GRIDFORMAT_BEGIN
 90
        0
 91
        1
 62
     0
 92
       -2
340
7D8
 93
        0
 40
1.125
309
GRIDFORMAT_END
309
TABLEFORMAT_END
  1
CELLSTYLE_BEGIN
 90
        1
 91
        1
300
_TITLE
309
CELLSTYLE_END
300
CELLSTYLE
  1
TABLEFORMAT_BEGIN
 90
        5
170
     1
 91
        0
 92
        0
 62
   257
 93
        1
300
CONTENTFORMAT
  1
CONTENTFORMAT_BEGIN
 90
        0
 91
        0
 92
      512
 93
        0
300

 40
0.0
140
1.0
 94
        5
 62
     0
340
11
144
4.5
309
CONTENTFORMAT_END
171
     1
301
MARGIN
  1
CELLMARGIN_BEGIN
 40
1.5
 40
1.5
 40
1.5
 40
1.5
 40
4.5
 40
4.5
309
CELLMARGIN_END
 94
        6
 95
        1
302
GRIDFORMAT
  1
GRIDFORMAT_BEGIN
 90
        0
 91
        1
 62
     0
 92
       -2
340
7D8
 93
        0
 40
1.125
309
GRIDFORMAT_END
 95
        2
302
GRIDFORMAT
  1
GRIDFORMAT_BEGIN
 90
        0
 91
        1
 62
     0
 92
       -2
340
7D8
 93
        0
 40
1.125
309
GRIDFORMAT_END
 95
        4
302
GRIDFORMAT
  1
GRIDFORMAT_BEGIN
 90
        0
 91
        1
 62
     0
 92
       -2
340
7D8
 93
        0
 40
1.125
309
GRIDFORMAT_END
 95
        8
302
GRIDFORMAT
  1
GRIDFORMAT_BEGIN
 90
        0
 91
        1
 62
     0
 92
       -2
340
7D8
 93
        0
 40
1.125
309
GRIDFORMAT_END
 95
       16
302
GRIDFORMAT
  1
GRIDFORMAT_BEGIN
 90
        0
 91
        1
 62
     0
 92
       -2
340
7D8
 93
        0
 40
1.125
309
GRIDFORMAT_END
 95
       32
302
GRIDFORMAT
  1
GRIDFORMAT_BEGIN
 90
        0
 91
        1
 62
     0
 92
       -2
340
7D8
 93
        0
 40
1.125
309
GRIDFORMAT_END
309
TABLEFORMAT_END
  1
CELLSTYLE_BEGIN
 90
        2
 91
        1
300
_HEADER
309
CELLSTYLE_END
300
CELLSTYLE
  1
TABLEFORMAT_BEGIN
 90
        5
170
     1
 91
        0
 92
        0
 62
   257
 93
        1
300
CONTENTFORMAT
  1
CONTENTFORMAT_BEGIN
 90
        0
 91
        0
 92
      512
 93
        0
300

 40
0.0
140
1.0
 94
        2
 62
     0
340
11
144
4.5
309
CONTENTFORMAT_END
171
     1
301
MARGIN
  1
CELLMARGIN_BEGIN
 40
1.5
 40
1.5
 40
1.5
 40
1.5
 40
4.5
 40
4.5
309
CELLMARGIN_END
 94
        6
 95
        1
302
GRIDFORMAT
  1
GRIDFORMAT_BEGIN
 90
        0
 91
        1
 62
     0
 92
       -2
340
7D8
 93
        0
 40
1.125
309
GRIDFORMAT_END
 95
        2
302
GRIDFORMAT
  1
GRIDFORMAT_BEGIN
 90
        0
 91
        1
 62
     0
 92
       -2
340
7D8
 93
        0
 40
1.125
309
GRIDFORMAT_END
 95
        4
302
GRIDFORMAT
  1
GRIDFORMAT_BEGIN
 90
        0
 91
        1
 62
     0
 92
       -2
340
7D8
 93
        0
 40
1.125
309
GRIDFORMAT_END
 95
        8
302
GRIDFORMAT
  1
GRIDFORMAT_BEGIN
 90
        0
 91
        1
 62
     0
 92
       -2
340
7D8
 93
        0
 40
1.125
309
GRIDFORMAT_END
 95
       16
302
GRIDFORMAT
  1
GRIDFORMAT_BEGIN
 90
        0
 91
        1
 62
     0
 92
       -2
340
7D8
 93
        0
 40
1.125
309
GRIDFORMAT_END
 95
       32
302
GRIDFORMAT
  1
GRIDFORMAT_BEGIN
 90
        0
 91
        1
 62
     0
 92
       -2
340
7D8
 93
        0
 40
1.125
309
GRIDFORMAT_END
309
TABLEFORMAT_END
  1
CELLSTYLE_BEGIN
 90
        3
 91
        2
300
_DATA
309
CELLSTYLE_END
  0
IMAGEDEF_REACTOR
  5
226
330
224
100
AcDbRasterImageDefReactor
 90
     2
330
224
  0
IMAGEDEF
  5
225
102
{ACAD_REACTORS
330
5E
330
226
102
}
330
5E
100
AcDbRasterImageDef
 90
     0
  1
WDVS mit Putz_Innenecke mit Dehnfuge - Schlaufe_5_1.tif
 10
395.000000
 20
405.000000
 11
0.002532
 21
0.002469
280
     1
281
     0
  0
ENDSEC
  0
EOF
