  0
SECTION
  2
HEADER
  9
$ACADVER
  1
AC1024
  9
$ACADMAINTVER
 70
     6
  9
$DWGCODEPAGE
  3
ANSI_1252
  9
$INSBASE
 10
0.0
 20
0.0
 30
0.0
  9
$EXTMIN
 10
-262.500018
 20
-371.249941
 30
0.000000
  9
$EXTMAX
 10
237.500023
 20
346.250078
 30
0.000000
  9
$LIMMIN
 10
0.0
 20
0.0
  9
$LIMMAX
 10
420.0
 20
297.0
  9
$ORTHOMODE
 70
     0
  9
$REGENMODE
 70
     1
  9
$FILLMODE
 70
     1
  9
$QTEXTMODE
 70
     0
  9
$MIRRTEXT
 70
     0
  9
$LTSCALE
 40
25.000000
  9
$ATTMODE
 70
     1
  9
$TEXTSIZE
 40
2.5
  9
$TRACEWID
 40
1.0
  9
$TEXTSTYLE
  7
Standard
  9
$CLAYER
  8
0
  9
$CELTYPE
  6
ByLayer
  9
$CECOLOR
 62
   256
  9
$CELTSCALE
 40
1.0
  9
$DISPSILH
 70
     0
  9
$DIMSCALE
 40
1.0
  9
$DIMASZ
 40
2.5
  9
$DIMEXO
 40
0.625
  9
$DIMDLI
 40
3.75
  9
$DIMRND
 40
0.0
  9
$DIMDLE
 40
0.0
  9
$DIMEXE
 40
1.25
  9
$DIMTP
 40
0.0
  9
$DIMTM
 40
0.0
  9
$DIMTXT
 40
2.5
  9
$DIMCEN
 40
2.5
  9
$DIMTSZ
 40
0.0
  9
$DIMTOL
 70
     0
  9
$DIMLIM
 70
     0
  9
$DIMTIH
 70
     0
  9
$DIMTOH
 70
     0
  9
$DIMSE1
 70
     0
  9
$DIMSE2
 70
     0
  9
$DIMTAD
 70
     1
  9
$DIMZIN
 70
     8
  9
$DIMBLK
  1

  9
$DIMASO
 70
     1
  9
$DIMSHO
 70
     1
  9
$DIMPOST
  1

  9
$DIMAPOST
  1

  9
$DIMALT
 70
     0
  9
$DIMALTD
 70
     3
  9
$DIMALTF
 40
0.03937007874016
  9
$DIMLFAC
 40
1.0
  9
$DIMTOFL
 70
     1
  9
$DIMTVP
 40
0.0
  9
$DIMTIX
 70
     0
  9
$DIMSOXD
 70
     0
  9
$DIMSAH
 70
     0
  9
$DIMBLK1
  1

  9
$DIMBLK2
  1

  9
$DIMSTYLE
  2
ISO-25
  9
$DIMCLRD
 70
     0
  9
$DIMCLRE
 70
     0
  9
$DIMCLRT
 70
     0
  9
$DIMTFAC
 40
1.0
  9
$DIMGAP
 40
0.625
  9
$DIMJUST
 70
     0
  9
$DIMSD1
 70
     0
  9
$DIMSD2
 70
     0
  9
$DIMTOLJ
 70
     0
  9
$DIMTZIN
 70
     8
  9
$DIMALTZ
 70
     0
  9
$DIMALTTZ
 70
     0
  9
$DIMUPT
 70
     0
  9
$DIMDEC
 70
     2
  9
$DIMTDEC
 70
     2
  9
$DIMALTU
 70
     2
  9
$DIMALTTD
 70
     3
  9
$DIMTXSTY
  7
Standard
  9
$DIMAUNIT
 70
     0
  9
$DIMADEC
 70
     0
  9
$DIMALTRND
 40
0.0
  9
$DIMAZIN
 70
     0
  9
$DIMDSEP
 70
    44
  9
$DIMATFIT
 70
     3
  9
$DIMFRAC
 70
     0
  9
$DIMLDRBLK
  1

  9
$DIMLUNIT
 70
     2
  9
$DIMLWD
 70
    -2
  9
$DIMLWE
 70
    -2
  9
$DIMTMOVE
 70
     0
  9
$DIMFXL
 40
1.0
  9
$DIMFXLON
 70
     0
  9
$DIMJOGANG
 40
0.7853981633974483
  9
$DIMTFILL
 70
     0
  9
$DIMTFILLCLR
 70
     0
  9
$DIMARCSYM
 70
     0
  9
$DIMLTYPE
  6

  9
$DIMLTEX1
  6

  9
$DIMLTEX2
  6

  9
$DIMTXTDIRECTION
 70
     0
  9
$LUNITS
 70
     2
  9
$LUPREC
 70
     4
  9
$SKETCHINC
 40
1.0
  9
$FILLETRAD
 40
10.0
  9
$AUNITS
 70
     0
  9
$AUPREC
 70
     0
  9
$MENU
  1
.
  9
$ELEVATION
 40
0.0
  9
$PELEVATION
 40
0.0
  9
$THICKNESS
 40
0.0
  9
$LIMCHECK
 70
     0
  9
$CHAMFERA
 40
10.0
  9
$CHAMFERB
 40
10.0
  9
$CHAMFERC
 40
20.0
  9
$CHAMFERD
 40
0.0
  9
$SKPOLY
 70
     0
  9
$TDCREATE
 40
2452006.439837951
  9
$TDUCREATE
 40
2452006.356504618
  9
$TDUPDATE
 40
2452006.439963946
  9
$TDUUPDATE
 40
2452006.356630613
  9
$TDINDWG
 40
0.0001273843
  9
$TDUSRTIMER
 40
0.0001272685
  9
$USRTIMER
 70
     1
  9
$ANGBASE
 50
0.0
  9
$ANGDIR
 70
     0
  9
$PDMODE
 70
     0
  9
$PDSIZE
 40
0.0
  9
$PLINEWID
 40
0.0
  9
$SPLFRAME
 70
     0
  9
$SPLINETYPE
 70
     6
  9
$SPLINESEGS
 70
     8
  9
$HANDSEED
  5
9AE
  9
$SURFTAB1
 70
     6
  9
$SURFTAB2
 70
     6
  9
$SURFTYPE
 70
     6
  9
$SURFU
 70
     6
  9
$SURFV
 70
     6
  9
$UCSBASE
  2

  9
$UCSNAME
  2

  9
$UCSORG
 10
0.0
 20
0.0
 30
0.0
  9
$UCSXDIR
 10
1.0
 20
0.0
 30
0.0
  9
$UCSYDIR
 10
0.0
 20
1.0
 30
0.0
  9
$UCSORTHOREF
  2

  9
$UCSORTHOVIEW
 70
     0
  9
$UCSORGTOP
 10
0.0
 20
0.0
 30
0.0
  9
$UCSORGBOTTOM
 10
0.0
 20
0.0
 30
0.0
  9
$UCSORGLEFT
 10
0.0
 20
0.0
 30
0.0
  9
$UCSORGRIGHT
 10
0.0
 20
0.0
 30
0.0
  9
$UCSORGFRONT
 10
0.0
 20
0.0
 30
0.0
  9
$UCSORGBACK
 10
0.0
 20
0.0
 30
0.0
  9
$PUCSBASE
  2

  9
$PUCSNAME
  2

  9
$PUCSORG
 10
0.0
 20
0.0
 30
0.0
  9
$PUCSXDIR
 10
1.0
 20
0.0
 30
0.0
  9
$PUCSYDIR
 10
0.0
 20
1.0
 30
0.0
  9
$PUCSORTHOREF
  2

  9
$PUCSORTHOVIEW
 70
     0
  9
$PUCSORGTOP
 10
0.0
 20
0.0
 30
0.0
  9
$PUCSORGBOTTOM
 10
0.0
 20
0.0
 30
0.0
  9
$PUCSORGLEFT
 10
0.0
 20
0.0
 30
0.0
  9
$PUCSORGRIGHT
 10
0.0
 20
0.0
 30
0.0
  9
$PUCSORGFRONT
 10
0.0
 20
0.0
 30
0.0
  9
$PUCSORGBACK
 10
0.0
 20
0.0
 30
0.0
  9
$USERI1
 70
     0
  9
$USERI2
 70
     0
  9
$USERI3
 70
     0
  9
$USERI4
 70
     0
  9
$USERI5
 70
     0
  9
$USERR1
 40
0.0
  9
$USERR2
 40
0.0
  9
$USERR3
 40
0.0
  9
$USERR4
 40
0.0
  9
$USERR5
 40
0.0
  9
$WORLDVIEW
 70
     1
  9
$SHADEDGE
 70
     3
  9
$SHADEDIF
 70
    70
  9
$TILEMODE
 70
     1
  9
$MAXACTVP
 70
    64
  9
$PINSBASE
 10
0.0
 20
0.0
 30
0.0
  9
$PLIMCHECK
 70
     0
  9
$PEXTMIN
 10
1.000000000000000E+20
 20
1.000000000000000E+20
 30
1.000000000000000E+20
  9
$PEXTMAX
 10
-1.000000000000000E+20
 20
-1.000000000000000E+20
 30
-1.000000000000000E+20
  9
$PLIMMIN
 10
0.0
 20
0.0
  9
$PLIMMAX
 10
420.0
 20
297.0
  9
$UNITMODE
 70
     0
  9
$VISRETAIN
 70
     1
  9
$PLINEGEN
 70
     0
  9
$PSLTSCALE
 70
     1
  9
$TREEDEPTH
 70
  3020
  9
$CMLSTYLE
  2
Standard
  9
$CMLJUST
 70
     0
  9
$CMLSCALE
 40
20.0
  9
$PROXYGRAPHICS
 70
     1
  9
$MEASUREMENT
 70
     1
  9
$CELWEIGHT
370
    -1
  9
$ENDCAPS
280
     0
  9
$JOINSTYLE
280
     0
  9
$LWDISPLAY
290
     0
  9
$INSUNITS
 70
     4
  9
$HYPERLINKBASE
  1

  9
$STYLESHEET
  1

  9
$XEDIT
290
     1
  9
$CEPSNTYPE
380
     0
  9
$PSTYLEMODE
290
     1
  9
$FINGERPRINTGUID
  2

  9
$VERSIONGUID
  2

  9
$EXTNAMES
290
     1
  9
$PSVPSCALE
 40
0.0
  9
$OLESTARTUP
290
     0
  9
$SORTENTS
280
   127
  9
$INDEXCTL
280
     0
  9
$HIDETEXT
280
     1
  9
$XCLIPFRAME
280
     2
  9
$HALOGAP
280
     0
  9
$OBSCOLOR
 70
   257
  9
$OBSLTYPE
280
     0
  9
$INTERSECTIONDISPLAY
280
     0
  9
$INTERSECTIONCOLOR
 70
   257
  9
$DIMASSOC
280
     2
  9
$PROJECTNAME
  1

  9
$CAMERADISPLAY
290
     0
  9
$LENSLENGTH
 40
50.0
  9
$CAMERAHEIGHT
 40
0.0
  9
$STEPSPERSEC
 40
2.0
  9
$STEPSIZE
 40
6.0
  9
$3DDWFPREC
 40
2.0
  9
$PSOLWIDTH
 40
5.0
  9
$PSOLHEIGHT
 40
80.0
  9
$LOFTANG1
 40
1.570796326794896
  9
$LOFTANG2
 40
1.570796326794896
  9
$LOFTMAG1
 40
0.0
  9
$LOFTMAG2
 40
0.0
  9
$LOFTPARAM
 70
     7
  9
$LOFTNORMALS
280
     1
  9
$LATITUDE
 40
37.795
  9
$LONGITUDE
 40
-122.394
  9
$NORTHDIRECTION
 40
0.0
  9
$TIMEZONE
 70
 -8000
  9
$LIGHTGLYPHDISPLAY
280
     1
  9
$TILEMODELIGHTSYNCH
280
     1
  9
$CMATERIAL
347
EC
  9
$SOLIDHIST
280
     1
  9
$SHOWHIST
280
     1
  9
$DWFFRAME
280
     2
  9
$DGNFRAME
280
     0
  9
$REALWORLDSCALE
290
     1
  9
$INTERFERECOLOR
 62
     1
  9
$INTERFEREOBJVS
345
F9
  9
$INTERFEREVPVS
346
F6
  9
$CSHADOW
280
     0
  9
$SHADOWPLANELOCATION
 40
0.0
  0
ENDSEC
  0
SECTION
  2
CLASSES
  0
CLASS
  1
ACDBDICTIONARYWDFLT
  2
AcDbDictionaryWithDefault
  3
ObjectDBX Classes
 90
        0
 91
        1
280
     0
281
     0
  0
CLASS
  1
ACDBPLACEHOLDER
  2
AcDbPlaceHolder
  3
ObjectDBX Classes
 90
        0
 91
        1
280
     0
281
     0
  0
CLASS
  1
LAYOUT
  2
AcDbLayout
  3
ObjectDBX Classes
 90
        0
 91
        2
280
     0
281
     0
  0
CLASS
  1
DICTIONARYVAR
  2
AcDbDictionaryVar
  3
ObjectDBX Classes
 90
        0
 91
        7
280
     0
281
     0
  0
CLASS
  1
TABLESTYLE
  2
AcDbTableStyle
  3
ObjectDBX Classes
 90
     4095
 91
        1
280
     0
281
     0
  0
CLASS
  1
MATERIAL
  2
AcDbMaterial
  3
ObjectDBX Classes
 90
     1153
 91
        3
280
     0
281
     0
  0
CLASS
  1
VISUALSTYLE
  2
AcDbVisualStyle
  3
ObjectDBX Classes
 90
     4095
 91
       16
280
     0
281
     0
  0
CLASS
  1
SCALE
  2
AcDbScale
  3
ObjectDBX Classes
 90
     1153
 91
       17
280
     0
281
     0
  0
CLASS
  1
MLEADERSTYLE
  2
AcDbMLeaderStyle
  3
ACDB_MLEADERSTYLE_CLASS
 90
     4095
 91
        1
280
     0
281
     0
  0
CLASS
  1
CELLSTYLEMAP
  2
AcDbCellStyleMap
  3
ObjectDBX Classes
 90
     1152
 91
        2
280
     0
281
     0
  0
CLASS
  1
EXACXREFPANELOBJECT
  2
ExAcXREFPanelObject
  3
EXAC_ESW
 90
    33793
 91
        0
280
     0
281
     0
  0
CLASS
  1
NPOCOLLECTION
  2
AcDbImpNonPersistentObjectsCollection
  3
ObjectDBX Classes
 90
     1153
 91
        0
280
     0
281
     0
  0
CLASS
  1
LAYER_INDEX
  2
AcDbLayerIndex
  3
ObjectDBX Classes
 90
        0
 91
        0
280
     0
281
     0
  0
CLASS
  1
SPATIAL_INDEX
  2
AcDbSpatialIndex
  3
ObjectDBX Classes
 90
        0
 91
        0
280
     0
281
     0
  0
CLASS
  1
IDBUFFER
  2
AcDbIdBuffer
  3
ObjectDBX Classes
 90
        0
 91
        0
280
     0
281
     0
  0
CLASS
  1
RASTERVARIABLES
  2
AcDbRasterVariables
  3
ISM
 90
        0
 91
        2
280
     0
281
     0
  0
CLASS
  1
IMAGEDEF
  2
AcDbRasterImageDef
  3
ISM
 90
        0
 91
        5
280
     0
281
     0
  0
CLASS
  1
IMAGEDEF_REACTOR
  2
AcDbRasterImageDefReactor
  3
ISM
 90
        1
 91
        5
280
     0
281
     0
  0
CLASS
  1
IMAGE
  2
AcDbRasterImage
  3
ISM
 90
     2175
 91
        5
280
     0
281
     1
  0
CLASS
  1
LWPOLYLINE
  2
AcDbPolyline
  3
ObjectDBX Classes
 90
        0
 91
        0
280
     0
281
     1
  0
CLASS
  1
OLE2FRAME
  2
AcDbOle2Frame
  3
ObjectDBX Classes
 90
        0
 91
        0
280
     0
281
     1
  0
CLASS
  1
HATCH
  2
AcDbHatch
  3
ObjectDBX Classes
 90
        0
 91
        0
280
     0
281
     1
  0
CLASS
  1
XRECORD
  2
AcDbXrecord
  3
ObjectDBX Classes
 90
        0
 91
        9
280
     0
281
     0
  0
CLASS
  1
SORTENTSTABLE
  2
AcDbSortentsTable
  3
ObjectDBX Classes
 90
        0
 91
        0
280
     0
281
     0
  0
CLASS
  1
OBJECT_PTR
  2
CAseDLPNTableRecord
  3
"ASE-LPNTableRecord"
 90
    32769
 91
        0
280
     0
281
     0
  0
CLASS
  1
PLOTSETTINGS
  2
AcDbPlotSettings
  3
ObjectDBX Classes
 90
        0
 91
        0
280
     0
281
     0
  0
CLASS
  1
VBA_PROJECT
  2
AcDbVbaProject
  3
acad
 90
        0
 91
        0
280
     0
281
     0
  0
CLASS
  1
WIPEOUT
  2
AcDbWipeout
  3
WipeOut|AutoCAD Express Tool|expresstools@autodesk.com
 90
    32895
 91
        0
280
     0
281
     1
  0
CLASS
  1
WIPEOUTVARIABLES
  2
AcDbWipeoutVariables
  3
WipeOut|AutoCAD Express Tool|expresstools@autodesk.com
 90
    32768
 91
        0
280
     0
281
     0
  0
CLASS
  1
RTEXT
  2
RText
  3
RText|AutoCAD Express Tool|expresstools@autodesk.com
 90
    32768
 91
        0
280
     0
281
     1
  0
CLASS
  1
ARCALIGNEDTEXT
  2
AcDbArcAlignedText
  3
ATEXT|AutoCAD Express Tool|expresstools@autodesk.com
 90
    32768
 91
        0
280
     0
281
     1
  0
ENDSEC
  0
SECTION
  2
TABLES
  0
TABLE
  2
VPORT
  5
93E
100
AcDbSymbolTable
 70
     1
  0
VPORT
  5
93F
100
AcDbSymbolTableRecord
100
AcDbViewportTableRecord
  2
*ACTIVE
 70
     0
 10
0.000000
 20
0.000000
 11
1.000000
 21
1.000000
 12
50.000000
 22
50.000000
 13
0.000000
 23
0.000000
 14
1.000000
 24
1.000000
 15
10.000000
 25
10.000000
 16
0.000000
 26
0.000000
 36
1.000000
 17
0.000000
 27
0.000000
 37
0.000000
 40
100.000000
 41
1.387409
 42
50.000000
 43
0.000000
 44
0.000000
 50
0.000000
 51
0.000000
 71
     0
 72
   100
 73
     1
 74
     1
 75
     0
 76
     0
 77
     0
 78
     0
  0
ENDTAB
  0
TABLE
  2
LTYPE
  5
940
330
0
100
AcDbSymbolTable
 70
     9
  0
LTYPE
  5
941
330
940
100
AcDbSymbolTableRecord
100
AcDbLinetypeTableRecord
  2
ByBlock
 70
     0
  3

 72
    65
 73
     0
 40
0.000000
  0
LTYPE
  5
942
330
940
100
AcDbSymbolTableRecord
100
AcDbLinetypeTableRecord
  2
ByLayer
 70
     0
  3

 72
    65
 73
     0
 40
0.000000
  0
LTYPE
  5
943
330
940
100
AcDbSymbolTableRecord
100
AcDbLinetypeTableRecord
  2
CONTINUOUS
 70
     0
  3
Solid line
 72
    65
 73
     0
 40
0.000000
  0
LTYPE
  5
944
330
940
100
AcDbSymbolTableRecord
100
AcDbLinetypeTableRecord
  2
HIDDEN
 70
     0
  3
_ _ _ _ _ _ _ _ _ _ _ _ _ _ _ _ _ _ _ _ _ _ _
 72
    65
 73
     2
 40
0.375000
 49
0.250000
 74
     0
 49
-0.125000
 74
     0
  0
LTYPE
  5
945
330
940
100
AcDbSymbolTableRecord
100
AcDbLinetypeTableRecord
  2
DOT
 70
     0
  3
...............................................
 72
    65
 73
     2
 40
0.250000
 49
0.000000
 74
     0
 49
-0.250000
 74
     0
  0
LTYPE
  5
946
330
940
100
AcDbSymbolTableRecord
100
AcDbLinetypeTableRecord
  2
DASHED
 70
     0
  3
__ __ __ __ __ __ __ __ __ __ __ __ __ __ __ 
 72
    65
 73
     2
 40
0.750000
 49
0.500000
 74
     0
 49
-0.250000
 74
     0
  0
LTYPE
  5
947
330
940
100
AcDbSymbolTableRecord
100
AcDbLinetypeTableRecord
  2
DIVIDE
 70
     0
  3
__ . . __ . . __ . . __ . . __ . . __ . . __
 72
    65
 73
     6
 40
1.250000
 49
0.500000
 74
     0
 49
-0.250000
 74
     0
 49
0.000000
 74
     0
 49
-0.250000
 74
     0
 49
0.000000
 74
     0
 49
-0.250000
 74
     0
  0
LTYPE
  5
948
330
940
100
AcDbSymbolTableRecord
100
AcDbLinetypeTableRecord
  2
DASHDOT
 70
     0
  3
__ . __ . __ . __ . __ . __ . __ . __ . __ . __
 72
    65
 73
     4
 40
1.000000
 49
0.500000
 74
     0
 49
-0.250000
 74
     0
 49
0.000000
 74
     0
 49
-0.250000
 74
     0
  0
LTYPE
  5
949
330
940
100
AcDbSymbolTableRecord
100
AcDbLinetypeTableRecord
  2
BORDER
 70
     0
  3
__ __ . __ __ . __ __ . __ __ . __ __ . __ __
 72
    65
 73
     6
 40
1.750000
 49
0.500000
 74
     0
 49
-0.250000
 74
     0
 49
0.500000
 74
     0
 49
-0.250000
 74
     0
 49
0.000000
 74
     0
 49
-0.250000
 74
     0
  0
LTYPE
  5
94A
330
940
100
AcDbSymbolTableRecord
100
AcDbLinetypeTableRecord
  2
CENTER
 70
     0
  3
____ _ ____ _ ____ _ ____ _ ____ _ ____ _ ____
 72
    65
 73
     4
 40
2.000000
 49
1.250000
 74
     0
 49
-0.250000
 74
     0
 49
0.250000
 74
     0
 49
-0.250000
 74
     0
  0
LTYPE
  5
94B
330
940
100
AcDbSymbolTableRecord
100
AcDbLinetypeTableRecord
  2
PHANTOM
 70
     0
  3
_____ _ _ _____ _ _ _____ _ _ _____ _ _ ____
 72
    65
 73
     6
 40
2.500000
 49
1.250000
 74
     0
 49
-0.250000
 74
     0
 49
0.250000
 74
     0
 49
-0.250000
 74
     0
 49
0.250000
 74
     0
 49
-0.250000
 74
     0
  0
ENDTAB
  0
TABLE
  2
LAYER
  5
94C
100
AcDbSymbolTable
 70
     4
  0
LAYER
  5
94D
100
AcDbSymbolTableRecord
100
AcDbLayerTableRecord
  2
0
 70
     0
 62
     7
  6
CONTINUOUS
370
    -3
390
     0
  0
LAYER
  5
94E
100
AcDbSymbolTableRecord
100
AcDbLayerTableRecord
  2
SCHRAFF
 70
     0
 62
     7
  6
CONTINUOUS
370
    -3
390
     0
  0
LAYER
  5
94F
100
AcDbSymbolTableRecord
100
AcDbLayerTableRecord
  2
Detail
 70
     0
 62
     7
  6
CONTINUOUS
370
    -3
390
     0
  0
LAYER
  5
950
100
AcDbSymbolTableRecord
100
AcDbLayerTableRecord
  2
Stahlbau
 70
     0
 62
     7
  6
CONTINUOUS
370
    -3
390
     0
  0
ENDTAB
  0
TABLE
  2
STYLE
  5
951
100
AcDbSymbolTable
 70
     2
  0
STYLE
  5
201
100
AcDbSymbolTableRecord
100
AcDbTextStyleTableRecord
  2
STANDARD
 70
     0
 40
0.000000
 41
1.000000
 50
0.000000
 71
     0
 42
3.500000
  3
txt
  4

  0
STYLE
  5
27C
100
AcDbSymbolTableRecord
100
AcDbTextStyleTableRecord
  2
Arial
 70
     0
 40
0.000000
 41
1.000000
 50
0.000000
 71
     0
 42
3.500000
  3
Arial.ttf
  4

1001
ACAD
1000
Arial
1071
     0
  0
ENDTAB
  0
TABLE
  2
DIMSTYLE
  5
952
100
AcDbSymbolTable
 70
     0
100
AcDbDimStyleTable
  0
ENDTAB
  0
TABLE
  2
VIEW
  5
953
100
AcDbSymbolTable
 70
     0
  0
ENDTAB
  0
TABLE
  2
UCS
  5
954
100
AcDbSymbolTable
 70
     0
  0
ENDTAB
  0
TABLE
  2
APPID
  5
955
100
AcDbSymbolTable
 70
     1
  0
APPID
  5
956
100
AcDbSymbolTableRecord
100
AcDbRegAppTableRecord
  2
ACAD
 70
     0
  0
ENDTAB
  0
TABLE
  2
BLOCK_RECORD
  5
957
100
AcDbSymbolTable
 70
    87
  0
BLOCK_RECORD
  5
202
102
{ACAD_XDICTIONARY
360
203
102
}
100
AcDbSymbolTableRecord
100
AcDbBlockTableRecord
  2
*Model_Space
  0
BLOCK_RECORD
  5
958
100
AcDbSymbolTableRecord
100
AcDbBlockTableRecord
  2
*Paper_Space
  0
BLOCK_RECORD
  5
959
100
AcDbSymbolTableRecord
100
AcDbBlockTableRecord
  2
*Paper_Space0
  0
BLOCK_RECORD
  5
95A
100
AcDbSymbolTableRecord
100
AcDbBlockTableRecord
  2
B
  0
BLOCK_RECORD
  5
95B
100
AcDbSymbolTableRecord
100
AcDbBlockTableRecord
  2
B-2
  0
BLOCK_RECORD
  5
95C
100
AcDbSymbolTableRecord
100
AcDbBlockTableRecord
  2
B-3
  0
BLOCK_RECORD
  5
95D
100
AcDbSymbolTableRecord
100
AcDbBlockTableRecord
  2
B-4
  0
BLOCK_RECORD
  5
95E
100
AcDbSymbolTableRecord
100
AcDbBlockTableRecord
  2
B-5
  0
BLOCK_RECORD
  5
95F
100
AcDbSymbolTableRecord
100
AcDbBlockTableRecord
  2
B-6
  0
BLOCK_RECORD
  5
960
100
AcDbSymbolTableRecord
100
AcDbBlockTableRecord
  2
B-7
  0
BLOCK_RECORD
  5
961
100
AcDbSymbolTableRecord
100
AcDbBlockTableRecord
  2
B-8
  0
BLOCK_RECORD
  5
962
100
AcDbSymbolTableRecord
100
AcDbBlockTableRecord
  2
B-9
  0
BLOCK_RECORD
  5
963
100
AcDbSymbolTableRecord
100
AcDbBlockTableRecord
  2
B-10
  0
BLOCK_RECORD
  5
964
100
AcDbSymbolTableRecord
100
AcDbBlockTableRecord
  2
B-11
  0
BLOCK_RECORD
  5
965
100
AcDbSymbolTableRecord
100
AcDbBlockTableRecord
  2
B-12
  0
BLOCK_RECORD
  5
966
100
AcDbSymbolTableRecord
100
AcDbBlockTableRecord
  2
B-13
  0
BLOCK_RECORD
  5
967
100
AcDbSymbolTableRecord
100
AcDbBlockTableRecord
  2
B-14
  0
BLOCK_RECORD
  5
968
100
AcDbSymbolTableRecord
100
AcDbBlockTableRecord
  2
B-15
  0
BLOCK_RECORD
  5
969
100
AcDbSymbolTableRecord
100
AcDbBlockTableRecord
  2
B-16
  0
BLOCK_RECORD
  5
96A
100
AcDbSymbolTableRecord
100
AcDbBlockTableRecord
  2
B-17
  0
BLOCK_RECORD
  5
96B
100
AcDbSymbolTableRecord
100
AcDbBlockTableRecord
  2
B-18
  0
BLOCK_RECORD
  5
96C
100
AcDbSymbolTableRecord
100
AcDbBlockTableRecord
  2
B-19
  0
BLOCK_RECORD
  5
96D
100
AcDbSymbolTableRecord
100
AcDbBlockTableRecord
  2
B-20
  0
BLOCK_RECORD
  5
96E
100
AcDbSymbolTableRecord
100
AcDbBlockTableRecord
  2
B-21
  0
BLOCK_RECORD
  5
96F
100
AcDbSymbolTableRecord
100
AcDbBlockTableRecord
  2
B-22
  0
BLOCK_RECORD
  5
970
100
AcDbSymbolTableRecord
100
AcDbBlockTableRecord
  2
B-23
  0
BLOCK_RECORD
  5
971
100
AcDbSymbolTableRecord
100
AcDbBlockTableRecord
  2
B-24
  0
BLOCK_RECORD
  5
972
100
AcDbSymbolTableRecord
100
AcDbBlockTableRecord
  2
B-25
  0
BLOCK_RECORD
  5
973
100
AcDbSymbolTableRecord
100
AcDbBlockTableRecord
  2
B-26
  0
BLOCK_RECORD
  5
974
100
AcDbSymbolTableRecord
100
AcDbBlockTableRecord
  2
B-27
  0
BLOCK_RECORD
  5
975
100
AcDbSymbolTableRecord
100
AcDbBlockTableRecord
  2
B-28
  0
BLOCK_RECORD
  5
976
100
AcDbSymbolTableRecord
100
AcDbBlockTableRecord
  2
B-29
  0
BLOCK_RECORD
  5
977
100
AcDbSymbolTableRecord
100
AcDbBlockTableRecord
  2
B-30
  0
BLOCK_RECORD
  5
978
100
AcDbSymbolTableRecord
100
AcDbBlockTableRecord
  2
B-31
  0
BLOCK_RECORD
  5
979
100
AcDbSymbolTableRecord
100
AcDbBlockTableRecord
  2
B-32
  0
BLOCK_RECORD
  5
97A
100
AcDbSymbolTableRecord
100
AcDbBlockTableRecord
  2
B-33
  0
BLOCK_RECORD
  5
97B
100
AcDbSymbolTableRecord
100
AcDbBlockTableRecord
  2
B-34
  0
BLOCK_RECORD
  5
97C
100
AcDbSymbolTableRecord
100
AcDbBlockTableRecord
  2
B-35
  0
BLOCK_RECORD
  5
97D
100
AcDbSymbolTableRecord
100
AcDbBlockTableRecord
  2
B-36
  0
BLOCK_RECORD
  5
97E
100
AcDbSymbolTableRecord
100
AcDbBlockTableRecord
  2
B-37
  0
BLOCK_RECORD
  5
97F
100
AcDbSymbolTableRecord
100
AcDbBlockTableRecord
  2
B-38
  0
BLOCK_RECORD
  5
980
100
AcDbSymbolTableRecord
100
AcDbBlockTableRecord
  2
B-39
  0
BLOCK_RECORD
  5
981
100
AcDbSymbolTableRecord
100
AcDbBlockTableRecord
  2
glasleiste
  0
BLOCK_RECORD
  5
982
100
AcDbSymbolTableRecord
100
AcDbBlockTableRecord
  2
rahmen
  0
BLOCK_RECORD
  5
983
100
AcDbSymbolTableRecord
100
AcDbBlockTableRecord
  2
fluegel
  0
BLOCK_RECORD
  5
984
100
AcDbSymbolTableRecord
100
AcDbBlockTableRecord
  2
w-schenkel
  0
BLOCK_RECORD
  5
985
100
AcDbSymbolTableRecord
100
AcDbBlockTableRecord
  2
glas
  0
BLOCK_RECORD
  5
986
100
AcDbSymbolTableRecord
100
AcDbBlockTableRecord
  2
B-40
  0
BLOCK_RECORD
  5
987
100
AcDbSymbolTableRecord
100
AcDbBlockTableRecord
  2
B-41
  0
BLOCK_RECORD
  5
988
100
AcDbSymbolTableRecord
100
AcDbBlockTableRecord
  2
B-42
  0
BLOCK_RECORD
  5
989
100
AcDbSymbolTableRecord
100
AcDbBlockTableRecord
  2
B-43
  0
BLOCK_RECORD
  5
98A
100
AcDbSymbolTableRecord
100
AcDbBlockTableRecord
  2
B-44
  0
BLOCK_RECORD
  5
98B
100
AcDbSymbolTableRecord
100
AcDbBlockTableRecord
  2
B-45
  0
BLOCK_RECORD
  5
98C
100
AcDbSymbolTableRecord
100
AcDbBlockTableRecord
  2
B-46
  0
BLOCK_RECORD
  5
98D
100
AcDbSymbolTableRecord
100
AcDbBlockTableRecord
  2
B-47
  0
BLOCK_RECORD
  5
98E
100
AcDbSymbolTableRecord
100
AcDbBlockTableRecord
  2
B-48
  0
BLOCK_RECORD
  5
98F
100
AcDbSymbolTableRecord
100
AcDbBlockTableRecord
  2
B-49
  0
BLOCK_RECORD
  5
990
100
AcDbSymbolTableRecord
100
AcDbBlockTableRecord
  2
B-50
  0
BLOCK_RECORD
  5
991
100
AcDbSymbolTableRecord
100
AcDbBlockTableRecord
  2
B-51
  0
BLOCK_RECORD
  5
992
100
AcDbSymbolTableRecord
100
AcDbBlockTableRecord
  2
B-52
  0
BLOCK_RECORD
  5
993
100
AcDbSymbolTableRecord
100
AcDbBlockTableRecord
  2
B-53
  0
BLOCK_RECORD
  5
994
100
AcDbSymbolTableRecord
100
AcDbBlockTableRecord
  2
B-54
  0
BLOCK_RECORD
  5
995
100
AcDbSymbolTableRecord
100
AcDbBlockTableRecord
  2
B-55
  0
BLOCK_RECORD
  5
996
100
AcDbSymbolTableRecord
100
AcDbBlockTableRecord
  2
B-56
  0
BLOCK_RECORD
  5
997
100
AcDbSymbolTableRecord
100
AcDbBlockTableRecord
  2
B-57
  0
BLOCK_RECORD
  5
998
100
AcDbSymbolTableRecord
100
AcDbBlockTableRecord
  2
B-58
  0
BLOCK_RECORD
  5
999
100
AcDbSymbolTableRecord
100
AcDbBlockTableRecord
  2
B-59
  0
BLOCK_RECORD
  5
99A
100
AcDbSymbolTableRecord
100
AcDbBlockTableRecord
  2
B-60
  0
BLOCK_RECORD
  5
99B
100
AcDbSymbolTableRecord
100
AcDbBlockTableRecord
  2
B-61
  0
BLOCK_RECORD
  5
99C
100
AcDbSymbolTableRecord
100
AcDbBlockTableRecord
  2
B-62
  0
BLOCK_RECORD
  5
99D
100
AcDbSymbolTableRecord
100
AcDbBlockTableRecord
  2
B-63
  0
BLOCK_RECORD
  5
99E
100
AcDbSymbolTableRecord
100
AcDbBlockTableRecord
  2
B-64
  0
BLOCK_RECORD
  5
99F
100
AcDbSymbolTableRecord
100
AcDbBlockTableRecord
  2
B-65
  0
BLOCK_RECORD
  5
9A0
100
AcDbSymbolTableRecord
100
AcDbBlockTableRecord
  2
B-66
  0
BLOCK_RECORD
  5
9A1
100
AcDbSymbolTableRecord
100
AcDbBlockTableRecord
  2
B-67
  0
BLOCK_RECORD
  5
9A2
100
AcDbSymbolTableRecord
100
AcDbBlockTableRecord
  2
B-68
  0
BLOCK_RECORD
  5
9A3
100
AcDbSymbolTableRecord
100
AcDbBlockTableRecord
  2
B-70
  0
BLOCK_RECORD
  5
9A4
100
AcDbSymbolTableRecord
100
AcDbBlockTableRecord
  2
B-71
  0
BLOCK_RECORD
  5
9A5
100
AcDbSymbolTableRecord
100
AcDbBlockTableRecord
  2
B-72
  0
BLOCK_RECORD
  5
9A6
100
AcDbSymbolTableRecord
100
AcDbBlockTableRecord
  2
B-73
  0
BLOCK_RECORD
  5
9A7
100
AcDbSymbolTableRecord
100
AcDbBlockTableRecord
  2
B-74
  0
BLOCK_RECORD
  5
9A8
100
AcDbSymbolTableRecord
100
AcDbBlockTableRecord
  2
B-75
  0
BLOCK_RECORD
  5
9A9
100
AcDbSymbolTableRecord
100
AcDbBlockTableRecord
  2
B-76
  0
BLOCK_RECORD
  5
9AA
100
AcDbSymbolTableRecord
100
AcDbBlockTableRecord
  2
B-77
  0
BLOCK_RECORD
  5
9AB
100
AcDbSymbolTableRecord
100
AcDbBlockTableRecord
  2
B-78
  0
BLOCK_RECORD
  5
9AC
100
AcDbSymbolTableRecord
100
AcDbBlockTableRecord
  2
B-79
  0
BLOCK_RECORD
  5
9AD
100
AcDbSymbolTableRecord
100
AcDbBlockTableRecord
  2
B-80
  0
ENDTAB
  0
ENDSEC
  0
SECTION
  2
BLOCKS
  0
BLOCK
  5
204
100
AcDbEntity
  8
0
100
AcDbBlockBegin
  2
*Model_Space
 70
     0
 10
0.000000
 20
0.000000
 30
0.000000
  3
*Model_Space
  1

  0
ENDBLK
  5
205
100
AcDbEntity
  8
0
100
AcDbBlockEnd
  0
BLOCK
  5
206
100
AcDbEntity
 67
     1
  8
0
100
AcDbBlockBegin
  2
*Paper_Space
 70
     0
 10
0.000000
 20
0.000000
 30
0.000000
  3
*Paper_Space
  1

  0
ENDBLK
  5
207
100
AcDbEntity
 67
     1
  8
0
100
AcDbBlockEnd
  0
BLOCK
  5
208
100
AcDbEntity
 67
     1
  8
0
100
AcDbBlockBegin
  2
*Paper_Space0
 70
     0
 10
0.000000
 20
0.000000
 30
0.000000
  3
*Paper_Space0
  1

  0
ENDBLK
  5
209
100
AcDbEntity
 67
     1
  8
0
100
AcDbBlockEnd
  0
BLOCK
  5
20A
100
AcDbEntity
  8
SCHRAFF
100
AcDbBlockBegin
  2
B
 70
    66
 10
0.000000
 20
0.000000
 30
0.000000
  0
HATCH
  5
20B
100
AcDbEntity
  8
SCHRAFF
 62
     8
440
     0
100
AcDbHatch
 10
0.000000
 20
0.000000
 30
0.000000
210
0.000000
220
0.000000
230
1.000000
  2
SOLID
 70
     1
 71
     1
 91
     1
 92
    18
 72
     1
 73
     0
 93
    10
 10
-132.500011
 20
185.522826
 42
0.000000
 10
-132.500011
 20
173.522828
 42
0.000000
 10
-130.500013
 20
173.522828
 42
0.000000
 10
-130.500013
 20
183.522828
 42
0.000000
 10
-127.500013
 20
183.522828
 42
0.000000
 10
-127.500013
 20
178.522828
 42
0.000000
 10
-126.500013
 20
178.522828
 42
0.000000
 10
-125.500013
 20
184.183080
 42
0.000000
 10
-130.500015
 20
185.522826
 42
0.000000
 10
-132.500011
 20
185.522826
 42
0.000000
 97
     0
 75
     0
 76
     1
 98
     0
  0
ENDBLK
  5
20C
100
AcDbEntity
  8
0
100
AcDbBlockEnd
  0
BLOCK
  5
20D
100
AcDbEntity
  8
SCHRAFF
100
AcDbBlockBegin
  2
B-2
 70
    66
 10
0.000000
 20
0.000000
 30
0.000000
  0
IMAGE
  5
20E
100
AcDbEntity
  8
SCHRAFF
100
AcDbRasterImage
 10
140.969928
 20
-349.249941
 30
0.000000
 11
0.204938
 21
-0.000000
 31
0.000000
 12
-0.000000
 22
0.204938
 32
-0.000000
 13
395.000000
 23
405.000000
340
20F
 70
     7
280
     0
281
    50
282
    50
283
     0
360
210
 71
     1
 91
     2
 14
-0.500000
 24
-0.500000
 14
394.500000
 24
404.500000
  0
ENDBLK
  5
211
100
AcDbEntity
  8
0
100
AcDbBlockEnd
  0
BLOCK
  5
212
100
AcDbEntity
  8
SCHRAFF
100
AcDbBlockBegin
  2
B-3
 70
    66
 10
0.000000
 20
0.000000
 30
0.000000
  0
HATCH
  5
213
100
AcDbEntity
  8
SCHRAFF
 62
    21
440
     0
100
AcDbHatch
 10
0.000000
 20
0.000000
 30
0.000000
210
0.000000
220
0.000000
230
1.000000
  2
SOLID
 70
     1
 71
     1
 91
     1
 92
    18
 72
     1
 73
     0
 93
   349
 10
8.499982
 20
-194.486274
 42
0.000000
 10
8.499982
 20
-193.575920
 42
0.000000
 10
8.999982
 20
-192.575920
 42
0.000000
 10
8.499982
 20
-191.575920
 42
0.000000
 10
8.499982
 20
-190.575920
 42
0.000000
 10
7.999982
 20
-189.575920
 42
0.000000
 10
8.499982
 20
-188.575920
 42
0.000000
 10
8.499982
 20
-187.583586
 42
0.000000
 10
8.999982
 20
-186.575920
 42
0.000000
 10
8.499982
 20
-185.575920
 42
0.000000
 10
8.499982
 20
-184.575920
 42
0.000000
 10
7.999982
 20
-183.575920
 42
0.000000
 10
8.499982
 20
-182.575920
 42
0.000000
 10
8.499982
 20
-181.575920
 42
0.000000
 10
8.999982
 20
-180.575920
 42
0.000000
 10
8.499982
 20
-179.575920
 42
0.000000
 10
8.499982
 20
-178.575920
 42
0.000000
 10
7.999982
 20
-177.575920
 42
0.000000
 10
8.499982
 20
-176.575920
 42
0.000000
 10
8.499982
 20
-175.575920
 42
0.000000
 10
8.999982
 20
-174.575920
 42
0.000000
 10
8.499982
 20
-173.575920
 42
0.000000
 10
8.499982
 20
-172.575920
 42
0.000000
 10
7.999982
 20
-171.575920
 42
0.000000
 10
8.499982
 20
-170.575920
 42
0.000000
 10
8.499982
 20
-169.575920
 42
0.000000
 10
8.999982
 20
-168.575920
 42
0.000000
 10
8.499982
 20
-167.575920
 42
0.000000
 10
8.499982
 20
-166.575920
 42
0.000000
 10
7.999982
 20
-165.575920
 42
0.000000
 10
8.499982
 20
-164.575920
 42
0.000000
 10
8.499982
 20
-163.575920
 42
0.000000
 10
8.999982
 20
-162.575920
 42
0.000000
 10
8.499982
 20
-161.575920
 42
0.000000
 10
8.499982
 20
-160.575920
 42
0.000000
 10
7.999982
 20
-159.575920
 42
0.000000
 10
8.499982
 20
-158.575920
 42
0.000000
 10
8.499982
 20
-157.575920
 42
0.000000
 10
8.999982
 20
-156.575920
 42
0.000000
 10
8.499982
 20
-155.575920
 42
0.000000
 10
8.499982
 20
-154.575920
 42
0.000000
 10
7.999982
 20
-153.575920
 42
0.000000
 10
8.499982
 20
-152.575920
 42
0.000000
 10
8.499982
 20
-151.575920
 42
0.000000
 10
8.999982
 20
-150.575920
 42
0.000000
 10
8.499982
 20
-149.575920
 42
0.000000
 10
8.499982
 20
-148.575920
 42
0.000000
 10
7.999982
 20
-147.575920
 42
0.000000
 10
8.499982
 20
-146.575920
 42
0.000000
 10
8.499982
 20
-145.583586
 42
0.000000
 10
8.999982
 20
-144.575920
 42
0.000000
 10
8.499982
 20
-143.575920
 42
0.000000
 10
8.499982
 20
-142.575920
 42
0.000000
 10
7.999982
 20
-141.575920
 42
0.000000
 10
8.499982
 20
-140.575920
 42
0.000000
 10
8.499982
 20
-139.575920
 42
0.000000
 10
8.999982
 20
-138.575920
 42
0.000000
 10
8.499982
 20
-137.575920
 42
0.000000
 10
8.499982
 20
-136.575920
 42
0.000000
 10
7.999982
 20
-135.575920
 42
0.000000
 10
8.499982
 20
-134.575920
 42
0.000000
 10
8.499982
 20
-133.575920
 42
0.000000
 10
8.999982
 20
-132.575920
 42
0.000000
 10
8.499982
 20
-131.575920
 42
0.000000
 10
8.499982
 20
-130.575920
 42
0.000000
 10
7.999982
 20
-129.575920
 42
0.000000
 10
8.499982
 20
-128.575920
 42
0.000000
 10
8.499982
 20
-127.575920
 42
0.000000
 10
8.999982
 20
-126.575920
 42
0.000000
 10
8.499982
 20
-125.575920
 42
0.000000
 10
8.499982
 20
-124.575920
 42
0.000000
 10
7.999982
 20
-123.575920
 42
0.000000
 10
8.499982
 20
-122.575920
 42
0.000000
 10
8.499982
 20
-121.575920
 42
0.000000
 10
8.999982
 20
-120.575920
 42
0.000000
 10
8.499982
 20
-119.575920
 42
0.000000
 10
8.499982
 20
-118.575920
 42
0.000000
 10
7.999982
 20
-117.575920
 42
0.000000
 10
8.499982
 20
-116.575920
 42
0.000000
 10
8.499982
 20
-115.575920
 42
0.000000
 10
8.999982
 20
-114.575920
 42
0.000000
 10
8.499982
 20
-113.575920
 42
0.000000
 10
8.499982
 20
-112.575920
 42
0.000000
 10
7.999982
 20
-111.575920
 42
0.000000
 10
8.499982
 20
-110.575920
 42
0.000000
 10
8.499982
 20
-109.575920
 42
0.000000
 10
8.999982
 20
-108.575920
 42
0.000000
 10
8.499982
 20
-107.575920
 42
0.000000
 10
8.499982
 20
-106.575920
 42
0.000000
 10
7.999982
 20
-105.575920
 42
0.000000
 10
8.499982
 20
-104.575920
 42
0.000000
 10
8.499982
 20
-103.575920
 42
0.000000
 10
8.999982
 20
-102.575920
 42
0.000000
 10
8.499982
 20
-101.575920
 42
0.000000
 10
8.499982
 20
-100.575920
 42
0.000000
 10
7.999982
 20
-99.575920
 42
0.000000
 10
8.499982
 20
-98.575920
 42
0.000000
 10
8.499982
 20
-97.575920
 42
0.000000
 10
8.999982
 20
-96.575920
 42
0.000000
 10
8.499982
 20
-95.575920
 42
0.000000
 10
8.499982
 20
-94.575920
 42
0.000000
 10
7.999982
 20
-93.575920
 42
0.000000
 10
8.499982
 20
-92.575920
 42
0.000000
 10
8.499982
 20
-91.575920
 42
0.000000
 10
8.999982
 20
-90.575920
 42
0.000000
 10
8.499982
 20
-89.575920
 42
0.000000
 10
8.499982
 20
-88.575920
 42
0.000000
 10
7.999982
 20
-87.575920
 42
0.000000
 10
8.499982
 20
-86.575920
 42
0.000000
 10
8.499982
 20
-85.575920
 42
0.000000
 10
8.999982
 20
-84.575920
 42
0.000000
 10
8.499982
 20
-83.575920
 42
0.000000
 10
8.499982
 20
-82.575920
 42
0.000000
 10
7.999982
 20
-81.575920
 42
0.000000
 10
8.499982
 20
-80.575920
 42
0.000000
 10
8.499982
 20
-79.575920
 42
0.000000
 10
8.999982
 20
-78.575920
 42
0.000000
 10
8.499982
 20
-77.575920
 42
0.000000
 10
8.499982
 20
-76.575920
 42
0.000000
 10
7.999982
 20
-75.575920
 42
0.000000
 10
8.499982
 20
-74.575920
 42
0.000000
 10
8.499982
 20
-73.575920
 42
0.000000
 10
8.999982
 20
-72.575920
 42
0.000000
 10
8.499982
 20
-71.575920
 42
0.000000
 10
8.499982
 20
-70.575920
 42
0.000000
 10
7.999982
 20
-69.575920
 42
0.000000
 10
8.499982
 20
-68.575920
 42
0.000000
 10
8.499982
 20
-67.575920
 42
0.000000
 10
8.999982
 20
-66.575920
 42
0.000000
 10
8.499982
 20
-65.575920
 42
0.000000
 10
8.499982
 20
-64.575920
 42
0.000000
 10
7.999982
 20
-63.575920
 42
0.000000
 10
8.499982
 20
-62.575920
 42
0.000000
 10
8.499982
 20
-61.575920
 42
0.000000
 10
8.999982
 20
-60.575920
 42
0.000000
 10
8.499982
 20
-59.575920
 42
0.000000
 10
8.499982
 20
-58.575920
 42
0.000000
 10
7.999982
 20
-57.575920
 42
0.000000
 10
8.499982
 20
-56.575920
 42
0.000000
 10
8.499982
 20
-55.575920
 42
0.000000
 10
8.999982
 20
-54.575920
 42
0.000000
 10
8.499982
 20
-53.575920
 42
0.000000
 10
8.499982
 20
-52.575920
 42
0.000000
 10
7.999982
 20
-51.575920
 42
0.000000
 10
8.499982
 20
-50.575920
 42
0.000000
 10
8.499982
 20
-49.575920
 42
0.000000
 10
8.999982
 20
-48.575920
 42
0.000000
 10
8.499982
 20
-47.575920
 42
0.000000
 10
8.499982
 20
-46.575920
 42
0.000000
 10
7.999982
 20
-45.575920
 42
0.000000
 10
8.499982
 20
-44.575920
 42
0.000000
 10
8.499982
 20
-43.575920
 42
0.000000
 10
8.999982
 20
-42.575920
 42
0.000000
 10
8.499982
 20
-41.575920
 42
0.000000
 10
8.499982
 20
-40.575920
 42
0.000000
 10
7.999982
 20
-39.575920
 42
0.000000
 10
8.499982
 20
-38.575920
 42
0.000000
 10
8.499982
 20
-37.575920
 42
0.000000
 10
8.999982
 20
-36.575920
 42
0.000000
 10
8.499982
 20
-35.575920
 42
0.000000
 10
8.499982
 20
-34.575920
 42
0.000000
 10
7.999982
 20
-33.575920
 42
0.000000
 10
8.499982
 20
-32.575920
 42
0.000000
 10
8.499982
 20
-31.575920
 42
0.000000
 10
8.999982
 20
-30.575920
 42
0.000000
 10
8.499982
 20
-29.575920
 42
0.000000
 10
8.499982
 20
-28.575920
 42
0.000000
 10
7.999982
 20
-27.575920
 42
0.000000
 10
8.499982
 20
-26.575920
 42
0.000000
 10
8.499982
 20
-25.575920
 42
0.000000
 10
8.999982
 20
-24.575920
 42
0.000000
 10
8.499982
 20
-23.575920
 42
0.000000
 10
8.499982
 20
-22.575920
 42
0.000000
 10
7.999982
 20
-21.575920
 42
0.000000
 10
8.499982
 20
-20.575920
 42
0.000000
 10
8.499982
 20
-19.575920
 42
0.000000
 10
8.999982
 20
-18.575920
 42
0.000000
 10
8.499982
 20
-17.575920
 42
0.000000
 10
8.499982
 20
-16.575920
 42
0.000000
 10
7.999982
 20
-15.575920
 42
0.000000
 10
8.499982
 20
-14.575920
 42
0.000000
 10
8.499982
 20
-13.575920
 42
0.000000
 10
8.999982
 20
-12.575920
 42
0.000000
 10
8.499982
 20
-11.575920
 42
0.000000
 10
8.499982
 20
-10.575920
 42
0.000000
 10
7.999982
 20
-9.575920
 42
0.000000
 10
8.499982
 20
-8.575920
 42
0.000000
 10
8.499982
 20
-7.583586
 42
0.000000
 10
8.999982
 20
-6.575920
 42
0.000000
 10
8.499982
 20
-5.575920
 42
0.000000
 10
8.499982
 20
-4.575920
 42
0.000000
 10
7.999982
 20
-3.575920
 42
0.000000
 10
8.499982
 20
-2.575920
 42
0.000000
 10
8.499982
 20
-1.575920
 42
0.000000
 10
8.999982
 20
-0.575920
 42
0.000000
 10
8.499982
 20
0.424080
 42
0.000000
 10
8.499982
 20
1.424080
 42
0.000000
 10
7.999982
 20
2.424080
 42
0.000000
 10
8.499982
 20
3.424080
 42
0.000000
 10
8.499982
 20
4.424080
 42
0.000000
 10
8.999982
 20
5.424080
 42
0.000000
 10
8.499982
 20
6.424080
 42
0.000000
 10
8.499982
 20
7.424080
 42
0.000000
 10
7.999982
 20
8.424080
 42
0.000000
 10
8.499982
 20
9.424080
 42
0.000000
 10
8.499982
 20
10.424080
 42
0.000000
 10
8.999982
 20
11.424080
 42
0.000000
 10
8.499982
 20
12.424080
 42
0.000000
 10
8.499982
 20
13.424080
 42
0.000000
 10
7.999982
 20
14.424080
 42
0.000000
 10
8.499982
 20
15.424080
 42
0.000000
 10
8.499982
 20
16.424080
 42
0.000000
 10
8.999982
 20
17.424080
 42
0.000000
 10
8.499982
 20
18.424080
 42
0.000000
 10
8.499982
 20
19.424080
 42
0.000000
 10
7.999982
 20
20.424080
 42
0.000000
 10
8.499982
 20
21.424080
 42
0.000000
 10
8.499982
 20
22.424080
 42
0.000000
 10
8.999982
 20
23.424080
 42
0.000000
 10
8.504380
 20
24.415284
 42
0.000000
 10
8.499982
 20
25.424080
 42
0.000000
 10
7.999982
 20
26.424080
 42
0.000000
 10
8.499982
 20
27.424080
 42
0.000000
 10
8.499982
 20
28.424080
 42
0.000000
 10
8.999982
 20
29.424080
 42
0.000000
 10
8.499982
 20
30.424080
 42
0.000000
 10
8.499982
 20
31.424080
 42
0.000000
 10
7.999982
 20
32.424080
 42
0.000000
 10
8.499982
 20
33.424080
 42
0.000000
 10
8.499982
 20
34.424080
 42
0.000000
 10
8.999982
 20
35.424080
 42
0.000000
 10
8.499982
 20
36.424080
 42
0.000000
 10
8.499982
 20
37.424080
 42
0.000000
 10
7.999982
 20
38.424080
 42
0.000000
 10
8.499982
 20
39.424080
 42
0.000000
 10
8.499982
 20
40.424080
 42
0.000000
 10
8.999982
 20
41.424080
 42
0.000000
 10
8.499982
 20
42.424080
 42
0.000000
 10
8.499982
 20
43.424080
 42
0.000000
 10
7.999982
 20
44.424080
 42
0.000000
 10
8.499982
 20
45.424080
 42
0.000000
 10
8.499982
 20
46.424080
 42
0.000000
 10
8.999982
 20
47.424080
 42
0.000000
 10
8.499982
 20
48.424080
 42
0.000000
 10
8.499982
 20
49.424080
 42
0.000000
 10
7.999982
 20
50.424080
 42
0.000000
 10
8.499982
 20
51.424080
 42
0.000000
 10
8.499982
 20
52.424080
 42
0.000000
 10
8.999982
 20
53.424080
 42
0.000000
 10
8.499982
 20
54.424080
 42
0.000000
 10
8.499982
 20
55.424080
 42
0.000000
 10
7.999982
 20
56.424080
 42
0.000000
 10
8.499982
 20
57.424080
 42
0.000000
 10
8.499982
 20
58.424080
 42
0.000000
 10
8.999982
 20
59.424080
 42
0.000000
 10
8.499982
 20
60.424080
 42
0.000000
 10
8.499982
 20
61.424080
 42
0.000000
 10
7.999982
 20
62.424080
 42
0.000000
 10
8.499982
 20
63.424080
 42
0.000000
 10
8.499982
 20
64.424080
 42
0.000000
 10
8.999982
 20
65.424080
 42
0.000000
 10
8.499982
 20
66.424080
 42
0.000000
 10
8.499982
 20
67.424080
 42
0.000000
 10
7.999982
 20
68.424080
 42
0.000000
 10
8.499982
 20
69.424080
 42
0.000000
 10
8.499982
 20
70.424080
 42
0.000000
 10
8.999982
 20
71.424080
 42
0.000000
 10
8.499982
 20
72.424080
 42
0.000000
 10
8.499982
 20
73.424080
 42
0.000000
 10
7.999982
 20
74.424080
 42
0.000000
 10
8.499982
 20
75.424080
 42
0.000000
 10
8.499982
 20
76.424080
 42
0.000000
 10
8.999982
 20
77.424080
 42
0.000000
 10
8.499982
 20
78.424080
 42
0.000000
 10
8.499982
 20
79.424080
 42
0.000000
 10
7.999982
 20
80.424080
 42
0.000000
 10
8.499982
 20
81.424080
 42
0.000000
 10
8.499982
 20
82.424080
 42
0.000000
 10
8.999982
 20
83.424080
 42
0.000000
 10
8.499982
 20
84.424080
 42
0.000000
 10
8.499982
 20
85.424080
 42
0.000000
 10
7.999982
 20
86.424080
 42
0.000000
 10
8.499982
 20
87.424080
 42
0.000000
 10
8.499982
 20
88.424080
 42
0.000000
 10
8.999982
 20
89.424080
 42
0.000000
 10
8.499982
 20
90.424080
 42
0.000000
 10
8.499982
 20
91.424080
 42
0.000000
 10
7.999982
 20
92.424080
 42
0.000000
 10
8.499982
 20
93.424080
 42
0.000000
 10
8.499982
 20
94.424080
 42
0.000000
 10
8.999982
 20
95.424080
 42
0.000000
 10
8.499982
 20
96.424080
 42
0.000000
 10
8.499982
 20
97.424080
 42
0.000000
 10
7.999982
 20
98.424080
 42
0.000000
 10
8.499982
 20
99.424080
 42
0.000000
 10
8.499982
 20
100.416414
 42
0.000000
 10
8.999982
 20
101.424080
 42
0.000000
 10
8.499982
 20
102.424080
 42
0.000000
 10
8.499982
 20
103.424080
 42
0.000000
 10
7.999982
 20
104.424080
 42
0.000000
 10
8.499982
 20
105.424080
 42
0.000000
 10
8.499982
 20
106.424080
 42
0.000000
 10
8.999982
 20
107.424080
 42
0.000000
 10
8.499982
 20
108.424080
 42
0.000000
 10
8.499982
 20
109.424080
 42
0.000000
 10
7.999982
 20
110.424080
 42
0.000000
 10
8.499982
 20
111.424080
 42
0.000000
 10
8.499982
 20
112.424080
 42
0.000000
 10
8.999982
 20
113.424080
 42
0.000000
 10
8.499982
 20
114.424080
 42
0.000000
 10
8.499982
 20
115.424080
 42
0.000000
 10
7.999982
 20
116.424080
 42
0.000000
 10
8.499982
 20
117.424080
 42
0.000000
 10
8.499982
 20
118.424080
 42
0.000000
 10
8.999982
 20
119.424080
 42
0.000000
 10
8.499982
 20
120.424080
 42
0.000000
 10
8.499982
 20
121.424080
 42
0.000000
 10
7.999982
 20
122.424080
 42
0.000000
 10
8.499982
 20
123.424080
 42
0.000000
 10
8.499982
 20
124.424080
 42
0.000000
 10
8.999982
 20
125.424080
 42
0.000000
 10
8.499982
 20
126.424080
 42
0.000000
 10
8.499982
 20
127.424080
 42
0.000000
 10
7.999982
 20
128.424080
 42
0.000000
 10
8.499982
 20
129.424080
 42
0.000000
 10
8.499982
 20
130.424080
 42
0.000000
 10
8.999982
 20
131.424080
 42
0.000000
 10
8.499982
 20
132.424080
 42
0.000000
 10
8.499982
 20
133.424080
 42
0.000000
 10
7.999982
 20
134.424080
 42
0.000000
 10
8.499982
 20
135.424080
 42
0.000000
 10
8.499982
 20
136.416414
 42
0.000000
 10
8.999982
 20
137.424080
 42
0.000000
 10
8.499982
 20
138.424080
 42
0.000000
 10
8.499982
 20
139.424080
 42
0.000000
 10
7.999982
 20
140.424080
 42
0.000000
 10
8.499982
 20
141.424080
 42
0.000000
 10
8.499982
 20
142.424080
 42
0.000000
 10
8.999982
 20
143.424080
 42
0.000000
 10
8.499982
 20
144.424080
 42
0.000000
 10
8.499982
 20
145.424080
 42
0.000000
 10
7.999982
 20
146.424080
 42
0.000000
 10
8.499982
 20
147.424080
 42
0.000000
 10
8.499982
 20
148.423980
 42
0.000000
 10
6.499982
 20
149.760338
 42
0.000000
 10
6.499982
 20
-196.249941
 42
0.000000
 10
8.336993
 20
-196.249941
 42
0.000000
 10
7.999982
 20
-195.575920
 42
0.000000
 10
8.499982
 20
-194.486274
 42
0.000000
 97
     0
 75
     0
 76
     1
 98
     0
  0
ENDBLK
  5
214
100
AcDbEntity
  8
0
100
AcDbBlockEnd
  0
BLOCK
  5
215
100
AcDbEntity
  8
SCHRAFF
100
AcDbBlockBegin
  2
B-4
 70
    66
 10
0.000000
 20
0.000000
 30
0.000000
  0
HATCH
  5
216
100
AcDbEntity
  8
SCHRAFF
 62
    51
440
     0
100
AcDbHatch
 10
0.000000
 20
0.000000
 30
0.000000
210
0.000000
220
0.000000
230
1.000000
  2
SOLID
 70
     1
 71
     1
 91
     1
 92
    18
 72
     1
 73
     0
 93
     5
 10
-17.514215
 20
-44.749922
 42
0.000000
 10
2.499982
 20
-44.749922
 42
0.000000
 10
2.499982
 20
15.250078
 42
0.000000
 10
-17.514215
 20
15.250078
 42
0.000000
 10
-17.514215
 20
-44.749922
 42
0.000000
 97
     0
 75
     0
 76
     1
 98
     0
  0
HATCH
  5
217
100
AcDbEntity
  8
SCHRAFF
  6
CONTINUOUS
 62
     9
100
AcDbHatch
 10
0.000000
 20
0.000000
 30
0.000000
210
0.000000
220
0.000000
230
1.000000
  2
_U
 70
     0
 71
     1
 91
     1
 92
    18
 72
     1
 73
     0
 93
     5
 10
2.499982
 20
-44.749922
 42
0.000000
 10
2.499982
 20
15.250078
 42
0.000000
 10
-17.500018
 20
15.250078
 42
0.000000
 10
-17.500018
 20
-44.749922
 42
0.000000
 10
2.499982
 20
-44.749922
 42
0.000000
 97
     0
 75
     0
 76
     0
 52
0.000000
 41
1.000000
 77
     0
 78
     1
 53
90.000000
 43
-0.000000
 44
0.000000
 45
-6.875000
 46
0.000000
 79
     0
 98
     0
  0
ENDBLK
  5
218
100
AcDbEntity
  8
0
100
AcDbBlockEnd
  0
BLOCK
  5
219
100
AcDbEntity
  8
SCHRAFF
100
AcDbBlockBegin
  2
B-5
 70
    66
 10
0.000000
 20
0.000000
 30
0.000000
  0
HATCH
  5
21A
100
AcDbEntity
  8
SCHRAFF
 62
   254
440
     0
100
AcDbHatch
 10
0.000000
 20
0.000000
 30
0.000000
210
0.000000
220
0.000000
230
1.000000
  2
SOLID
 70
     1
 71
     1
 91
     1
 92
    18
 72
     1
 73
     0
 93
     7
 10
-132.500018
 20
130.250078
 42
0.000000
 10
-77.500018
 20
130.250078
 42
0.000000
 10
-77.500018
 20
-196.249941
 42
0.000000
 10
-82.500018
 20
-196.249941
 42
0.000000
 10
-82.500018
 20
125.250078
 42
0.000000
 10
-132.500018
 20
125.250078
 42
0.000000
 10
-132.500018
 20
130.250078
 42
0.000000
 97
     0
 75
     0
 76
     1
 98
     0
  0
ENDBLK
  5
21B
100
AcDbEntity
  8
0
100
AcDbBlockEnd
  0
BLOCK
  5
21C
100
AcDbEntity
  8
SCHRAFF
100
AcDbBlockBegin
  2
B-6
 70
    66
 10
0.000000
 20
0.000000
 30
0.000000
  0
HATCH
  5
21D
100
AcDbEntity
  8
SCHRAFF
 62
    51
440
     0
100
AcDbHatch
 10
0.000000
 20
0.000000
 30
0.000000
210
0.000000
220
0.000000
230
1.000000
  2
SOLID
 70
     1
 71
     1
 91
     1
 92
    18
 72
     1
 73
     0
 93
     9
 10
-77.500018
 20
155.408114
 42
0.000000
 10
2.499982
 20
147.408114
 42
0.000000
 10
2.499982
 20
15.250078
 42
0.000000
 10
-17.514215
 20
15.250078
 42
0.000000
 10
-17.514215
 20
-44.749922
 42
0.000000
 10
2.499982
 20
-44.749922
 42
0.000000
 10
2.499982
 20
-196.249941
 42
0.000000
 10
-77.500018
 20
-196.249941
 42
0.000000
 10
-77.500018
 20
155.408114
 42
0.000000
 97
     0
 75
     0
 76
     1
 98
     0
  0
ENDBLK
  5
21E
100
AcDbEntity
  8
0
100
AcDbBlockEnd
  0
BLOCK
  5
21F
100
AcDbEntity
  8
SCHRAFF
100
AcDbBlockBegin
  2
B-7
 70
    66
 10
0.000000
 20
0.000000
 30
0.000000
  0
HATCH
  5
220
100
AcDbEntity
  8
SCHRAFF
  6
CONTINUOUS
 62
     9
100
AcDbHatch
 10
0.000000
 20
0.000000
 30
0.000000
210
0.000000
220
0.000000
230
1.000000
  2
_U
 70
     0
 71
     1
 91
     1
 92
    18
 72
     1
 73
     0
 93
     9
 10
-77.500018
 20
155.408114
 42
0.000000
 10
2.499982
 20
147.408114
 42
0.000000
 10
2.499982
 20
15.250078
 42
0.000000
 10
-17.514215
 20
15.250078
 42
0.000000
 10
-17.514215
 20
-44.749922
 42
0.000000
 10
2.499982
 20
-44.749922
 42
0.000000
 10
2.499982
 20
-196.249941
 42
0.000000
 10
-77.500018
 20
-196.249941
 42
0.000000
 10
-77.500018
 20
155.408114
 42
0.000000
 97
     0
 75
     0
 76
     0
 52
0.000000
 41
1.000000
 77
     0
 78
     1
 53
90.000000
 43
-0.000000
 44
0.000000
 45
-13.750000
 46
0.000000
 79
     0
 98
     0
  0
ENDBLK
  5
221
100
AcDbEntity
  8
0
100
AcDbBlockEnd
  0
BLOCK
  5
222
100
AcDbEntity
  8
Detail
100
AcDbBlockBegin
  2
B-8
 70
    66
 10
0.000000
 20
0.000000
 30
0.000000
  0
LWPOLYLINE
  5
223
100
AcDbEntity
  8
Detail
  6
CONTINUOUS
 62
     9
100
AcDbPolyline
 90
     3
 10
46.694738
 20
151.708882
 42
0.000000
 10
8.499982
 20
169.922828
 42
0.000000
 10
-122.509939
 20
183.023820
 42
0.000000
  0
ENDBLK
  5
227
100
AcDbEntity
  8
0
100
AcDbBlockEnd
  0
BLOCK
  5
228
100
AcDbEntity
  8
SCHRAFF
100
AcDbBlockBegin
  2
B-9
 70
    66
 10
0.000000
 20
0.000000
 30
0.000000
  0
HATCH
  5
229
100
AcDbEntity
  8
SCHRAFF
 62
   254
440
     0
100
AcDbHatch
 10
0.000000
 20
0.000000
 30
0.000000
210
0.000000
220
0.000000
230
1.000000
  2
SOLID
 70
     1
 71
     1
 91
     1
 92
    18
 72
     1
 73
     0
 93
     5
 10
-77.500018
 20
157.920263
 42
0.000000
 10
-77.500018
 20
130.250078
 42
0.000000
 10
-82.500018
 20
130.250078
 42
0.000000
 10
-82.500018
 20
158.420263
 42
0.000000
 10
-77.500018
 20
157.920263
 42
0.000000
 97
     0
 75
     0
 76
     1
 98
     0
  0
ENDBLK
  5
22A
100
AcDbEntity
  8
0
100
AcDbBlockEnd
  0
BLOCK
  5
22B
100
AcDbEntity
  8
Detail
100
AcDbBlockBegin
  2
B-10
 70
    66
 10
0.000000
 20
0.000000
 30
0.000000
  0
LWPOLYLINE
  5
22C
100
AcDbEntity
  8
Detail
  6
CONTINUOUS
 62
     6
100
AcDbPolyline
 90
     5
 10
-82.500018
 20
130.250078
 42
0.000000
 10
-77.500018
 20
130.250078
 42
0.000000
 10
-77.500018
 20
157.920263
 42
0.000000
 10
-82.500018
 20
158.420263
 42
0.000000
 10
-82.500018
 20
130.250078
 42
0.000000
  0
ENDBLK
  5
232
100
AcDbEntity
  8
0
100
AcDbBlockEnd
  0
BLOCK
  5
233
100
AcDbEntity
  8
SCHRAFF
100
AcDbBlockBegin
  2
B-11
 70
    66
 10
0.000000
 20
0.000000
 30
0.000000
  0
HATCH
  5
234
100
AcDbEntity
  8
SCHRAFF
 62
   250
440
     0
100
AcDbHatch
 10
0.000000
 20
0.000000
 30
0.000000
210
0.000000
220
0.000000
230
1.000000
  2
SOLID
 70
     1
 71
     1
 91
     1
 92
    18
 72
     1
 73
     0
 93
    11
 10
48.499982
 20
150.848015
 42
0.000000
 10
-127.500014
 20
168.448014
 42
0.000000
 10
-127.500013
 20
183.522828
 42
0.000000
 10
-130.500013
 20
183.522828
 42
0.000000
 10
-130.500016
 20
165.733052
 42
0.000000
 10
45.499982
 20
148.133052
 42
0.000000
 10
45.499982
 20
128.090656
 42
0.000000
 10
40.550235
 20
133.040403
 42
0.000000
 10
38.428914
 20
130.919083
 42
0.000000
 10
48.499982
 20
120.848015
 42
0.000000
 10
48.499982
 20
150.848015
 42
0.000000
 97
     0
 75
     0
 76
     1
 98
     0
  0
ENDBLK
  5
235
100
AcDbEntity
  8
0
100
AcDbBlockEnd
  0
BLOCK
  5
236
100
AcDbEntity
  8
SCHRAFF
100
AcDbBlockBegin
  2
B-12
 70
    66
 10
0.000000
 20
0.000000
 30
0.000000
  0
HATCH
  5
237
100
AcDbEntity
  8
SCHRAFF
 62
     9
440
     0
100
AcDbHatch
 10
0.000000
 20
0.000000
 30
0.000000
210
0.000000
220
0.000000
230
1.000000
  2
SOLID
 70
     1
 71
     1
 91
     1
 92
    18
 72
     1
 73
     0
 93
     6
 10
2.499982
 20
152.433052
 42
0.000000
 10
6.499982
 20
149.760338
 42
0.000000
 10
6.499982
 20
-196.249941
 42
0.000000
 10
2.499982
 20
-196.249941
 42
0.000000
 10
2.499982
 20
138.750078
 42
0.000000
 10
2.499982
 20
152.433052
 42
0.000000
 97
     0
 75
     0
 76
     1
 98
     0
  0
ENDBLK
  5
238
100
AcDbEntity
  8
0
100
AcDbBlockEnd
  0
BLOCK
  5
239
100
AcDbEntity
  8
SCHRAFF
100
AcDbBlockBegin
  2
B-13
 70
    66
 10
0.000000
 20
0.000000
 30
0.000000
  0
HATCH
  5
23A
100
AcDbEntity
  8
SCHRAFF
 62
    51
440
     0
100
AcDbHatch
 10
0.000000
 20
0.000000
 30
0.000000
210
0.000000
220
0.000000
230
1.000000
  2
SOLID
 70
     1
 71
     1
 91
     1
 92
    18
 72
     1
 73
     0
 93
     5
 10
-132.500016
 20
165.933052
 42
0.000000
 10
-82.500018
 20
160.933052
 42
0.000000
 10
-82.500018
 20
130.250078
 42
0.000000
 10
-132.500018
 20
130.250078
 42
0.000000
 10
-132.500016
 20
165.933052
 42
0.000000
 97
     0
 75
     0
 76
     1
 98
     0
  0
ENDBLK
  5
23B
100
AcDbEntity
  8
0
100
AcDbBlockEnd
  0
BLOCK
  5
23C
100
AcDbEntity
  8
Detail
100
AcDbBlockBegin
  2
B-14
 70
    66
 10
0.000000
 20
0.000000
 30
0.000000
  0
LWPOLYLINE
  5
23D
100
AcDbEntity
  8
Detail
  6
CONTINUOUS
 62
     6
100
AcDbPolyline
 90
     6
 10
-82.500018
 20
-196.249941
 42
0.000000
 10
-82.500018
 20
125.250078
 42
0.000000
 10
-132.500018
 20
125.250078
 42
0.000000
 10
-132.500018
 20
130.250078
 42
0.000000
 10
-77.500018
 20
130.250078
 42
0.000000
 10
-77.500018
 20
-196.249941
 42
0.000000
  0
ENDBLK
  5
244
100
AcDbEntity
  8
0
100
AcDbBlockEnd
  0
BLOCK
  5
245
100
AcDbEntity
  8
Detail
100
AcDbBlockBegin
  2
B-15
 70
    66
 10
0.000000
 20
0.000000
 30
0.000000
  0
LWPOLYLINE
  5
246
100
AcDbEntity
  8
Detail
  6
CONTINUOUS
 62
     6
100
AcDbPolyline
 90
     5
 10
2.499982
 20
-196.249941
 42
0.000000
 10
2.499982
 20
138.750078
 42
0.000000
 10
2.499982
 20
152.433052
 42
0.000000
 10
6.499982
 20
149.760338
 42
0.000000
 10
6.499982
 20
-196.249941
 42
0.000000
  0
ENDBLK
  5
24C
100
AcDbEntity
  8
0
100
AcDbBlockEnd
  0
BLOCK
  5
24D
100
AcDbEntity
  8
SCHRAFF
100
AcDbBlockBegin
  2
B-16
 70
    66
 10
0.000000
 20
0.000000
 30
0.000000
  0
HATCH
  5
24E
100
AcDbEntity
  8
SCHRAFF
  6
CONTINUOUS
 62
     9
100
AcDbHatch
 10
0.000000
 20
0.000000
 30
0.000000
210
0.000000
220
0.000000
230
1.000000
  2
_U
 70
     0
 71
     1
 91
     1
 92
    18
 72
     1
 73
     0
 93
     5
 10
-212.500018
 20
125.250078
 42
0.000000
 10
-82.500018
 20
125.250078
 42
0.000000
 10
-82.500018
 20
-196.249941
 42
0.000000
 10
-212.500018
 20
-196.249941
 42
0.000000
 10
-212.500018
 20
125.250078
 42
0.000000
 97
     0
 75
     0
 76
     0
 52
0.000000
 41
1.000000
 77
     0
 78
     1
 53
45.000000
 43
-0.000000
 44
0.000000
 45
-17.677670
 46
17.677670
 79
     0
 98
     0
  0
ENDBLK
  5
24F
100
AcDbEntity
  8
0
100
AcDbBlockEnd
  0
BLOCK
  5
250
100
AcDbEntity
  8
Detail
100
AcDbBlockBegin
  2
B-17
 70
    66
 10
0.000000
 20
0.000000
 30
0.000000
  0
LWPOLYLINE
  5
251
100
AcDbEntity
  8
Detail
  6
CONTINUOUS
 62
     3
100
AcDbPolyline
 90
     5
 10
-82.500018
 20
130.250078
 42
0.000000
 10
-132.500018
 20
130.250078
 42
0.000000
 10
-132.500016
 20
165.933052
 42
0.000000
 10
-82.500018
 20
160.933052
 42
0.000000
 10
-82.500018
 20
130.250078
 42
0.000000
  0
ENDBLK
  5
257
100
AcDbEntity
  8
0
100
AcDbBlockEnd
  0
BLOCK
  5
258
100
AcDbEntity
  8
Detail
100
AcDbBlockBegin
  2
B-18
 70
    66
 10
0.000000
 20
0.000000
 30
0.000000
  0
LWPOLYLINE
  5
259
100
AcDbEntity
  8
Detail
  6
HIDDEN
 62
     9
100
AcDbPolyline
 90
     2
 10
5.499982
 20
146.586489
 42
0.000000
 10
5.499982
 20
-196.249941
 42
0.000000
  0
ENDBLK
  5
25C
100
AcDbEntity
  8
0
100
AcDbBlockEnd
  0
BLOCK
  5
25D
100
AcDbEntity
  8
SCHRAFF
100
AcDbBlockBegin
  2
B-19
 70
    66
 10
0.000000
 20
0.000000
 30
0.000000
  0
HATCH
  5
25E
100
AcDbEntity
  8
SCHRAFF
  6
CONTINUOUS
 62
     9
100
AcDbHatch
 10
0.000000
 20
0.000000
 30
0.000000
210
0.000000
220
0.000000
230
1.000000
  2
_U
 70
     0
 71
     1
 91
     1
 92
    18
 72
     1
 73
     0
 93
     5
 10
-132.500016
 20
165.933052
 42
0.000000
 10
-82.500018
 20
160.933052
 42
0.000000
 10
-82.500018
 20
130.250078
 42
0.000000
 10
-132.500018
 20
130.250078
 42
0.000000
 10
-132.500016
 20
165.933052
 42
0.000000
 97
     0
 75
     0
 76
     0
 52
0.000000
 41
1.000000
 77
     0
 78
     1
 53
90.000000
 43
-0.000000
 44
0.000000
 45
-6.875000
 46
0.000000
 79
     0
 98
     0
  0
ENDBLK
  5
25F
100
AcDbEntity
  8
0
100
AcDbBlockEnd
  0
BLOCK
  5
260
100
AcDbEntity
  8
Detail
100
AcDbBlockBegin
  2
B-20
 70
    66
 10
0.000000
 20
0.000000
 30
0.000000
  0
LWPOLYLINE
  5
261
100
AcDbEntity
  8
Detail
  6
CONTINUOUS
 62
     6
100
AcDbPolyline
 90
    24
 10
-212.500018
 20
135.715834
 42
0.000000
 10
-212.431530
 20
135.750078
 42
0.000000
 10
-211.431530
 20
135.250078
 42
0.000000
 10
-210.431530
 20
135.250078
 42
0.000000
 10
-209.431530
 20
134.750078
 42
0.000000
 10
-208.431530
 20
135.250078
 42
0.000000
 10
-207.431530
 20
135.250078
 42
0.000000
 10
-206.431530
 20
135.750078
 42
0.000000
 10
-205.431530
 20
135.250078
 42
0.000000
 10
-204.431530
 20
135.250078
 42
0.000000
 10
-203.431530
 20
134.750078
 42
0.000000
 10
-202.431530
 20
135.250078
 42
0.000000
 10
-201.431530
 20
135.250078
 42
0.000000
 10
-200.431530
 20
135.750078
 42
0.000000
 10
-199.431530
 20
135.250078
 42
0.000000
 10
-198.431530
 20
135.250078
 42
0.000000
 10
-197.431530
 20
134.750078
 42
0.000000
 10
-196.431530
 20
135.250078
 42
0.000000
 10
-195.431530
 20
135.250078
 42
0.000000
 10
-194.431530
 20
135.750078
 42
0.000000
 10
-193.431530
 20
135.250078
 42
0.000000
 10
-192.431530
 20
135.250078
 42
0.000000
 10
-191.431530
 20
134.750078
 42
0.000000
 10
-190.431530
 20
135.250078
 42
0.000000
  0
ENDBLK
  5
27A
100
AcDbEntity
  8
0
100
AcDbBlockEnd
  0
BLOCK
  5
27B
100
AcDbEntity
  8
Detail
100
AcDbBlockBegin
  2
B-21
 70
    66
 10
0.000000
 20
0.000000
 30
0.000000
  0
MTEXT
  5
27D
100
AcDbEntity
  8
Detail
 62
     7
100
AcDbMText
 10
79.375023
 20
137.750178
 30
0.000000
 40
5.000000
 41
48.510000
 71
     1
 72
     5
  1
Montagewinkel
  7
Arial
 50
0.000000
  0
ENDBLK
  5
27E
100
AcDbEntity
  8
0
100
AcDbBlockEnd
  0
BLOCK
  5
27F
100
AcDbEntity
  8
Detail
100
AcDbBlockBegin
  2
B-22
 70
    66
 10
0.000000
 20
0.000000
 30
0.000000
  0
MTEXT
  5
280
100
AcDbEntity
  8
Detail
 62
     7
100
AcDbMText
 10
79.375023
 20
112.750178
 30
0.000000
 40
5.000000
 41
31.185000
 71
     1
 72
     5
  1
Schraube
  7
Arial
 50
0.000000
  0
ENDBLK
  5
281
100
AcDbEntity
  8
0
100
AcDbBlockEnd
  0
BLOCK
  5
282
100
AcDbEntity
  8
SCHRAFF
100
AcDbBlockBegin
  2
B-23
 70
    66
 10
0.000000
 20
0.000000
 30
0.000000
  0
HATCH
  5
283
100
AcDbEntity
  8
SCHRAFF
 62
     7
440
     0
100
AcDbHatch
 10
0.000000
 20
0.000000
 30
0.000000
210
0.000000
220
0.000000
230
1.000000
  2
SOLID
 70
     1
 71
     1
 91
     1
 92
    18
 72
     1
 73
     0
 93
     3
 10
-75.500018
 20
85.250078
 42
1.000000
 10
-76.500018
 20
85.250078
 42
1.000000
 10
-75.500018
 20
85.250078
 42
0.000000
 97
     0
 75
     0
 76
     1
 98
     0
  0
CIRCLE
  5
284
100
AcDbEntity
  8
Detail
  6
CONTINUOUS
 62
     7
100
AcDbCircle
 10
-76.000018
 20
85.250078
 40
0.500000
  0
ENDBLK
  5
285
100
AcDbEntity
  8
0
100
AcDbBlockEnd
  0
BLOCK
  5
286
100
AcDbEntity
  8
Detail
100
AcDbBlockBegin
  2
B-24
 70
    66
 10
0.000000
 20
0.000000
 30
0.000000
  0
MTEXT
  5
287
100
AcDbEntity
  8
Detail
 62
     7
100
AcDbMText
 10
79.375023
 20
87.750178
 30
0.000000
 40
5.000000
 41
30.450000
 71
     1
 72
     5
  1
Deckputz
  7
Arial
 50
0.000000
  0
ENDBLK
  5
288
100
AcDbEntity
  8
0
100
AcDbBlockEnd
  0
BLOCK
  5
289
100
AcDbEntity
  8
SCHRAFF
100
AcDbBlockBegin
  2
B-25
 70
    66
 10
0.000000
 20
0.000000
 30
0.000000
  0
HATCH
  5
28A
100
AcDbEntity
  8
SCHRAFF
 62
     7
440
     0
100
AcDbHatch
 10
0.000000
 20
0.000000
 30
0.000000
210
0.000000
220
0.000000
230
1.000000
  2
SOLID
 70
     1
 71
     1
 91
     1
 92
    18
 72
     1
 73
     0
 93
     3
 10
7.999982
 20
85.250078
 42
1.000000
 10
6.999982
 20
85.250078
 42
1.000000
 10
7.999982
 20
85.250078
 42
0.000000
 97
     0
 75
     0
 76
     1
 98
     0
  0
CIRCLE
  5
28B
100
AcDbEntity
  8
Detail
  6
CONTINUOUS
 62
     7
100
AcDbCircle
 10
7.499982
 20
85.250078
 40
0.500000
  0
ENDBLK
  5
28C
100
AcDbEntity
  8
0
100
AcDbBlockEnd
  0
BLOCK
  5
28D
100
AcDbEntity
  8
Detail
100
AcDbBlockBegin
  2
B-26
 70
    66
 10
0.000000
 20
0.000000
 30
0.000000
  0
MTEXT
  5
28E
100
AcDbEntity
  8
Detail
 62
     7
100
AcDbMText
 10
79.375023
 20
62.750178
 30
0.000000
 40
5.000000
 41
60.060000
 71
     1
 72
     5
  1
Armierungsschicht
  7
Arial
 50
0.000000
  0
ENDBLK
  5
28F
100
AcDbEntity
  8
0
100
AcDbBlockEnd
  0
BLOCK
  5
290
100
AcDbEntity
  8
SCHRAFF
100
AcDbBlockBegin
  2
B-27
 70
    66
 10
0.000000
 20
0.000000
 30
0.000000
  0
HATCH
  5
291
100
AcDbEntity
  8
SCHRAFF
 62
     7
440
     0
100
AcDbHatch
 10
0.000000
 20
0.000000
 30
0.000000
210
0.000000
220
0.000000
230
1.000000
  2
SOLID
 70
     1
 71
     1
 91
     1
 92
    18
 72
     1
 73
     0
 93
     3
 10
4.999982
 20
60.250078
 42
1.000000
 10
3.999982
 20
60.250078
 42
1.000000
 10
4.999982
 20
60.250078
 42
0.000000
 97
     0
 75
     0
 76
     1
 98
     0
  0
CIRCLE
  5
292
100
AcDbEntity
  8
Detail
  6
CONTINUOUS
 62
     7
100
AcDbCircle
 10
4.499982
 20
60.250078
 40
0.500000
  0
ENDBLK
  5
293
100
AcDbEntity
  8
0
100
AcDbBlockEnd
  0
BLOCK
  5
294
100
AcDbEntity
  8
SCHRAFF
100
AcDbBlockBegin
  2
B-28
 70
    66
 10
0.000000
 20
0.000000
 30
0.000000
  0
HATCH
  5
295
100
AcDbEntity
  8
SCHRAFF
 62
     7
440
     0
100
AcDbHatch
 10
0.000000
 20
0.000000
 30
0.000000
210
0.000000
220
0.000000
230
1.000000
  2
SOLID
 70
     1
 71
     1
 91
     1
 92
    18
 72
     1
 73
     0
 93
     3
 10
-15.514215
 20
-14.749922
 42
1.000000
 10
-16.514215
 20
-14.749922
 42
1.000000
 10
-15.514215
 20
-14.749922
 42
0.000000
 97
     0
 75
     0
 76
     1
 98
     0
  0
CIRCLE
  5
296
100
AcDbEntity
  8
Detail
  6
CONTINUOUS
 62
     7
100
AcDbCircle
 10
-16.014215
 20
-14.749922
 40
0.500000
  0
ENDBLK
  5
297
100
AcDbEntity
  8
0
100
AcDbBlockEnd
  0
BLOCK
  5
298
100
AcDbEntity
  8
Detail
100
AcDbBlockBegin
  2
B-29
 70
    66
 10
0.000000
 20
0.000000
 30
0.000000
  0
MTEXT
  5
299
100
AcDbEntity
  8
Detail
 62
     7
100
AcDbMText
 10
79.375023
 20
-17.249822
 30
0.000000
 40
5.000000
 41
82.372500
 71
     7
 72
     5
  1
Verdübelung versenkt mit
  7
Arial
 50
0.000000
  0
MTEXT
  5
29A
100
AcDbEntity
  8
Detail
 62
     7
100
AcDbMText
 10
79.375023
 20
-24.749822
 30
0.000000
 40
5.000000
 41
82.635000
 71
     7
 72
     5
  1
Thermorondell abgedeckt
  7
Arial
 50
0.000000
  0
ENDBLK
  5
29B
100
AcDbEntity
  8
0
100
AcDbBlockEnd
  0
BLOCK
  5
29C
100
AcDbEntity
  8
Detail
100
AcDbBlockBegin
  2
B-30
 70
    66
 10
0.000000
 20
0.000000
 30
0.000000
  0
MTEXT
  5
29D
100
AcDbEntity
  8
Detail
 62
     7
100
AcDbMText
 10
79.375023
 20
37.750178
 30
0.000000
 40
5.000000
 41
59.482500
 71
     1
 72
     5
  1
WDVS-Dämmstoff
  7
Arial
 50
0.000000
  0
ENDBLK
  5
29E
100
AcDbEntity
  8
0
100
AcDbBlockEnd
  0
BLOCK
  5
29F
100
AcDbEntity
  8
SCHRAFF
100
AcDbBlockBegin
  2
B-31
 70
    66
 10
0.000000
 20
0.000000
 30
0.000000
  0
HATCH
  5
2A0
100
AcDbEntity
  8
SCHRAFF
 62
     7
440
     0
100
AcDbHatch
 10
0.000000
 20
0.000000
 30
0.000000
210
0.000000
220
0.000000
230
1.000000
  2
SOLID
 70
     1
 71
     1
 91
     1
 92
    18
 72
     1
 73
     0
 93
     3
 10
-37.000018
 20
35.250078
 42
1.000000
 10
-38.000018
 20
35.250078
 42
1.000000
 10
-37.000018
 20
35.250078
 42
0.000000
 97
     0
 75
     0
 76
     1
 98
     0
  0
CIRCLE
  5
2A1
100
AcDbEntity
  8
Detail
  6
CONTINUOUS
 62
     7
100
AcDbCircle
 10
-37.500018
 20
35.250078
 40
0.500000
  0
ENDBLK
  5
2A2
100
AcDbEntity
  8
0
100
AcDbBlockEnd
  0
BLOCK
  5
2A3
100
AcDbEntity
  8
Detail
100
AcDbBlockBegin
  2
B-32
 70
    66
 10
0.000000
 20
0.000000
 30
0.000000
  0
MTEXT
  5
2A4
100
AcDbEntity
  8
Detail
 62
     7
100
AcDbMText
 10
79.375023
 20
12.750178
 30
0.000000
 40
5.000000
 41
38.902500
 71
     1
 72
     5
  1
Klebemörtel
  7
Arial
 50
0.000000
  0
ENDBLK
  5
2A5
100
AcDbEntity
  8
0
100
AcDbBlockEnd
  0
BLOCK
  5
2A6
100
AcDbEntity
  8
SCHRAFF
100
AcDbBlockBegin
  2
B-33
 70
    66
 10
0.000000
 20
0.000000
 30
0.000000
  0
HATCH
  5
2A7
100
AcDbEntity
  8
SCHRAFF
 62
     7
440
     0
100
AcDbHatch
 10
0.000000
 20
0.000000
 30
0.000000
210
0.000000
220
0.000000
230
1.000000
  2
SOLID
 70
     1
 71
     1
 91
     1
 92
    18
 72
     1
 73
     0
 93
     3
 10
-79.500018
 20
10.250078
 42
1.000000
 10
-80.500018
 20
10.250078
 42
1.000000
 10
-79.500018
 20
10.250078
 42
0.000000
 97
     0
 75
     0
 76
     1
 98
     0
  0
CIRCLE
  5
2A8
100
AcDbEntity
  8
Detail
  6
CONTINUOUS
 62
     7
100
AcDbCircle
 10
-80.000018
 20
10.250078
 40
0.500000
  0
ENDBLK
  5
2A9
100
AcDbEntity
  8
0
100
AcDbBlockEnd
  0
BLOCK
  5
2AA
100
AcDbEntity
  8
Detail
100
AcDbBlockBegin
  2
B-34
 70
    66
 10
0.000000
 20
0.000000
 30
0.000000
  0
LWPOLYLINE
  5
2AB
100
AcDbEntity
  8
Detail
  6
CONTINUOUS
 62
     9
100
AcDbPolyline
 90
    17
 10
-188.000016
 20
127.750078
 42
0.262676
 10
-187.568451
 20
126.985279
 42
0.082357
 10
-185.049765
 20
125.982311
 42
0.034537
 10
-181.781918
 20
125.440379
 42
0.024669
 10
-177.927229
 20
125.250078
 42
0.024669
 10
-174.072540
 20
125.440379
 42
0.034537
 10
-170.804693
 20
125.982311
 42
0.082357
 10
-168.286007
 20
126.985279
 42
0.262676
 10
-167.854442
 20
127.750078
 42
0.262676
 10
-168.286007
 20
128.514877
 42
0.082357
 10
-170.804693
 20
129.517845
 42
0.034537
 10
-174.072540
 20
130.059777
 42
0.024669
 10
-177.927229
 20
130.250078
 42
0.024669
 10
-181.781918
 20
130.059777
 42
0.034537
 10
-185.049765
 20
129.517845
 42
0.082357
 10
-187.568451
 20
128.514877
 42
0.262676
 10
-188.000016
 20
127.750078
 42
0.000000
  0
ENDBLK
  5
2BD
100
AcDbEntity
  8
0
100
AcDbBlockEnd
  0
BLOCK
  5
2BE
100
AcDbEntity
  8
Detail
100
AcDbBlockBegin
  2
B-35
 70
    66
 10
0.000000
 20
0.000000
 30
0.000000
  0
LWPOLYLINE
  5
2BF
100
AcDbEntity
  8
Detail
  6
CONTINUOUS
 62
     9
100
AcDbPolyline
 90
    17
 10
-184.373813
 20
127.750078
 42
0.262676
 10
-184.097611
 20
127.260606
 42
0.082357
 10
-182.485652
 20
126.618707
 42
0.034537
 10
-180.394230
 20
126.271871
 42
0.024669
 10
-177.927229
 20
126.150078
 42
0.024669
 10
-175.460228
 20
126.271871
 42
0.034537
 10
-173.368806
 20
126.618707
 42
0.082357
 10
-171.756847
 20
127.260606
 42
0.262676
 10
-171.480645
 20
127.750078
 42
0.262676
 10
-171.756847
 20
128.239549
 42
0.082357
 10
-173.368806
 20
128.881449
 42
0.034537
 10
-175.460228
 20
129.228285
 42
0.024669
 10
-177.927229
 20
129.350078
 42
0.024669
 10
-180.394230
 20
129.228285
 42
0.034537
 10
-182.485652
 20
128.881449
 42
0.082357
 10
-184.097611
 20
128.239549
 42
0.262676
 10
-184.373813
 20
127.750078
 42
0.000000
  0
ENDBLK
  5
2D1
100
AcDbEntity
  8
0
100
AcDbBlockEnd
  0
BLOCK
  5
2D2
100
AcDbEntity
  8
Detail
100
AcDbBlockBegin
  2
B-36
 70
    66
 10
0.000000
 20
0.000000
 30
0.000000
  0
LWPOLYLINE
  5
2D3
100
AcDbEntity
  8
Detail
  6
CONTINUOUS
 62
     9
100
AcDbPolyline
 90
    17
 10
-138.626221
 20
127.750078
 42
-0.262676
 10
-138.902423
 20
127.260606
 42
-0.082357
 10
-140.514382
 20
126.618707
 42
-0.034537
 10
-142.605804
 20
126.271871
 42
-0.024669
 10
-145.072805
 20
126.150078
 42
-0.024669
 10
-147.539806
 20
126.271871
 42
-0.034537
 10
-149.631228
 20
126.618707
 42
-0.082357
 10
-151.243187
 20
127.260606
 42
-0.262676
 10
-151.519389
 20
127.750078
 42
-0.262676
 10
-151.243187
 20
128.239549
 42
-0.082357
 10
-149.631228
 20
128.881449
 42
-0.034537
 10
-147.539806
 20
129.228285
 42
-0.024669
 10
-145.072805
 20
129.350078
 42
-0.024669
 10
-142.605804
 20
129.228285
 42
-0.034537
 10
-140.514382
 20
128.881449
 42
-0.082357
 10
-138.902423
 20
128.239549
 42
-0.262676
 10
-138.626221
 20
127.750078
 42
0.000000
  0
ENDBLK
  5
2E5
100
AcDbEntity
  8
0
100
AcDbBlockEnd
  0
BLOCK
  5
2E6
100
AcDbEntity
  8
Detail
100
AcDbBlockBegin
  2
B-37
 70
    66
 10
0.000000
 20
0.000000
 30
0.000000
  0
LWPOLYLINE
  5
2E7
100
AcDbEntity
  8
Detail
  6
CONTINUOUS
 62
     9
100
AcDbPolyline
 90
    17
 10
-135.000018
 20
127.750078
 42
-0.262676
 10
-135.431583
 20
126.985279
 42
-0.082357
 10
-137.950269
 20
125.982311
 42
-0.034537
 10
-141.218116
 20
125.440379
 42
-0.024669
 10
-145.072805
 20
125.250078
 42
-0.024669
 10
-148.927494
 20
125.440379
 42
-0.034537
 10
-152.195341
 20
125.982311
 42
-0.082357
 10
-154.714027
 20
126.985279
 42
-0.262676
 10
-155.145592
 20
127.750078
 42
-0.262676
 10
-154.714027
 20
128.514877
 42
-0.082357
 10
-152.195341
 20
129.517845
 42
-0.034537
 10
-148.927494
 20
130.059777
 42
-0.024669
 10
-145.072805
 20
130.250078
 42
-0.024669
 10
-141.218116
 20
130.059777
 42
-0.034537
 10
-137.950269
 20
129.517845
 42
-0.082357
 10
-135.431583
 20
128.514877
 42
-0.262676
 10
-135.000018
 20
127.750078
 42
0.000000
  0
ENDBLK
  5
2F9
100
AcDbEntity
  8
0
100
AcDbBlockEnd
  0
BLOCK
  5
2FA
100
AcDbEntity
  8
Detail
100
AcDbBlockBegin
  2
B-38
 70
    66
 10
0.000000
 20
0.000000
 30
0.000000
  0
ENDBLK
  5
2FB
100
AcDbEntity
  8
0
100
AcDbBlockEnd
  0
BLOCK
  5
2FC
100
AcDbEntity
  8
Detail
100
AcDbBlockBegin
  2
B-39
 70
    66
 10
0.000000
 20
0.000000
 30
0.000000
  0
LWPOLYLINE
  5
2FD
100
AcDbEntity
  8
Detail
  6
CONTINUOUS
 62
     4
100
AcDbPolyline
 90
    11
 10
-127.500013
 20
183.522828
 42
0.000000
 10
-130.500013
 20
183.522828
 42
0.000000
 10
-130.500016
 20
165.733052
 42
0.000000
 10
45.499982
 20
148.133052
 42
0.000000
 10
45.499982
 20
128.090656
 42
0.000000
 10
40.550235
 20
133.040403
 42
0.000000
 10
38.428914
 20
130.919083
 42
0.000000
 10
48.499982
 20
120.848015
 42
0.000000
 10
48.499982
 20
150.848015
 42
0.000000
 10
-127.500014
 20
168.448014
 42
0.000000
 10
-127.500013
 20
183.522828
 42
0.000000
  0
ENDBLK
  5
309
100
AcDbEntity
  8
0
100
AcDbBlockEnd
  0
BLOCK
  5
30A
100
AcDbEntity
  8
SCHRAFF
100
AcDbBlockBegin
  2
glasleiste
 70
    66
 10
0.000000
 20
0.000000
 30
0.000000
  0
HATCH
  5
30B
100
AcDbEntity
  8
SCHRAFF
  6
CONTINUOUS
 62
     9
100
AcDbHatch
 10
0.000000
 20
0.000000
 30
0.000000
210
0.000000
220
0.000000
230
1.000000
  2
_U
 70
     0
 71
     1
 91
     1
 92
    18
 72
     1
 73
     0
 93
    15
 10
-190.292241
 20
265.250078
 42
0.000000
 10
-208.009877
 20
260.502652
 42
0.339455
 10
-209.492239
 20
258.570800
 42
0.000000
 10
-209.492239
 20
249.250078
 42
0.414214
 10
-207.492239
 20
247.250078
 42
0.000000
 10
-206.492239
 20
247.250079
 42
0.000000
 10
-185.292241
 20
247.250078
 42
0.000000
 10
-185.292241
 20
257.250078
 42
0.000000
 10
-185.492241
 20
257.250078
 42
0.000000
 10
-189.492241
 20
257.250078
 42
0.000000
 10
-190.992241
 20
259.250078
 42
0.000000
 10
-190.992241
 20
261.250078
 42
0.000000
 10
-189.492241
 20
261.250078
 42
0.000000
 10
-189.492241
 20
264.270283
 42
0.356393
 10
-190.292241
 20
265.250078
 42
0.000000
 97
     0
 75
     0
 76
     0
 52
0.000000
 41
1.000000
 77
     0
 78
     1
 53
45.000001
 43
-0.000000
 44
0.000000
 45
-2.209709
 46
2.209709
 79
     0
 98
     0
  0
LWPOLYLINE
  5
30C
100
AcDbEntity
  8
Detail
  6
CONTINUOUS
 62
     3
100
AcDbPolyline
 90
     2
 10
-208.009879
 20
260.502652
 42
0.000000
 10
-190.292242
 20
265.250078
 42
0.000000
  0
LWPOLYLINE
  5
30F
100
AcDbEntity
  8
Detail
  6
CONTINUOUS
 62
     4
100
AcDbPolyline
 90
     2
 10
-184.492242
 20
267.250078
 42
0.000000
 10
-190.292242
 20
265.250078
 42
0.000000
  0
LWPOLYLINE
  5
312
100
AcDbEntity
  8
Detail
  6
CONTINUOUS
 62
     4
100
AcDbPolyline
 90
     2
 10
-184.492242
 20
258.250078
 42
0.000000
 10
-184.492242
 20
267.250078
 42
0.000000
  0
LWPOLYLINE
  5
315
100
AcDbEntity
  8
Detail
  6
CONTINUOUS
 62
     3
100
AcDbPolyline
 90
     2
 10
-185.292242
 20
257.250078
 42
0.000000
 10
-185.292242
 20
247.250078
 42
0.000000
  0
LWPOLYLINE
  5
318
100
AcDbEntity
  8
Detail
  6
CONTINUOUS
 62
     4
100
AcDbPolyline
 90
     2
 10
-185.492242
 20
257.250078
 42
0.414214
 10
-184.492242
 20
258.250078
 42
0.000000
  0
LWPOLYLINE
  5
31B
100
AcDbEntity
  8
Detail
  6
CONTINUOUS
 62
     3
100
AcDbPolyline
 90
     2
 10
-189.492242
 20
257.250078
 42
0.000000
 10
-185.292242
 20
257.250078
 42
0.000000
  0
LWPOLYLINE
  5
31E
100
AcDbEntity
  8
Detail
  6
CONTINUOUS
 62
     3
100
AcDbPolyline
 90
     2
 10
-190.992242
 20
259.250078
 42
0.000000
 10
-189.492242
 20
257.250078
 42
0.000000
  0
LWPOLYLINE
  5
321
100
AcDbEntity
  8
Detail
  6
CONTINUOUS
 62
     3
100
AcDbPolyline
 90
     2
 10
-190.992242
 20
261.250078
 42
0.000000
 10
-190.992242
 20
259.250078
 42
0.000000
  0
LWPOLYLINE
  5
324
100
AcDbEntity
  8
Detail
  6
CONTINUOUS
 62
     3
100
AcDbPolyline
 90
     3
 10
-189.492242
 20
264.270282
 42
0.000000
 10
-189.492242
 20
261.250078
 42
0.000000
 10
-190.992242
 20
261.250078
 42
0.000000
  0
LWPOLYLINE
  5
328
100
AcDbEntity
  8
Detail
  6
CONTINUOUS
 62
     3
100
AcDbPolyline
 90
     2
 10
-190.292242
 20
265.250078
 42
-0.356394
 10
-189.492242
 20
264.270283
 42
0.000000
  0
LWPOLYLINE
  5
32B
100
AcDbEntity
  8
Detail
  6
CONTINUOUS
 62
     3
100
AcDbPolyline
 90
     3
 10
-209.492241
 20
249.250078
 42
0.000000
 10
-209.492241
 20
258.570800
 42
-0.339454
 10
-208.009879
 20
260.502650
 42
0.000000
  0
LWPOLYLINE
  5
32F
100
AcDbEntity
  8
Detail
  6
CONTINUOUS
 62
     3
100
AcDbPolyline
 90
     2
 10
-207.492241
 20
247.250078
 42
-0.414214
 10
-209.492241
 20
249.250078
 42
0.000000
  0
LWPOLYLINE
  5
332
100
AcDbEntity
  8
Detail
  6
CONTINUOUS
 62
     3
100
AcDbPolyline
 90
     2
 10
-185.292242
 20
247.250078
 42
0.000000
 10
-207.492241
 20
247.250078
 42
0.000000
  0
ENDBLK
  5
335
100
AcDbEntity
  8
0
100
AcDbBlockEnd
  0
BLOCK
  5
336
100
AcDbEntity
  8
SCHRAFF
100
AcDbBlockBegin
  2
rahmen
 70
    66
 10
0.000000
 20
0.000000
 30
0.000000
  0
HATCH
  5
337
100
AcDbEntity
  8
SCHRAFF
  6
CONTINUOUS
 62
     9
100
AcDbHatch
 10
0.000000
 20
0.000000
 30
0.000000
210
0.000000
220
0.000000
230
1.000000
  2
_U
 70
     0
 71
     1
 91
     1
 92
    18
 72
     1
 73
     0
 93
    32
 10
-132.500018
 20
183.250079
 42
0.000000
 10
-132.500018
 20
131.750079
 42
0.000000
 10
-134.000018
 20
130.250079
 42
0.000000
 10
-189.000017
 20
130.250079
 42
0.000000
 10
-190.500017
 20
131.750079
 42
0.000000
 10
-190.500017
 20
198.750077
 42
-0.414213
 10
-189.000017
 20
200.250079
 42
0.000000
 10
-184.500017
 20
200.250079
 42
-0.414214
 10
-183.500017
 20
199.250079
 42
0.000000
 10
-183.500017
 20
196.250079
 42
0.000000
 10
-175.500017
 20
196.250079
 42
0.000000
 10
-175.500017
 20
199.250079
 42
-0.414212
 10
-174.500017
 20
200.250079
 42
0.000000
 10
-171.500017
 20
200.250079
 42
0.414214
 10
-169.500017
 20
202.250079
 42
0.000000
 10
-169.500017
 20
206.750079
 42
-0.414213
 10
-168.000017
 20
208.250079
 42
0.000000
 10
-164.200017
 20
208.250079
 42
0.000000
 10
-163.700017
 20
207.750079
 42
0.000000
 10
-163.700017
 20
198.621859
 42
0.113237
 10
-163.500017
 20
197.750079
 42
0.000000
 10
-163.500017
 20
186.250079
 42
0.000000
 10
-159.500017
 20
186.250079
 42
0.000000
 10
-159.500017
 20
197.250079
 42
0.000000
 10
-159.000017
 20
197.750079
 42
0.000000
 10
-151.500017
 20
197.750079
 42
0.000000
 10
-151.000017
 20
197.250079
 42
0.000000
 10
-151.000017
 20
188.750079
 42
0.000000
 10
-144.300018
 20
188.750079
 42
0.000000
 10
-136.794243
 20
185.250079
 42
0.000000
 10
-134.500018
 20
185.250079
 42
-0.414214
 10
-132.500018
 20
183.250079
 42
0.000000
 97
     0
 75
     0
 76
     0
 52
0.000000
 41
1.000000
 77
     0
 78
     1
 53
44.999994
 43
-0.000000
 44
0.000000
 45
-2.209703
 46
2.209704
 79
     0
 98
     0
  0
LWPOLYLINE
  5
338
100
AcDbEntity
  8
Detail
  6
CONTINUOUS
 62
     3
100
AcDbPolyline
 90
    32
 10
-132.500018
 20
131.750078
 42
0.000000
 10
-134.000018
 20
130.250078
 42
0.000000
 10
-189.000018
 20
130.250078
 42
0.000000
 10
-190.500018
 20
131.750078
 42
0.000000
 10
-190.500018
 20
198.750076
 42
-0.414214
 10
-189.000018
 20
200.250076
 42
0.000000
 10
-184.500018
 20
200.250078
 42
-0.414213
 10
-183.500016
 20
199.250078
 42
0.000000
 10
-183.500018
 20
196.250078
 42
0.000000
 10
-175.500018
 20
196.250078
 42
0.000000
 10
-175.500018
 20
199.250078
 42
-0.414213
 10
-174.500018
 20
200.250076
 42
0.000000
 10
-171.500018
 20
200.250078
 42
0.414214
 10
-169.500020
 20
202.250078
 42
0.000000
 10
-169.500018
 20
206.750078
 42
-0.414213
 10
-168.000018
 20
208.250076
 42
0.000000
 10
-164.200018
 20
208.250078
 42
0.000000
 10
-163.700018
 20
207.750078
 42
0.000000
 10
-163.700018
 20
198.621858
 42
0.113237
 10
-163.500019
 20
197.750078
 42
0.000000
 10
-163.500018
 20
186.250078
 42
0.000000
 10
-159.500018
 20
186.250078
 42
0.000000
 10
-159.500018
 20
197.250078
 42
0.000000
 10
-159.000018
 20
197.750078
 42
0.000000
 10
-151.500018
 20
197.750078
 42
0.000000
 10
-151.000018
 20
197.250078
 42
0.000000
 10
-151.000018
 20
188.750078
 42
0.000000
 10
-144.300018
 20
188.750078
 42
0.000000
 10
-136.794243
 20
185.250078
 42
0.000000
 10
-134.500018
 20
185.250078
 42
-0.414214
 10
-132.500016
 20
183.250076
 42
0.000000
 10
-132.500018
 20
131.750078
 42
0.000000
  0
ENDBLK
  5
359
100
AcDbEntity
  8
0
100
AcDbBlockEnd
  0
BLOCK
  5
35A
100
AcDbEntity
  8
SCHRAFF
100
AcDbBlockBegin
  2
fluegel
 70
    66
 10
0.000000
 20
0.000000
 30
0.000000
  0
HATCH
  5
35B
100
AcDbEntity
  8
SCHRAFF
  6
CONTINUOUS
 62
     9
100
AcDbHatch
 10
0.000000
 20
0.000000
 30
0.000000
210
0.000000
220
0.000000
230
1.000000
  2
_U
 70
     0
 71
     1
 91
     1
 92
    18
 72
     1
 73
     0
 93
    56
 10
-142.500053
 20
257.968448
 42
0.000000
 10
-142.500018
 20
238.722553
 42
-0.339454
 10
-143.982378
 20
236.790698
 42
0.000000
 10
-144.517657
 20
236.647273
 42
0.339454
 10
-146.000017
 20
234.715423
 42
0.000000
 10
-146.000017
 20
225.750078
 42
-0.414214
 10
-147.500017
 20
224.250078
 42
0.000000
 10
-149.349027
 20
224.250078
 42
-0.339454
 10
-150.797917
 20
225.361848
 42
0.000000
 10
-151.541867
 20
228.138303
 42
0.339453
 10
-152.990752
 20
229.250078
 42
0.000000
 10
-155.509282
 20
229.250078
 42
0.339455
 10
-156.958167
 20
228.138303
 42
0.000000
 10
-157.702117
 20
225.361848
 42
-0.339455
 10
-159.151007
 20
224.250078
 42
0.000000
 10
-161.500017
 20
224.250078
 42
0.414214
 10
-163.500017
 20
222.250078
 42
0.000000
 10
-163.500017
 20
213.750078
 42
-0.414214
 10
-165.000017
 20
212.250078
 42
0.000000
 10
-188.500017
 20
212.250078
 42
0.414214
 10
-190.500017
 20
210.250078
 42
0.000000
 10
-190.500017
 20
193.750078
 42
-0.414214
 10
-192.000017
 20
192.250078
 42
0.000000
 10
-208.000052
 20
192.250078
 42
-0.414214
 10
-210.500052
 20
194.750078
 42
0.000000
 10
-210.500052
 20
244.750078
 42
-0.414213
 10
-208.000052
 20
247.250078
 42
0.000000
 10
-206.500052
 20
247.250078
 42
-0.414212
 10
-205.500052
 20
246.250078
 42
0.000000
 10
-205.500052
 20
243.250078
 42
0.000000
 10
-200.000052
 20
243.250078
 42
0.000000
 10
-200.000052
 20
246.250078
 42
-0.414212
 10
-199.000052
 20
247.250078
 42
0.000000
 10
-175.767382
 20
247.250078
 42
-0.339456
 10
-174.801457
 20
246.508893
 42
0.000000
 10
-173.789557
 20
242.732438
 42
0.339454
 10
-171.857707
 20
241.250078
 42
0.000000
 10
-168.642402
 20
241.250078
 42
0.339454
 10
-166.710552
 20
242.732438
 42
0.000000
 10
-165.698652
 20
246.508893
 42
-0.339454
 10
-164.732727
 20
247.250078
 42
0.000000
 10
-162.748387
 20
247.250078
 42
0.576922
 10
-160.500052
 20
248.550078
 42
0.000000
 10
-160.500052
 20
256.750078
 42
0.000000
 10
-160.000052
 20
257.250078
 42
0.000000
 10
-156.632437
 20
257.250078
 42
0.263447
 10
-154.917447
 20
258.221083
 42
0.000000
 10
-154.000052
 20
259.750078
 42
0.000000
 10
-154.000052
 20
260.750078
 42
0.414211
 10
-154.500052
 20
261.250078
 42
0.000000
 10
-155.000052
 20
261.250078
 42
-0.414216
 10
-155.500052
 20
261.750078
 42
0.000000
 10
-155.500052
 20
264.270278
 42
-0.356394
 10
-154.700052
 20
265.250078
 42
0.000000
 10
-143.943508
 20
260.234218
 42
-0.291473
 10
-142.500053
 20
257.968448
 42
0.000000
 97
     0
 75
     0
 76
     0
 52
0.000000
 41
1.000000
 77
     0
 78
     1
 53
45.000000
 43
-0.000000
 44
0.000000
 45
-2.209705
 46
2.209705
 79
     0
 98
     0
  0
POLYLINE
  5
35C
100
AcDbEntity
  8
Detail
 66
     1
  6
CONTINUOUS
 62
     3
100
AcDb2dPolyline
  0
VERTEX
  5
35D
100
AcDbEntity
  8
Detail
100
AcDbVertex
100
AcDb2dVertex
 10
-142.500053
 20
257.968448
 42
0.291473
  0
VERTEX
  5
35E
100
AcDbEntity
  8
Detail
100
AcDbVertex
100
AcDb2dVertex
 10
-143.943508
 20
260.234218
 42
0.000000
  0
VERTEX
  5
35F
100
AcDbEntity
  8
Detail
100
AcDbVertex
100
AcDb2dVertex
 10
-154.700053
 20
265.250078
 42
0.356395
  0
VERTEX
  5
360
100
AcDbEntity
  8
Detail
100
AcDbVertex
100
AcDb2dVertex
 10
-155.500057
 20
264.270278
 42
0.000000
  0
VERTEX
  5
361
100
AcDbEntity
  8
Detail
100
AcDbVertex
100
AcDb2dVertex
 10
-155.500053
 20
261.750078
 42
0.414216
  0
VERTEX
  5
362
100
AcDbEntity
  8
Detail
100
AcDbVertex
100
AcDb2dVertex
 10
-155.000053
 20
261.250078
 42
0.000000
  0
VERTEX
  5
363
100
AcDbEntity
  8
Detail
100
AcDbVertex
100
AcDb2dVertex
 10
-154.500053
 20
261.250078
 42
-0.414211
  0
VERTEX
  5
364
100
AcDbEntity
  8
Detail
100
AcDbVertex
100
AcDb2dVertex
 10
-154.000053
 20
260.750078
 42
0.000000
  0
VERTEX
  5
365
100
AcDbEntity
  8
Detail
100
AcDbVertex
100
AcDb2dVertex
 10
-154.000053
 20
259.750078
 42
0.000000
  0
VERTEX
  5
366
100
AcDbEntity
  8
Detail
100
AcDbVertex
100
AcDb2dVertex
 10
-154.917448
 20
258.221083
 42
-0.263447
  0
VERTEX
  5
367
100
AcDbEntity
  8
Detail
100
AcDbVertex
100
AcDb2dVertex
 10
-156.632438
 20
257.250073
 42
0.000000
  0
VERTEX
  5
368
100
AcDbEntity
  8
Detail
100
AcDbVertex
100
AcDb2dVertex
 10
-160.000053
 20
257.250078
 42
0.000000
  0
VERTEX
  5
369
100
AcDbEntity
  8
Detail
100
AcDbVertex
100
AcDb2dVertex
 10
-160.500053
 20
256.750078
 42
0.000000
  0
VERTEX
  5
36A
100
AcDbEntity
  8
Detail
100
AcDbVertex
100
AcDb2dVertex
 10
-160.500053
 20
248.550078
 42
-0.576923
  0
VERTEX
  5
36B
100
AcDbEntity
  8
Detail
100
AcDbVertex
100
AcDb2dVertex
 10
-162.748390
 20
247.250075
 42
0.000000
  0
VERTEX
  5
36C
100
AcDbEntity
  8
Detail
100
AcDbVertex
100
AcDb2dVertex
 10
-164.732728
 20
247.250078
 42
0.339455
  0
VERTEX
  5
36D
100
AcDbEntity
  8
Detail
100
AcDbVertex
100
AcDb2dVertex
 10
-165.698656
 20
246.508894
 42
0.000000
  0
VERTEX
  5
36E
100
AcDbEntity
  8
Detail
100
AcDbVertex
100
AcDb2dVertex
 10
-166.710553
 20
242.732438
 42
-0.339454
  0
VERTEX
  5
36F
100
AcDbEntity
  8
Detail
100
AcDbVertex
100
AcDb2dVertex
 10
-168.642403
 20
241.250076
 42
0.000000
  0
VERTEX
  5
370
100
AcDbEntity
  8
Detail
100
AcDbVertex
100
AcDb2dVertex
 10
-171.857708
 20
241.250078
 42
-0.339454
  0
VERTEX
  5
371
100
AcDbEntity
  8
Detail
100
AcDbVertex
100
AcDb2dVertex
 10
-173.789555
 20
242.732439
 42
0.000000
  0
VERTEX
  5
372
100
AcDbEntity
  8
Detail
100
AcDbVertex
100
AcDb2dVertex
 10
-174.801458
 20
246.508893
 42
0.339455
  0
VERTEX
  5
373
100
AcDbEntity
  8
Detail
100
AcDbVertex
100
AcDb2dVertex
 10
-175.767383
 20
247.250074
 42
0.000000
  0
VERTEX
  5
374
100
AcDbEntity
  8
Detail
100
AcDbVertex
100
AcDb2dVertex
 10
-199.000053
 20
247.250078
 42
0.414213
  0
VERTEX
  5
375
100
AcDbEntity
  8
Detail
100
AcDbVertex
100
AcDb2dVertex
 10
-200.000057
 20
246.250078
 42
0.000000
  0
VERTEX
  5
376
100
AcDbEntity
  8
Detail
100
AcDbVertex
100
AcDb2dVertex
 10
-200.000053
 20
243.250078
 42
0.000000
  0
VERTEX
  5
377
100
AcDbEntity
  8
Detail
100
AcDbVertex
100
AcDb2dVertex
 10
-205.500053
 20
243.250078
 42
0.000000
  0
VERTEX
  5
378
100
AcDbEntity
  8
Detail
100
AcDbVertex
100
AcDb2dVertex
 10
-205.500053
 20
246.250078
 42
0.414212
  0
VERTEX
  5
379
100
AcDbEntity
  8
Detail
100
AcDbVertex
100
AcDb2dVertex
 10
-206.500053
 20
247.250078
 42
0.000000
  0
VERTEX
  5
37A
100
AcDbEntity
  8
Detail
100
AcDbVertex
100
AcDb2dVertex
 10
-208.000053
 20
247.250078
 42
0.414214
  0
VERTEX
  5
37B
100
AcDbEntity
  8
Detail
100
AcDbVertex
100
AcDb2dVertex
 10
-210.500057
 20
244.750078
 42
0.000000
  0
VERTEX
  5
37C
100
AcDbEntity
  8
Detail
100
AcDbVertex
100
AcDb2dVertex
 10
-210.500053
 20
194.750078
 42
0.414214
  0
VERTEX
  5
37D
100
AcDbEntity
  8
Detail
100
AcDbVertex
100
AcDb2dVertex
 10
-208.000053
 20
192.250078
 42
0.000000
  0
VERTEX
  5
37E
100
AcDbEntity
  8
Detail
100
AcDbVertex
100
AcDb2dVertex
 10
-192.000018
 20
192.250078
 42
0.414214
  0
VERTEX
  5
37F
100
AcDbEntity
  8
Detail
100
AcDbVertex
100
AcDb2dVertex
 10
-190.500020
 20
193.750078
 42
0.000000
  0
VERTEX
  5
380
100
AcDbEntity
  8
Detail
100
AcDbVertex
100
AcDb2dVertex
 10
-190.500018
 20
210.250078
 42
-0.414213
  0
VERTEX
  5
381
100
AcDbEntity
  8
Detail
100
AcDbVertex
100
AcDb2dVertex
 10
-188.500018
 20
212.250076
 42
0.000000
  0
VERTEX
  5
382
100
AcDbEntity
  8
Detail
100
AcDbVertex
100
AcDb2dVertex
 10
-165.000018
 20
212.250078
 42
0.414214
  0
VERTEX
  5
383
100
AcDbEntity
  8
Detail
100
AcDbVertex
100
AcDb2dVertex
 10
-163.500020
 20
213.750078
 42
0.000000
  0
VERTEX
  5
384
100
AcDbEntity
  8
Detail
100
AcDbVertex
100
AcDb2dVertex
 10
-163.500018
 20
222.250078
 42
-0.414213
  0
VERTEX
  5
385
100
AcDbEntity
  8
Detail
100
AcDbVertex
100
AcDb2dVertex
 10
-161.500018
 20
224.250076
 42
0.000000
  0
VERTEX
  5
386
100
AcDbEntity
  8
Detail
100
AcDbVertex
100
AcDb2dVertex
 10
-159.151008
 20
224.250078
 42
0.339454
  0
VERTEX
  5
387
100
AcDbEntity
  8
Detail
100
AcDbVertex
100
AcDb2dVertex
 10
-157.702122
 20
225.361849
 42
0.000000
  0
VERTEX
  5
388
100
AcDbEntity
  8
Detail
100
AcDbVertex
100
AcDb2dVertex
 10
-156.958168
 20
228.138303
 42
-0.339454
  0
VERTEX
  5
389
100
AcDbEntity
  8
Detail
100
AcDbVertex
100
AcDb2dVertex
 10
-155.509283
 20
229.250073
 42
0.000000
  0
VERTEX
  5
38A
100
AcDbEntity
  8
Detail
100
AcDbVertex
100
AcDb2dVertex
 10
-152.990753
 20
229.250078
 42
-0.339454
  0
VERTEX
  5
38B
100
AcDbEntity
  8
Detail
100
AcDbVertex
100
AcDb2dVertex
 10
-151.541863
 20
228.138304
 42
0.000000
  0
VERTEX
  5
38C
100
AcDbEntity
  8
Detail
100
AcDbVertex
100
AcDb2dVertex
 10
-150.797918
 20
225.361848
 42
0.339454
  0
VERTEX
  5
38D
100
AcDbEntity
  8
Detail
100
AcDbVertex
100
AcDb2dVertex
 10
-149.349028
 20
224.250074
 42
0.000000
  0
VERTEX
  5
38E
100
AcDbEntity
  8
Detail
100
AcDbVertex
100
AcDb2dVertex
 10
-147.500018
 20
224.250078
 42
0.414214
  0
VERTEX
  5
38F
100
AcDbEntity
  8
Detail
100
AcDbVertex
100
AcDb2dVertex
 10
-146.000020
 20
225.750078
 42
0.000000
  0
VERTEX
  5
390
100
AcDbEntity
  8
Detail
100
AcDbVertex
100
AcDb2dVertex
 10
-146.000018
 20
234.715423
 42
-0.339454
  0
VERTEX
  5
391
100
AcDbEntity
  8
Detail
100
AcDbVertex
100
AcDb2dVertex
 10
-144.517658
 20
236.647273
 42
0.000000
  0
VERTEX
  5
392
100
AcDbEntity
  8
Detail
 62
     2
100
AcDbVertex
100
AcDb2dVertex
 10
-143.982378
 20
236.790698
 42
0.339454
  0
VERTEX
  5
393
100
AcDbEntity
  8
Detail
100
AcDbVertex
100
AcDb2dVertex
 10
-142.500015
 20
238.722553
 42
0.000000
  0
VERTEX
  5
394
100
AcDbEntity
  8
Detail
100
AcDbVertex
100
AcDb2dVertex
 10
-142.500053
 20
257.968448
 42
0.000000
  0
SEQEND
  5
395
100
AcDbEntity
  8
Detail
  0
LWPOLYLINE
  5
396
100
AcDbEntity
  8
Detail
  6
CONTINUOUS
 62
     4
100
AcDbPolyline
 90
     4
 10
-154.700053
 20
265.250078
 42
0.000000
 10
-160.500053
 20
267.250078
 42
0.000000
 10
-160.500053
 20
258.250078
 42
0.414215
 10
-159.500053
 20
257.250078
 42
0.000000
  0
ENDBLK
  5
39B
100
AcDbEntity
  8
0
100
AcDbBlockEnd
  0
BLOCK
  5
39C
100
AcDbEntity
  8
Detail
100
AcDbBlockBegin
  2
w-schenkel
 70
    66
 10
0.000000
 20
0.000000
 30
0.000000
  0
LWPOLYLINE
  5
39D
100
AcDbEntity
  8
Detail
  6
CONTINUOUS
 62
     4
100
AcDbPolyline
 90
    41
 10
-129.905253
 20
185.430638
 42
0.000000
 10
-127.524118
 20
184.805848
 42
0.876982
 10
-127.237832
 20
185.507289
 42
0.000000
 10
-128.801448
 20
186.399243
 42
-0.876979
 10
-128.426797
 20
187.317180
 42
0.000000
 10
-95.296504
 20
178.624103
 42
-0.339454
 10
-94.102606
 20
177.084804
 42
0.000000
 10
-94.078684
 20
172.478274
 42
-0.668178
 10
-94.760043
 20
172.191890
 42
0.000000
 10
-95.397649
 20
172.822899
 42
0.668178
 10
-96.079007
 20
172.536514
 42
0.000000
 10
-96.071729
 20
171.134584
 42
0.267949
 10
-95.970834
 20
170.961899
 42
0.000000
 10
-93.062174
 20
169.302664
 42
0.577351
 10
-92.463981
 20
169.652189
 42
0.000000
 10
-92.502629
 20
177.093114
 42
0.339454
 10
-94.890430
 20
180.171714
 42
0.000000
 10
-145.205527
 20
193.373917
 42
-0.339455
 10
-146.697907
 20
195.298047
 42
0.000000
 10
-146.721612
 20
199.863332
 42
0.414214
 10
-146.922652
 20
200.062293
 42
0.000000
 10
-148.522627
 20
200.053977
 42
0.414220
 10
-148.721585
 20
199.852942
 42
0.000000
 10
-148.717862
 20
199.135967
 42
0.198912
 10
-148.658551
 20
198.994853
 42
0.000000
 10
-148.474762
 20
198.812957
 42
-0.414208
 10
-148.473294
 20
198.530124
 42
0.000000
 10
-148.655182
 20
198.346332
 42
0.198916
 10
-148.713026
 20
198.204607
 42
0.000000
 10
-148.706437
 20
196.935997
 42
0.198912
 10
-148.647126
 20
196.794883
 42
0.000000
 10
-148.463337
 20
196.612987
 42
-0.414210
 10
-148.461869
 20
196.330154
 42
0.000000
 10
-148.643757
 20
196.146362
 42
0.198915
 10
-148.701601
 20
196.004637
 42
0.000000
 10
-148.697877
 20
195.287657
 42
0.339454
 10
-145.713127
 20
191.439406
 42
0.000000
 10
-131.028233
 20
187.586228
 42
-0.339454
 10
-130.655140
 20
187.105198
 42
0.000000
 10
-130.651438
 20
186.392698
 42
0.339453
 10
-129.905253
 20
185.430638
 42
0.000000
  0
LWPOLYLINE
  5
3C7
100
AcDbEntity
  8
Detail
  6
CONTINUOUS
 62
     4
100
AcDbPolyline
 90
   126
 10
-151.473847
 20
201.705722
 42
0.000000
 10
-153.010307
 20
201.786242
 42
-0.198916
 10
-153.148472
 20
201.852142
 42
0.000000
 10
-153.321492
 20
202.044302
 42
0.414216
 10
-153.603949
 20
202.059109
 42
0.000000
 10
-153.796112
 20
201.886082
 42
-0.198906
 10
-153.940402
 20
201.834986
 42
0.000000
 10
-155.207292
 20
201.901382
 42
-0.198916
 10
-155.345457
 20
201.967282
 42
0.000000
 10
-155.518477
 20
202.159442
 42
0.414214
 10
-155.800934
 20
202.174249
 42
0.000000
 10
-155.993097
 20
202.001222
 42
-0.198907
 10
-156.137387
 20
201.950126
 42
0.000000
 10
-157.673847
 20
202.030647
 42
0.429637
 10
-158.200016
 20
201.531332
 42
0.000000
 10
-158.200017
 20
199.530917
 42
0.339453
 10
-157.829427
 20
199.047957
 42
0.000000
 10
-156.670607
 20
198.737452
 42
-0.339454
 10
-156.300017
 20
198.254487
 42
0.000000
 10
-156.300017
 20
197.950077
 42
-0.414214
 10
-156.500017
 20
197.750075
 42
0.000000
 10
-158.585872
 20
197.750077
 42
-0.201515
 10
-158.942946
 20
197.900077
 42
0.881407
 10
-159.733033
 20
197.300077
 42
0.000000
 10
-159.567002
 20
197.012512
 42
-0.131652
 10
-159.500015
 20
196.762512
 42
0.000000
 10
-159.500017
 20
195.817062
 42
-0.131652
 10
-159.633992
 20
195.317062
 42
0.000000
 10
-160.116042
 20
194.482127
 42
0.131653
 10
-160.250017
 20
193.982127
 42
0.000000
 10
-160.250017
 20
191.734197
 42
0.341998
 10
-159.875017
 20
191.250076
 42
-0.341998
 10
-159.500017
 20
190.765953
 42
0.000000
 10
-159.500017
 20
189.518023
 42
-0.131652
 10
-159.633992
 20
189.018023
 42
0.000000
 10
-160.366042
 20
187.750078
 42
-0.267949
 10
-161.232067
 20
187.250076
 42
0.000000
 10
-162.187582
 20
187.250078
 42
-0.267950
 10
-163.053607
 20
187.750078
 42
0.000000
 10
-163.659827
 20
188.800078
 42
-0.637069
 10
-163.347922
 20
189.245518
 42
0.000000
 10
-163.109102
 20
189.203408
 42
0.637070
 10
-162.589266
 20
189.945811
 42
0.000000
 10
-163.659827
 20
191.800077
 42
-0.637070
 10
-163.347922
 20
192.245518
 42
0.000000
 10
-163.109102
 20
192.203407
 42
0.637069
 10
-162.589265
 20
192.945810
 42
0.000000
 10
-163.659827
 20
194.800077
 42
-0.637070
 10
-163.347922
 20
195.245518
 42
0.000000
 10
-163.109102
 20
195.203407
 42
0.637069
 10
-162.589265
 20
195.945810
 42
0.000000
 10
-163.133032
 20
196.887637
 42
-0.131652
 10
-163.200021
 20
197.137637
 42
0.000000
 10
-163.200017
 20
198.250077
 42
-0.414213
 10
-162.700017
 20
198.750075
 42
0.000000
 10
-161.563987
 20
198.750077
 42
0.176327
 10
-160.921202
 20
198.984032
 42
0.000000
 10
-160.057227
 20
199.708987
 42
0.221694
 10
-159.700015
 20
200.475032
 42
0.000000
 10
-159.700017
 20
207.967232
 42
-0.198914
 10
-159.641439
 20
208.108654
 42
0.000000
 10
-159.558597
 20
208.191497
 42
0.198911
 10
-159.500018
 20
208.332917
 42
0.000000
 10
-159.500017
 20
211.250077
 42
-0.414213
 10
-158.500017
 20
212.250075
 42
0.000000
 10
-157.000017
 20
212.250077
 42
-0.414212
 10
-156.500017
 20
211.750077
 42
0.000000
 10
-156.500017
 20
211.435662
 42
-0.339453
 10
-156.870608
 20
210.952699
 42
0.000000
 10
-157.629427
 20
210.749372
 42
0.339454
 10
-158.000015
 20
210.266412
 42
0.000000
 10
-158.000017
 20
204.224557
 42
0.398958
 10
-157.526187
 20
203.725244
 42
0.000000
 10
-135.526188
 20
202.572272
 42
0.429635
 10
-135.000018
 20
203.071587
 42
0.000000
 10
-135.000018
 20
220.079702
 42
0.291474
 10
-135.288707
 20
220.532858
 42
0.000000
 10
-143.288707
 20
224.263317
 42
0.548620
 10
-144.000016
 20
223.810167
 42
0.000000
 10
-144.000017
 20
221.711812
 42
0.113936
 10
-143.949414
 20
221.492626
 42
0.000000
 10
-142.727122
 20
218.986552
 42
-0.999999
 10
-144.075309
 20
218.328993
 42
0.000000
 10
-145.095192
 20
220.420062
 42
-0.113936
 10
-145.500017
 20
222.173547
 42
0.000000
 10
-145.500017
 20
229.500077
 42
-0.999998
 10
-144.000017
 20
229.500077
 42
0.000000
 10
-144.000017
 20
226.568612
 42
0.291474
 10
-143.711327
 20
226.115458
 42
0.000000
 10
-134.366093
 20
221.757702
 42
-0.291474
 10
-133.500019
 20
220.398237
 42
0.000000
 10
-133.500018
 20
199.750077
 42
-0.414214
 10
-134.000018
 20
199.250076
 42
0.000000
 10
-134.500018
 20
199.250077
 42
-0.414214
 10
-135.000017
 20
199.750077
 42
0.000000
 10
-135.000018
 20
200.367882
 42
0.398958
 10
-135.473848
 20
200.867196
 42
0.000000
 10
-148.973847
 20
201.574702
 42
0.429635
 10
-149.500019
 20
201.075387
 42
0.000000
 10
-149.500017
 20
200.031327
 42
0.043659
 10
-149.492421
 20
199.944507
 42
0.000000
 10
-148.162612
 20
192.402777
 42
0.363970
 10
-146.192997
 20
190.750075
 42
0.000000
 10
-143.208387
 20
190.750078
 42
-0.096290
 10
-143.021081
 20
190.713670
 42
0.000000
 10
-133.812713
 20
186.993248
 42
-0.305731
 10
-133.500015
 20
186.529653
 42
0.000000
 10
-133.500018
 20
185.750078
 42
-0.414215
 10
-134.000018
 20
185.250076
 42
0.000000
 10
-135.505578
 20
185.250078
 42
-0.464665
 10
-135.998442
 20
185.834238
 42
0.352599
 10
-136.304008
 20
186.381994
 42
0.000000
 10
-143.312652
 20
189.213668
 42
0.096290
 10
-143.499957
 20
189.250076
 42
0.000000
 10
-146.799047
 20
189.250078
 42
-0.153915
 10
-147.946202
 20
189.611773
 42
0.000000
 10
-150.786807
 20
191.600782
 42
-0.244697
 10
-151.000019
 20
192.010357
 42
0.000000
 10
-151.000017
 20
193.250077
 42
-0.414213
 10
-150.500017
 20
193.750075
 42
0.000000
 10
-150.400017
 20
193.750077
 42
0.466304
 10
-150.006095
 20
194.219531
 42
0.000000
 10
-150.992422
 20
199.813272
 42
-0.043661
 10
-151.000018
 20
199.900097
 42
0.000000
 10
-151.000017
 20
201.206407
 42
0.398957
 10
-151.473847
 20
201.705722
 42
0.000000
  0
POLYLINE
  5
446
100
AcDbEntity
  8
Detail
 66
     1
  6
CONTINUOUS
 62
     4
100
AcDb2dPolyline
  0
VERTEX
  5
447
100
AcDbEntity
  8
Detail
100
AcDbVertex
100
AcDb2dVertex
 10
-161.400182
 20
217.804567
 42
-0.203482
  0
VERTEX
  5
448
100
AcDbEntity
  8
Detail
100
AcDbVertex
100
AcDb2dVertex
 10
-161.450190
 20
218.584533
 42
0.308189
  0
VERTEX
  5
449
100
AcDbEntity
  8
Detail
100
AcDbVertex
100
AcDb2dVertex
 10
-161.282260
 20
218.858472
 42
0.887234
  0
VERTEX
  5
44A
100
AcDbEntity
  8
Detail
100
AcDbVertex
100
AcDb2dVertex
 10
-162.274112
 20
218.813272
 42
0.000000
  0
VERTEX
  5
44B
100
AcDbEntity
  8
Detail
100
AcDbVertex
100
AcDb2dVertex
 10
-162.698667
 20
212.779403
 42
-0.679249
  0
VERTEX
  5
44C
100
AcDbEntity
  8
Detail
100
AcDbVertex
100
AcDb2dVertex
 10
-163.408330
 20
212.557036
 42
-0.150742
  0
VERTEX
  5
44D
100
AcDbEntity
  8
Detail
100
AcDbVertex
100
AcDb2dVertex
 10
-163.507204
 20
212.803233
 42
0.000000
  0
VERTEX
  5
44E
100
AcDbEntity
  8
Detail
100
AcDbVertex
100
AcDb2dVertex
 10
-163.272797
 20
218.866012
 42
-0.210504
  0
VERTEX
  5
44F
100
AcDbEntity
  8
Detail
100
AcDbVertex
100
AcDb2dVertex
 10
-162.719966
 20
219.941701
 42
-0.183556
  0
VERTEX
  5
450
100
AcDbEntity
  8
Detail
100
AcDbVertex
100
AcDb2dVertex
 10
-162.188707
 20
220.226172
 42
-0.320371
  0
VERTEX
  5
451
100
AcDbEntity
  8
Detail
100
AcDbVertex
100
AcDb2dVertex
 10
-160.612436
 20
219.481558
 42
0.000000
  0
VERTEX
  5
452
100
AcDbEntity
  8
Detail
100
AcDbVertex
100
AcDb2dVertex
 10
-157.966483
 20
215.307868
 42
0.000000
  0
VERTEX
  5
453
100
AcDbEntity
  8
Detail
 62
     3
100
AcDbVertex
100
AcDb2dVertex
 10
-157.757133
 20
214.921273
 42
0.000000
  0
VERTEX
  5
454
100
AcDbEntity
  8
Detail
100
AcDbVertex
100
AcDb2dVertex
 10
-156.721683
 20
212.779933
 42
-0.082846
  0
VERTEX
  5
455
100
AcDbEntity
  8
Detail
 62
     3
100
AcDbVertex
100
AcDb2dVertex
 10
-156.700018
 20
212.650078
 42
-0.718683
  0
VERTEX
  5
456
100
AcDbEntity
  8
Detail
100
AcDbVertex
100
AcDb2dVertex
 10
-157.418699
 20
212.408327
 42
0.000000
  0
VERTEX
  5
457
100
AcDbEntity
  8
Detail
 62
     3
100
AcDbVertex
100
AcDb2dVertex
 10
-157.469523
 20
212.475323
 42
0.234622
  0
VERTEX
  5
458
100
AcDbEntity
  8
Detail
100
AcDbVertex
100
AcDb2dVertex
 10
-158.425562
 20
212.850075
 42
0.000000
  0
VERTEX
  5
459
100
AcDbEntity
  8
Detail
 62
     3
100
AcDbVertex
100
AcDb2dVertex
 10
-158.509657
 20
212.850078
 42
0.500491
  0
VERTEX
  5
45A
100
AcDbEntity
  8
Detail
100
AcDbVertex
100
AcDb2dVertex
 10
-159.700019
 20
210.403852
 42
0.000000
  0
VERTEX
  5
45B
100
AcDbEntity
  8
Detail
100
AcDbVertex
100
AcDb2dVertex
 10
-159.700017
 20
202.000078
 42
-0.414214
  0
VERTEX
  5
45C
100
AcDbEntity
  8
Detail
100
AcDbVertex
100
AcDb2dVertex
 10
-160.950017
 20
200.750075
 42
-0.198912
  0
VERTEX
  5
45D
100
AcDbEntity
  8
Detail
100
AcDbVertex
100
AcDb2dVertex
 10
-161.907123
 20
201.042966
 42
0.000000
  0
VERTEX
  5
45E
100
AcDbEntity
  8
Detail
100
AcDbVertex
100
AcDb2dVertex
 10
-163.700017
 20
202.835863
 42
0.000000
  0
VERTEX
  5
45F
100
AcDbEntity
  8
Detail
100
AcDbVertex
100
AcDb2dVertex
 10
-163.700017
 20
203.542968
 42
0.000000
  0
VERTEX
  5
460
100
AcDbEntity
  8
Detail
100
AcDbVertex
100
AcDb2dVertex
 10
-162.002662
 20
202.493048
 42
0.723528
  0
VERTEX
  5
461
100
AcDbEntity
  8
Detail
100
AcDbVertex
100
AcDb2dVertex
 10
-161.711761
 20
202.737438
 42
0.231341
  0
VERTEX
  5
462
100
AcDbEntity
  8
Detail
100
AcDbVertex
100
AcDb2dVertex
 10
-163.664236
 20
206.367549
 42
-0.095441
  0
VERTEX
  5
463
100
AcDbEntity
  8
Detail
100
AcDbVertex
100
AcDb2dVertex
 10
-163.700017
 20
206.553293
 42
0.000000
  0
VERTEX
  5
464
100
AcDbEntity
  8
Detail
100
AcDbVertex
100
AcDb2dVertex
 10
-163.700017
 20
207.008458
 42
-0.305613
  0
VERTEX
  5
465
100
AcDbEntity
  8
Detail
100
AcDbVertex
100
AcDb2dVertex
 10
-163.512517
 20
207.286563
 42
0.724201
  0
VERTEX
  5
466
100
AcDbEntity
  8
Detail
100
AcDbVertex
100
AcDb2dVertex
 10
-163.700017
 20
208.250077
 42
0.000000
  0
VERTEX
  5
467
100
AcDbEntity
  8
Detail
100
AcDbVertex
100
AcDb2dVertex
 10
-165.300017
 20
208.250078
 42
-0.373803
  0
VERTEX
  5
468
100
AcDbEntity
  8
Detail
100
AcDbVertex
100
AcDb2dVertex
 10
-165.696107
 20
208.594293
 42
-0.146796
  0
VERTEX
  5
469
100
AcDbEntity
  8
Detail
100
AcDbVertex
100
AcDb2dVertex
 10
-165.678747
 20
208.707933
 42
-0.243289
  0
VERTEX
  5
46A
100
AcDbEntity
  8
Detail
100
AcDbVertex
100
AcDb2dVertex
 10
-164.330762
 20
209.569232
 42
0.000000
  0
VERTEX
  5
46B
100
AcDbEntity
  8
Detail
100
AcDbVertex
100
AcDb2dVertex
 10
-162.807732
 20
209.826048
 42
0.308709
  0
VERTEX
  5
46C
100
AcDbEntity
  8
Detail
100
AcDbVertex
100
AcDb2dVertex
 10
-162.157670
 20
210.451248
 42
0.000000
  0
VERTEX
  5
46D
100
AcDbEntity
  8
Detail
100
AcDbVertex
100
AcDb2dVertex
 10
-161.751882
 20
212.392798
 42
-0.305486
  0
VERTEX
  5
46E
100
AcDbEntity
  8
Detail
100
AcDbVertex
100
AcDb2dVertex
 10
-160.550427
 20
213.562001
 42
0.446187
  0
VERTEX
  5
46F
100
AcDbEntity
  8
Detail
100
AcDbVertex
100
AcDb2dVertex
 10
-159.925393
 20
214.575513
 42
0.000000
  0
VERTEX
  5
470
100
AcDbEntity
  8
Detail
100
AcDbVertex
100
AcDb2dVertex
 10
-161.400182
 20
217.804567
 42
0.000000
  0
SEQEND
  5
471
100
AcDbEntity
  8
Detail
  0
ENDBLK
  5
472
100
AcDbEntity
  8
0
100
AcDbBlockEnd
  0
BLOCK
  5
473
100
AcDbEntity
  8
Detail
100
AcDbBlockBegin
  2
glas
 70
    66
 10
0.000000
 20
0.000000
 30
0.000000
  0
LWPOLYLINE
  5
474
100
AcDbEntity
  8
Detail
  6
CONTINUOUS
 62
     4
100
AcDbPolyline
 90
     2
 10
-164.500052
 20
252.250078
 42
0.000000
 10
-164.500052
 20
292.988672
 42
0.000000
  0
LWPOLYLINE
  5
477
100
AcDbEntity
  8
Detail
  6
CONTINUOUS
 62
     4
100
AcDbPolyline
 90
     2
 10
-180.492240
 20
252.250080
 42
0.000000
 10
-180.492240
 20
292.988674
 42
0.000000
  0
LWPOLYLINE
  5
47A
100
AcDbEntity
  8
Detail
  6
CONTINUOUS
 62
     4
100
AcDbPolyline
 90
     2
 10
-164.500052
 20
266.250078
 42
0.000000
 10
-164.500052
 20
252.250078
 42
0.000000
  0
LWPOLYLINE
  5
47D
100
AcDbEntity
  8
Detail
  6
CONTINUOUS
 62
     4
100
AcDbPolyline
 90
     3
 10
-180.492240
 20
252.250080
 42
0.000000
 10
-180.492240
 20
266.250080
 42
0.000000
 10
-164.500052
 20
266.250078
 42
0.000000
  0
LWPOLYLINE
  5
481
100
AcDbEntity
  8
Detail
  6
CONTINUOUS
 62
     4
100
AcDbPolyline
 90
     2
 10
-184.492241
 20
292.988675
 42
0.000000
 10
-184.492241
 20
252.250081
 42
0.000000
  0
LWPOLYLINE
  5
484
100
AcDbEntity
  8
Detail
  6
CONTINUOUS
 62
     4
100
AcDbPolyline
 90
     2
 10
-160.500053
 20
252.250079
 42
0.000000
 10
-160.500053
 20
292.988673
 42
0.000000
  0
LWPOLYLINE
  5
487
100
AcDbEntity
  8
Detail
  6
CONTINUOUS
 62
     4
100
AcDbPolyline
 90
     2
 10
-184.492241
 20
252.250081
 42
0.000000
 10
-180.492240
 20
252.250080
 42
0.000000
  0
LWPOLYLINE
  5
48A
100
AcDbEntity
  8
Detail
  6
CONTINUOUS
 62
     4
100
AcDbPolyline
 90
     2
 10
-164.500052
 20
252.250078
 42
0.000000
 10
-160.500053
 20
252.250079
 42
0.000000
  0
LWPOLYLINE
  5
48D
100
AcDbEntity
  8
Detail
  6
CONTINUOUS
 62
     4
100
AcDbPolyline
 90
     2
 10
-164.500052
 20
252.250078
 42
0.000000
 10
-180.492240
 20
252.250080
 42
0.000000
  0
LWPOLYLINE
  5
490
100
AcDbEntity
  8
Detail
  6
CONTINUOUS
 62
     4
100
AcDbPolyline
 90
     2
 10
-164.500052
 20
256.250078
 42
0.000000
 10
-180.492240
 20
256.250080
 42
0.000000
  0
ENDBLK
  5
493
100
AcDbEntity
  8
0
100
AcDbBlockEnd
  0
BLOCK
  5
494
100
AcDbEntity
  8
Detail
100
AcDbBlockBegin
  2
B-40
 70
    66
 10
0.000000
 20
0.000000
 30
0.000000
  0
MTEXT
  5
495
100
AcDbEntity
  8
Detail
 62
     7
100
AcDbMText
 10
79.375023
 20
212.750179
 30
0.000000
 40
4.999995
 41
40.162460
 71
     1
 72
     5
  1
Abdichtprofil
  7
Arial
 50
0.000000
  0
ENDBLK
  5
496
100
AcDbEntity
  8
0
100
AcDbBlockEnd
  0
BLOCK
  5
497
100
AcDbEntity
  8
Detail
100
AcDbBlockBegin
  2
B-41
 70
    66
 10
0.000000
 20
0.000000
 30
0.000000
  0
MTEXT
  5
498
100
AcDbEntity
  8
Detail
 62
     7
100
AcDbMText
 10
79.375023
 20
187.750179
 30
0.000000
 40
4.999995
 41
63.577436
 71
     1
 72
     5
  1
Fensterbanksystem
  7
Arial
 50
0.000000
  0
ENDBLK
  5
499
100
AcDbEntity
  8
0
100
AcDbBlockEnd
  0
BLOCK
  5
49A
100
AcDbEntity
  8
Detail
100
AcDbBlockBegin
  2
B-42
 70
    66
 10
0.000000
 20
0.000000
 30
0.000000
  0
MTEXT
  5
49B
100
AcDbEntity
  8
Detail
 62
     7
100
AcDbMText
 10
79.375023
 20
162.750179
 30
0.000000
 40
4.999995
 41
63.577436
 71
     1
 72
     5
  1
Fugendichtband 2D
  7
Arial
 50
0.000000
  0
ENDBLK
  5
49C
100
AcDbEntity
  8
0
100
AcDbBlockEnd
  0
BLOCK
  5
49D
100
AcDbEntity
  8
SCHRAFF
100
AcDbBlockBegin
  2
B-43
 70
    66
 10
0.000000
 20
0.000000
 30
0.000000
  0
HATCH
  5
49E
100
AcDbEntity
  8
SCHRAFF
 62
     7
440
     0
100
AcDbHatch
 10
0.000000
 20
0.000000
 30
0.000000
210
0.000000
220
0.000000
230
1.000000
  2
SOLID
 70
     1
 71
     1
 91
     1
 92
    18
 72
     1
 73
     0
 93
     3
 10
-23.000016
 20
156.540533
 42
1.000000
 10
-24.000016
 20
156.540533
 42
1.000000
 10
-23.000016
 20
156.540533
 42
0.000000
 97
     0
 75
     0
 76
     1
 98
     0
  0
CIRCLE
  5
49F
100
AcDbEntity
  8
Detail
  6
CONTINUOUS
 62
     7
100
AcDbCircle
 10
-23.500016
 20
156.540533
 40
0.500000
  0
ENDBLK
  5
4A0
100
AcDbEntity
  8
0
100
AcDbBlockEnd
  0
BLOCK
  5
4A1
100
AcDbEntity
  8
Detail
100
AcDbBlockBegin
  2
B-44
 70
    66
 10
0.000000
 20
0.000000
 30
0.000000
  0
LWPOLYLINE
  5
4A2
100
AcDbEntity
  8
Detail
  6
CONTINUOUS
 62
     7
100
AcDbPolyline
 90
     2
 10
77.500023
 20
10.250078
 42
0.000000
 10
-80.000018
 20
10.250078
 42
0.000000
  0
ENDBLK
  5
4A5
100
AcDbEntity
  8
0
100
AcDbBlockEnd
  0
BLOCK
  5
4A6
100
AcDbEntity
  8
Detail
100
AcDbBlockBegin
  2
B-45
 70
    66
 10
0.000000
 20
0.000000
 30
0.000000
  0
LWPOLYLINE
  5
4A7
100
AcDbEntity
  8
Detail
  6
CONTINUOUS
 62
     7
100
AcDbPolyline
 90
     4
 10
77.500023
 20
110.250078
 42
0.000000
 10
-62.500018
 20
110.250078
 42
0.000000
 10
-62.500018
 20
85.250078
 42
0.000000
 10
-76.000018
 20
85.250078
 42
0.000000
  0
LWPOLYLINE
  5
4AC
100
AcDbEntity
  8
Detail
  6
CONTINUOUS
 62
     7
100
AcDbPolyline
 90
     2
 10
77.500023
 20
35.250078
 42
0.000000
 10
-37.500018
 20
35.250078
 42
0.000000
  0
LWPOLYLINE
  5
4AF
100
AcDbEntity
  8
Detail
  6
CONTINUOUS
 62
     7
100
AcDbPolyline
 90
     2
 10
77.500023
 20
60.250078
 42
0.000000
 10
4.499982
 20
60.250078
 42
0.000000
  0
LWPOLYLINE
  5
4B2
100
AcDbEntity
  8
Detail
  6
CONTINUOUS
 62
     7
100
AcDbPolyline
 90
     2
 10
77.500023
 20
85.250078
 42
0.000000
 10
7.499982
 20
85.250078
 42
0.000000
  0
LWPOLYLINE
  5
4B5
100
AcDbEntity
  8
Detail
  6
CONTINUOUS
 62
     7
100
AcDbPolyline
 90
     3
 10
77.500023
 20
185.250078
 42
0.000000
 10
-23.500016
 20
185.250078
 42
0.000000
 10
-23.500016
 20
156.540533
 42
0.000000
  0
LWPOLYLINE
  5
4B9
100
AcDbEntity
  8
Detail
  6
CONTINUOUS
 62
     7
100
AcDbPolyline
 90
     2
 10
77.500023
 20
-14.749922
 42
0.000000
 10
-16.014215
 20
-14.749922
 42
0.000000
  0
ENDBLK
  5
4BC
100
AcDbEntity
  8
0
100
AcDbBlockEnd
  0
BLOCK
  5
4BD
100
AcDbEntity
  8
Detail
100
AcDbBlockBegin
  2
B-46
 70
    66
 10
0.000000
 20
0.000000
 30
0.000000
  0
LWPOLYLINE
  5
4BE
100
AcDbEntity
  8
Detail
  6
CONTINUOUS
 62
     9
100
AcDbPolyline
 90
     2
 10
46.499982
 20
120.848015
 42
0.000000
 10
10.499982
 20
120.848015
 42
0.000000
  0
ENDBLK
  5
4C1
100
AcDbEntity
  8
0
100
AcDbBlockEnd
  0
BLOCK
  5
4C2
100
AcDbEntity
  8
Detail
100
AcDbBlockBegin
  2
B-47
 70
    66
 10
0.000000
 20
0.000000
 30
0.000000
  0
MTEXT
  5
4C3
100
AcDbEntity
  8
Detail
 62
     7
100
AcDbMText
 10
-211.093768
 20
-225.937628
 30
0.000000
 40
3.749990
 41
353.428963
 71
     7
 72
     5
  1
Capatect Details sind allgemeine planerische Vorschläge. Sie stellen schematisch die Ausführung dar. Ihnen zugrunde liegen die entsprechenden 
  7
Arial
 50
0.000000
  0
MTEXT
  5
4C4
100
AcDbEntity
  8
Detail
 62
     7
100
AcDbMText
 10
-211.093768
 20
-231.562613
 30
0.000000
 40
3.749990
 41
392.764473
 71
     7
 72
     5
  1
Produktdatenblätter sowie Systemzulassungen. Die Möglichkeit der Detailanwendung sowie deren Vollständigkeit sind im speziellen Anwendungsfall vom Planer / 
  7
Arial
 50
0.000000
  0
MTEXT
  5
4C5
100
AcDbEntity
  8
Detail
 62
     7
100
AcDbMText
 10
-211.093768
 20
-237.187598
 30
0.000000
 40
3.749990
 41
107.887184
 71
     7
 72
     5
  1
Unternehmer eigenverantwortlich zu prüfen. 
  7
Arial
 50
0.000000
  0
ENDBLK
  5
4C6
100
AcDbEntity
  8
0
100
AcDbBlockEnd
  0
BLOCK
  5
4C7
100
AcDbEntity
  8
Detail
100
AcDbBlockBegin
  2
B-48
 70
    66
 10
0.000000
 20
0.000000
 30
0.000000
  0
LWPOLYLINE
  5
4C8
100
AcDbEntity
  8
Detail
  6
CONTINUOUS
 62
     6
100
AcDbPolyline
 90
     2
 10
237.500023
 20
-246.249941
 42
0.000000
 10
-237.500018
 20
-246.249941
 42
0.000000
  0
ENDBLK
  5
4CB
100
AcDbEntity
  8
0
100
AcDbBlockEnd
  0
BLOCK
  5
4CC
100
AcDbEntity
  8
Detail
100
AcDbBlockBegin
  2
B-49
 70
    66
 10
0.000000
 20
0.000000
 30
0.000000
  0
MTEXT
  5
4CD
100
AcDbEntity
  8
Detail
 62
     7
100
AcDbMText
 10
-210.625002
 20
-252.656391
 30
0.000000
 40
5.625000
 41
103.950000
 71
     1
 72
     5
  1
System:	WDVS mit Putz
  7
Arial
 50
0.000000
  0
ENDBLK
  5
4CE
100
AcDbEntity
  8
0
100
AcDbBlockEnd
  0
BLOCK
  5
4CF
100
AcDbEntity
  8
Detail
100
AcDbBlockBegin
  2
B-50
 70
    66
 10
0.000000
 20
0.000000
 30
0.000000
  0
MTEXT
  5
4D0
100
AcDbEntity
  8
Detail
 62
     7
100
AcDbMText
 10
-210.625002
 20
-290.156391
 30
0.000000
 40
5.625000
 41
56.463750
 71
     1
 72
     5
  1
Detail:	Brüstung
  7
Arial
 50
0.000000
  0
ENDBLK
  5
4D1
100
AcDbEntity
  8
0
100
AcDbBlockEnd
  0
BLOCK
  5
4D2
100
AcDbEntity
  8
Detail
100
AcDbBlockBegin
  2
B-51
 70
    66
 10
0.000000
 20
0.000000
 30
0.000000
  0
MTEXT
  5
4D3
100
AcDbEntity
  8
Detail
 62
     7
100
AcDbMText
 10
6.314834
 20
-252.500141
 30
0.000000
 40
5.000000
 41
114.712500
 71
     1
 72
     5
  1
Plannummer:		105-1010
  7
Arial
 50
0.000000
  0
ENDBLK
  5
4D4
100
AcDbEntity
  8
0
100
AcDbBlockEnd
  0
BLOCK
  5
4D5
100
AcDbEntity
  8
Detail
100
AcDbBlockBegin
  2
B-52
 70
    66
 10
0.000000
 20
0.000000
 30
0.000000
  0
MTEXT
  5
4D6
100
AcDbEntity
  8
Detail
 62
     7
100
AcDbMText
 10
6.314834
 20
-277.500141
 30
0.000000
 40
5.000000
 41
91.035000
 71
     1
 72
     5
  1
Massstab:		ca. 1:2,5
  7
Arial
 50
0.000000
  0
ENDBLK
  5
4D7
100
AcDbEntity
  8
0
100
AcDbBlockEnd
  0
BLOCK
  5
4D8
100
AcDbEntity
  8
Detail
100
AcDbBlockBegin
  2
B-53
 70
    66
 10
0.000000
 20
0.000000
 30
0.000000
  0
MTEXT
  5
4D9
100
AcDbEntity
  8
Detail
 62
     7
100
AcDbMText
 10
6.314834
 20
-302.500141
 30
0.000000
 40
5.000000
 41
99.435000
 71
     1
 72
     5
  1
Aktualisierung:	14.07.2016
  7
Arial
 50
0.000000
  0
ENDBLK
  5
4DA
100
AcDbEntity
  8
0
100
AcDbBlockEnd
  0
BLOCK
  5
4DB
100
AcDbEntity
  8
Detail
100
AcDbBlockBegin
  2
B-54
 70
    66
 10
0.000000
 20
0.000000
 30
0.000000
  0
LWPOLYLINE
  5
4DC
100
AcDbEntity
  8
Detail
  6
CONTINUOUS
 62
     6
100
AcDbPolyline
 90
     2
 10
-20.560166
 20
-321.249941
 42
0.000000
 10
-20.560166
 20
-246.249941
 42
0.000000
  0
LWPOLYLINE
  5
4DF
100
AcDbEntity
  8
Detail
  6
CONTINUOUS
 62
     6
100
AcDbPolyline
 90
     2
 10
-237.500018
 20
-321.249941
 42
0.000000
 10
120.969928
 20
-321.249941
 42
0.000000
  0
LWPOLYLINE
  5
4E2
100
AcDbEntity
  8
Detail
  6
CONTINUOUS
 62
     6
100
AcDbPolyline
 90
     2
 10
-20.560166
 20
-271.249941
 42
0.000000
 10
120.969928
 20
-271.249941
 42
0.000000
  0
LWPOLYLINE
  5
4E5
100
AcDbEntity
  8
Detail
  6
CONTINUOUS
 62
     6
100
AcDbPolyline
 90
     2
 10
-20.560166
 20
-296.249941
 42
0.000000
 10
120.969928
 20
-296.249941
 42
0.000000
  0
ENDBLK
  5
4E8
100
AcDbEntity
  8
0
100
AcDbBlockEnd
  0
BLOCK
  5
4E9
100
AcDbEntity
  8
Detail
100
AcDbBlockBegin
  2
B-55
 70
    66
 10
0.000000
 20
0.000000
 30
0.000000
  0
MTEXT
  5
4EA
100
AcDbEntity
  8
Detail
 62
     7
100
AcDbMText
 10
-210.625009
 20
-332.500113
 30
0.000000
 40
4.999978
 41
58.117221
 71
     7
 72
     5
  1
DAW Schweiz AG
  7
Arial
 50
0.000000
  0
MTEXT
  5
4EB
100
AcDbEntity
  8
Detail
 62
     7
100
AcDbMText
 10
-210.625009
 20
-340.000079
 30
0.000000
 40
4.999978
 41
108.149481
 71
     7
 72
     5
  1
Gewerbestrasse 6, 8606 Nänikon
  7
Arial
 50
0.000000
  0
ENDBLK
  5
4EC
100
AcDbEntity
  8
0
100
AcDbBlockEnd
  0
BLOCK
  5
4ED
100
AcDbEntity
  8
Detail
100
AcDbBlockBegin
  2
B-56
 70
    66
 10
0.000000
 20
0.000000
 30
0.000000
  0
LWPOLYLINE
  5
4EE
100
AcDbEntity
  8
Detail
  6
CONTINUOUS
 62
     6
100
AcDbPolyline
 90
     2
 10
-20.560166
 20
-283.749941
 42
0.000000
 10
-237.500018
 20
-283.749941
 42
0.000000
  0
ENDBLK
  5
4F1
100
AcDbEntity
  8
0
100
AcDbBlockEnd
  0
BLOCK
  5
4F2
100
AcDbEntity
  8
Detail
100
AcDbBlockBegin
  2
B-57
 70
    66
 10
0.000000
 20
0.000000
 30
0.000000
  0
MTEXT
  5
4F3
100
AcDbEntity
  8
Detail
 62
     7
100
AcDbMText
 10
-85.625027
 20
-332.500110
 30
0.000000
 40
4.999975
 41
72.134639
 71
     7
 72
     5
  1
Telefon 043 399 42 22
  7
Arial
 50
0.000000
  0
MTEXT
  5
4F4
100
AcDbEntity
  8
Detail
 62
     7
100
AcDbMText
 10
-85.625027
 20
-340.000072
 30
0.000000
 40
4.999975
 41
71.767141
 71
     7
 72
     5
  1
Telefax 043 399 42 23
  7
Arial
 50
0.000000
  0
ENDBLK
  5
4F5
100
AcDbEntity
  8
0
100
AcDbBlockEnd
  0
BLOCK
  5
4F6
100
AcDbEntity
  8
Detail
100
AcDbBlockBegin
  2
B-58
 70
    66
 10
0.000000
 20
0.000000
 30
0.000000
  0
MTEXT
  5
4F7
100
AcDbEntity
  8
Detail
 62
     7
100
AcDbMText
 10
39.374974
 20
-332.500110
 30
0.000000
 40
4.999975
 41
51.922240
 71
     7
 72
     5
  1
info@daw.swiss
  7
Arial
 50
0.000000
  0
MTEXT
  5
4F8
100
AcDbEntity
  8
Detail
 62
     7
100
AcDbMText
 10
39.374974
 20
-340.000072
 30
0.000000
 40
4.999975
 41
54.599727
 71
     7
 72
     5
  1
www.capatect.ch
  7
Arial
 50
0.000000
  0
ENDBLK
  5
4F9
100
AcDbEntity
  8
0
100
AcDbBlockEnd
  0
BLOCK
  5
4FA
100
AcDbEntity
  8
Detail
100
AcDbBlockBegin
  2
B-59
 70
    66
 10
0.000000
 20
0.000000
 30
0.000000
  0
LWPOLYLINE
  5
4FB
100
AcDbEntity
  8
Detail
  6
CONTINUOUS
 62
     6
100
AcDbPolyline
 90
     2
 10
120.969928
 20
-346.249941
 42
0.000000
 10
120.969928
 20
-246.249941
 42
0.000000
  0
ENDBLK
  5
4FE
100
AcDbEntity
  8
0
100
AcDbBlockEnd
  0
BLOCK
  5
4FF
100
AcDbEntity
  8
Detail
100
AcDbBlockBegin
  2
B-60
 70
    66
 10
0.000000
 20
0.000000
 30
0.000000
  0
LWPOLYLINE
  5
500
100
AcDbEntity
  8
Detail
  6
CONTINUOUS
 62
     6
100
AcDbPolyline
 90
     5
 10
-237.500018
 20
-346.249941
 42
0.000000
 10
237.500023
 20
-346.249941
 42
0.000000
 10
237.500023
 20
346.250078
 42
0.000000
 10
-237.500018
 20
346.250078
 42
0.000000
 10
-237.500018
 20
-346.249941
 42
0.000000
  0
ENDBLK
  5
506
100
AcDbEntity
  8
0
100
AcDbBlockEnd
  0
BLOCK
  5
507
100
AcDbEntity
  8
Detail
100
AcDbBlockBegin
  2
B-61
 70
    66
 10
0.000000
 20
0.000000
 30
0.000000
  0
LWPOLYLINE
  5
508
100
AcDbEntity
  8
Detail
  6
CONTINUOUS
 62
     3
100
AcDbPolyline
 90
     8
 10
-77.500018
 20
-196.249941
 42
0.000000
 10
-77.500018
 20
155.408114
 42
0.000000
 10
2.499982
 20
147.408114
 42
0.000000
 10
2.499982
 20
15.250078
 42
0.000000
 10
-17.514215
 20
15.250078
 42
0.000000
 10
-17.514215
 20
-44.749922
 42
0.000000
 10
2.499982
 20
-44.749922
 42
0.000000
 10
2.499982
 20
-196.249941
 42
0.000000
  0
ENDBLK
  5
511
100
AcDbEntity
  8
0
100
AcDbBlockEnd
  0
BLOCK
  5
512
100
AcDbEntity
  8
SCHRAFF
100
AcDbBlockBegin
  2
B-62
 70
    66
 10
0.000000
 20
0.000000
 30
0.000000
  0
HATCH
  5
513
100
AcDbEntity
  8
SCHRAFF
 62
   250
440
     0
100
AcDbHatch
 10
0.000000
 20
0.000000
 30
0.000000
210
0.000000
220
0.000000
230
1.000000
  2
SOLID
 70
     1
 71
     1
 91
     1
 92
    18
 72
     1
 73
     0
 93
     7
 10
-77.500018
 20
28.262867
 42
0.000000
 10
-77.500018
 20
155.408114
 42
0.000000
 10
-27.748222
 20
150.432295
 42
0.000000
 10
-27.748222
 20
155.457873
 42
0.000000
 10
-82.500018
 20
160.933052
 42
0.000000
 10
-82.500018
 20
28.262867
 42
0.000000
 10
-77.500018
 20
28.262867
 42
0.000000
 97
     0
 75
     0
 76
     1
 98
     0
  0
ENDBLK
  5
514
100
AcDbEntity
  8
0
100
AcDbBlockEnd
  0
BLOCK
  5
515
100
AcDbEntity
  8
Stahlbau
100
AcDbBlockBegin
  2
B-63
 70
    66
 10
0.000000
 20
0.000000
 30
0.000000
  0
LWPOLYLINE
  5
516
100
AcDbEntity
  8
Stahlbau
  6
CONTINUOUS
 62
     4
100
AcDbPolyline
 90
     7
 10
-77.500018
 20
28.262867
 42
0.000000
 10
-77.500018
 20
155.408114
 42
0.000000
 10
-27.748222
 20
150.432295
 42
0.000000
 10
-27.748222
 20
155.457873
 42
0.000000
 10
-82.500018
 20
160.933052
 42
0.000000
 10
-82.500018
 20
28.262867
 42
0.000000
 10
-77.500018
 20
28.262867
 42
0.000000
  0
ENDBLK
  5
51E
100
AcDbEntity
  8
0
100
AcDbBlockEnd
  0
BLOCK
  5
51F
100
AcDbEntity
  8
Detail
100
AcDbBlockBegin
  2
B-64
 70
    66
 10
0.000000
 20
0.000000
 30
0.000000
  0
LWPOLYLINE
  5
520
100
AcDbEntity
  8
Detail
  6
CONTINUOUS
 62
     2
100
AcDbPolyline
 90
     3
 10
-82.500018
 20
-196.249941
 42
0.000000
 10
-82.500018
 20
125.250078
 42
0.000000
 10
-212.500018
 20
125.250078
 42
0.000000
  0
ENDBLK
  5
524
100
AcDbEntity
  8
0
100
AcDbBlockEnd
  0
BLOCK
  5
525
100
AcDbEntity
  8
SCHRAFF
100
AcDbBlockBegin
  2
B-65
 70
    66
 10
0.000000
 20
0.000000
 30
0.000000
  0
HATCH
  5
526
100
AcDbEntity
  8
SCHRAFF
 62
     7
440
     0
100
AcDbHatch
 10
0.000000
 20
0.000000
 30
0.000000
210
0.000000
220
0.000000
230
1.000000
  2
SOLID
 70
     1
 71
     1
 91
     1
 92
    18
 72
     1
 73
     0
 93
     3
 10
-79.500018
 20
135.250078
 42
1.000000
 10
-80.500018
 20
135.250078
 42
1.000000
 10
-79.500018
 20
135.250078
 42
0.000000
 97
     0
 75
     0
 76
     1
 98
     0
  0
ENDBLK
  5
527
100
AcDbEntity
  8
0
100
AcDbBlockEnd
  0
BLOCK
  5
528
100
AcDbEntity
  8
Detail
100
AcDbBlockBegin
  2
B-66
 70
    66
 10
0.000000
 20
0.000000
 30
0.000000
  0
CIRCLE
  5
529
100
AcDbEntity
  8
Detail
  6
CONTINUOUS
 62
     7
100
AcDbCircle
 10
-80.000018
 20
135.250078
 40
0.500000
  0
ENDBLK
  5
52A
100
AcDbEntity
  8
0
100
AcDbBlockEnd
  0
BLOCK
  5
52B
100
AcDbEntity
  8
Detail
100
AcDbBlockBegin
  2
B-67
 70
    66
 10
0.000000
 20
0.000000
 30
0.000000
  0
LWPOLYLINE
  5
52C
100
AcDbEntity
  8
Detail
  6
CONTINUOUS
 62
     7
100
AcDbPolyline
 90
     2
 10
77.500023
 20
135.250078
 42
0.000000
 10
-80.000018
 20
135.250078
 42
0.000000
  0
ENDBLK
  5
52F
100
AcDbEntity
  8
0
100
AcDbBlockEnd
  0
BLOCK
  5
530
100
AcDbEntity
  8
Detail
100
AcDbBlockBegin
  2
B-68
 70
    66
 10
0.000000
 20
0.000000
 30
0.000000
  0
LWPOLYLINE
  5
531
100
AcDbEntity
  8
Detail
  6
CONTINUOUS
 62
     9
100
AcDbPolyline
 90
     2
 10
-46.014215
 20
-7.749922
 42
0.000000
 10
-46.014215
 20
-21.729335
 42
0.000000
  0
LWPOLYLINE
  5
534
100
AcDbEntity
  8
Detail
  6
CONTINUOUS
 62
     9
100
AcDbPolyline
 90
    83
 10
-17.514215
 20
-44.749922
 42
0.000000
 10
-17.014215
 20
-44.749922
 42
0.000000
 10
-16.014215
 20
-39.749922
 42
0.000000
 10
-16.014215
 20
10.250078
 42
0.000000
 10
-17.014215
 20
15.250078
 42
0.000000
 10
-17.514215
 20
15.250078
 42
0.000000
 10
-17.514215
 20
-1.749922
 42
0.000000
 10
-18.764215
 20
-5.499922
 42
0.000000
 10
-22.514215
 20
-6.749922
 42
0.000000
 10
-46.014215
 20
-7.749922
 42
0.000000
 10
-52.014215
 20
-10.249922
 42
0.000000
 10
-94.476412
 20
-10.789922
 42
0.000000
 10
-95.842355
 20
-11.036931
 42
0.000000
 10
-95.918108
 20
-10.789922
 42
0.000000
 10
-98.700412
 20
-10.789922
 42
0.000000
 10
-100.066355
 20
-11.036931
 42
0.000000
 10
-100.142108
 20
-10.789922
 42
0.000000
 10
-102.924412
 20
-10.789922
 42
0.000000
 10
-104.290355
 20
-11.036931
 42
0.000000
 10
-104.366024
 20
-10.794722
 42
0.000000
 10
-107.148412
 20
-10.789922
 42
0.000000
 10
-108.514355
 20
-11.036931
 42
0.000000
 10
-108.590108
 20
-10.789922
 42
0.000000
 10
-111.372412
 20
-10.789922
 42
0.000000
 10
-112.738355
 20
-11.036931
 42
0.000000
 10
-112.814108
 20
-10.789922
 42
0.000000
 10
-115.596412
 20
-10.789922
 42
0.000000
 10
-116.962355
 20
-11.036931
 42
0.000000
 10
-117.038108
 20
-10.789922
 42
0.000000
 10
-119.820412
 20
-10.789922
 42
0.000000
 10
-121.186355
 20
-11.036931
 42
0.000000
 10
-121.262108
 20
-10.789922
 42
0.000000
 10
-124.044412
 20
-10.789922
 42
0.000000
 10
-125.410355
 20
-11.036931
 42
0.000000
 10
-125.486108
 20
-10.789922
 42
0.000000
 10
-128.268412
 20
-10.789922
 42
0.000000
 10
-129.472568
 20
-11.072354
 42
0.000000
 10
-129.931551
 20
-10.909923
 42
0.000000
 10
-130.908412
 20
-11.344178
 42
0.000000
 10
-131.148412
 20
-11.869922
 42
0.000000
 10
-131.916412
 20
-11.869922
 42
0.000000
 10
-133.434305
 20
-12.410890
 42
0.000000
 10
-134.267922
 20
-13.789922
 42
0.000000
 10
-136.014215
 20
-14.749922
 42
0.000000
 10
-134.267922
 20
-15.709922
 42
0.000000
 10
-133.434305
 20
-17.088954
 42
0.000000
 10
-132.171611
 20
-17.616315
 42
0.000000
 10
-131.148412
 20
-17.629922
 42
0.000000
 10
-130.908412
 20
-18.155666
 42
0.000000
 10
-130.156256
 20
-18.589922
 42
0.000000
 10
-129.706843
 20
-18.589922
 42
0.000000
 10
-129.472568
 20
-18.427490
 42
0.000000
 10
-128.268412
 20
-18.709922
 42
0.000000
 10
-125.486108
 20
-18.709922
 42
0.000000
 10
-125.410355
 20
-18.462913
 42
0.000000
 10
-124.044412
 20
-18.709922
 42
0.000000
 10
-121.262108
 20
-18.709922
 42
0.000000
 10
-121.186355
 20
-18.462913
 42
0.000000
 10
-119.820412
 20
-18.709922
 42
0.000000
 10
-117.038108
 20
-18.709922
 42
0.000000
 10
-116.962355
 20
-18.462913
 42
0.000000
 10
-115.596412
 20
-18.709922
 42
0.000000
 10
-112.814108
 20
-18.709922
 42
0.000000
 10
-112.738355
 20
-18.462913
 42
0.000000
 10
-111.372412
 20
-18.709922
 42
0.000000
 10
-108.590108
 20
-18.709922
 42
0.000000
 10
-108.514355
 20
-18.462913
 42
0.000000
 10
-107.148412
 20
-18.709922
 42
0.000000
 10
-104.366024
 20
-18.705122
 42
0.000000
 10
-104.290355
 20
-18.462913
 42
0.000000
 10
-102.924412
 20
-18.709922
 42
0.000000
 10
-100.142108
 20
-18.709922
 42
0.000000
 10
-100.066355
 20
-18.462913
 42
0.000000
 10
-98.700412
 20
-18.709922
 42
0.000000
 10
-95.918108
 20
-18.709922
 42
0.000000
 10
-95.842355
 20
-18.462913
 42
0.000000
 10
-94.476412
 20
-18.709922
 42
0.000000
 10
-52.014215
 20
-19.249922
 42
0.000000
 10
-46.014215
 20
-21.749922
 42
0.000000
 10
-22.514215
 20
-22.749922
 42
0.000000
 10
-18.764215
 20
-23.999922
 42
0.000000
 10
-17.514215
 20
-27.749922
 42
0.000000
 10
-17.514215
 20
-44.749922
 42
0.000000
  0
LWPOLYLINE
  5
588
100
AcDbEntity
  8
Detail
  6
CONTINUOUS
 62
     9
100
AcDbPolyline
 90
   203
 10
-136.014215
 20
-14.749922
 42
0.000000
 10
-133.901139
 20
-13.874657
 42
0.000000
 10
-133.399564
 20
-13.005904
 42
0.000000
 10
-133.010889
 20
-13.505904
 42
0.000000
 10
-131.930552
 20
-13.058413
 42
0.000000
 10
-131.428977
 20
-12.189659
 42
0.000000
 10
-131.040302
 20
-12.689659
 42
0.000000
 10
-130.461525
 20
-12.449922
 42
0.000000
 10
-129.860486
 20
-12.449922
 42
0.000000
 10
-129.571811
 20
-11.949922
 42
0.000000
 10
-129.183136
 20
-12.449922
 42
0.000000
 10
-128.050486
 20
-12.449922
 42
0.000000
 10
-127.761811
 20
-11.949922
 42
0.000000
 10
-127.373136
 20
-12.449922
 42
0.000000
 10
-126.240486
 20
-12.449922
 42
0.000000
 10
-125.951811
 20
-11.949922
 42
0.000000
 10
-125.563136
 20
-12.449922
 42
0.000000
 10
-124.430486
 20
-12.449922
 42
0.000000
 10
-124.141811
 20
-11.949922
 42
0.000000
 10
-123.753136
 20
-12.449922
 42
0.000000
 10
-122.620486
 20
-12.449922
 42
0.000000
 10
-122.331811
 20
-11.949922
 42
0.000000
 10
-121.943136
 20
-12.449922
 42
0.000000
 10
-120.810486
 20
-12.449922
 42
0.000000
 10
-120.521811
 20
-11.949922
 42
0.000000
 10
-120.133136
 20
-12.449922
 42
0.000000
 10
-119.000486
 20
-12.449922
 42
0.000000
 10
-118.711811
 20
-11.949922
 42
0.000000
 10
-118.323136
 20
-12.449922
 42
0.000000
 10
-117.190486
 20
-12.449922
 42
0.000000
 10
-116.901811
 20
-11.949922
 42
0.000000
 10
-116.513136
 20
-12.449922
 42
0.000000
 10
-115.380486
 20
-12.449922
 42
0.000000
 10
-115.091811
 20
-11.949922
 42
0.000000
 10
-114.703136
 20
-12.449922
 42
0.000000
 10
-113.570486
 20
-12.449922
 42
0.000000
 10
-113.281811
 20
-11.949922
 42
0.000000
 10
-112.893136
 20
-12.449922
 42
0.000000
 10
-111.760486
 20
-12.449922
 42
0.000000
 10
-111.471811
 20
-11.949922
 42
0.000000
 10
-111.083136
 20
-12.449922
 42
0.000000
 10
-109.950486
 20
-12.449922
 42
0.000000
 10
-109.661811
 20
-11.949922
 42
0.000000
 10
-109.273136
 20
-12.449922
 42
0.000000
 10
-108.140486
 20
-12.449922
 42
0.000000
 10
-107.851811
 20
-11.949922
 42
0.000000
 10
-107.463136
 20
-12.449922
 42
0.000000
 10
-106.330486
 20
-12.449922
 42
0.000000
 10
-106.041811
 20
-11.949922
 42
0.000000
 10
-105.653136
 20
-12.449922
 42
0.000000
 10
-104.520486
 20
-12.449922
 42
0.000000
 10
-104.231811
 20
-11.949922
 42
0.000000
 10
-103.843136
 20
-12.449922
 42
0.000000
 10
-102.710486
 20
-12.449922
 42
0.000000
 10
-102.421811
 20
-11.949922
 42
0.000000
 10
-102.033136
 20
-12.449922
 42
0.000000
 10
-100.900486
 20
-12.449922
 42
0.000000
 10
-100.611811
 20
-11.949922
 42
0.000000
 10
-100.200622
 20
-12.449922
 42
0.000000
 10
-99.090486
 20
-12.449922
 42
0.000000
 10
-98.801811
 20
-11.949922
 42
0.000000
 10
-98.413136
 20
-12.449922
 42
0.000000
 10
-97.280486
 20
-12.449922
 42
0.000000
 10
-96.991811
 20
-11.949922
 42
0.000000
 10
-96.603136
 20
-12.449922
 42
0.000000
 10
-95.470486
 20
-12.449922
 42
0.000000
 10
-95.181811
 20
-11.949922
 42
0.000000
 10
-94.793136
 20
-12.449922
 42
0.000000
 10
-93.660486
 20
-12.449922
 42
0.000000
 10
-93.371811
 20
-11.949922
 42
0.000000
 10
-92.983136
 20
-12.449922
 42
0.000000
 10
-91.850486
 20
-12.449922
 42
0.000000
 10
-91.561811
 20
-11.949922
 42
0.000000
 10
-91.173136
 20
-12.449922
 42
0.000000
 10
-90.040486
 20
-12.449922
 42
0.000000
 10
-89.751811
 20
-11.949922
 42
0.000000
 10
-89.363136
 20
-12.449922
 42
0.000000
 10
-88.230486
 20
-12.449922
 42
0.000000
 10
-87.941811
 20
-11.949922
 42
0.000000
 10
-87.553136
 20
-12.449922
 42
0.000000
 10
-86.420486
 20
-12.449922
 42
0.000000
 10
-86.131811
 20
-11.949922
 42
0.000000
 10
-85.743136
 20
-12.449922
 42
0.000000
 10
-84.610486
 20
-12.449922
 42
0.000000
 10
-84.321811
 20
-11.949922
 42
0.000000
 10
-83.933136
 20
-12.449922
 42
0.000000
 10
-82.800486
 20
-12.449922
 42
0.000000
 10
-82.511811
 20
-11.949922
 42
0.000000
 10
-82.123136
 20
-12.449922
 42
0.000000
 10
-80.990486
 20
-12.449922
 42
0.000000
 10
-80.701811
 20
-11.949922
 42
0.000000
 10
-80.313136
 20
-12.449922
 42
0.000000
 10
-79.180486
 20
-12.449922
 42
0.000000
 10
-78.891811
 20
-11.949922
 42
0.000000
 10
-78.503136
 20
-12.449922
 42
0.000000
 10
-77.370486
 20
-12.449922
 42
0.000000
 10
-77.081811
 20
-11.949922
 42
0.000000
 10
-76.693136
 20
-12.449922
 42
0.000000
 10
-76.014215
 20
-12.449922
 42
0.000000
 10
-75.841010
 20
-12.349922
 42
0.000000
 10
-52.014215
 20
-10.249922
 42
0.000000
 10
-52.014215
 20
-19.249922
 42
0.000000
 10
-75.841010
 20
-17.149922
 42
0.000000
 10
-76.014215
 20
-17.049922
 42
0.000000
 10
-76.176811
 20
-17.549922
 42
0.000000
 10
-76.465486
 20
-17.049922
 42
0.000000
 10
-77.598136
 20
-17.049922
 42
0.000000
 10
-77.986811
 20
-17.549922
 42
0.000000
 10
-78.275486
 20
-17.049922
 42
0.000000
 10
-79.408136
 20
-17.049922
 42
0.000000
 10
-79.796811
 20
-17.549922
 42
0.000000
 10
-80.085486
 20
-17.049922
 42
0.000000
 10
-81.218136
 20
-17.049922
 42
0.000000
 10
-81.606811
 20
-17.549922
 42
0.000000
 10
-81.895486
 20
-17.049922
 42
0.000000
 10
-83.028136
 20
-17.049922
 42
0.000000
 10
-83.416811
 20
-17.549922
 42
0.000000
 10
-83.705486
 20
-17.049922
 42
0.000000
 10
-84.838136
 20
-17.049922
 42
0.000000
 10
-85.226811
 20
-17.549922
 42
0.000000
 10
-85.515486
 20
-17.049922
 42
0.000000
 10
-86.648136
 20
-17.049922
 42
0.000000
 10
-87.036811
 20
-17.549922
 42
0.000000
 10
-87.325486
 20
-17.049922
 42
0.000000
 10
-88.458136
 20
-17.049922
 42
0.000000
 10
-88.846811
 20
-17.549922
 42
0.000000
 10
-89.135486
 20
-17.049922
 42
0.000000
 10
-90.268136
 20
-17.049922
 42
0.000000
 10
-90.656811
 20
-17.549922
 42
0.000000
 10
-90.945486
 20
-17.049922
 42
0.000000
 10
-92.078136
 20
-17.049922
 42
0.000000
 10
-92.466811
 20
-17.549922
 42
0.000000
 10
-92.755486
 20
-17.049922
 42
0.000000
 10
-93.888136
 20
-17.049922
 42
0.000000
 10
-94.276811
 20
-17.549922
 42
0.000000
 10
-94.565486
 20
-17.049922
 42
0.000000
 10
-95.698136
 20
-17.049922
 42
0.000000
 10
-96.086811
 20
-17.549922
 42
0.000000
 10
-96.375486
 20
-17.049922
 42
0.000000
 10
-97.508136
 20
-17.049922
 42
0.000000
 10
-97.896811
 20
-17.549922
 42
0.000000
 10
-98.185486
 20
-17.049922
 42
0.000000
 10
-99.318136
 20
-17.049922
 42
0.000000
 10
-99.706811
 20
-17.549922
 42
0.000000
 10
-99.995486
 20
-17.049922
 42
0.000000
 10
-101.128136
 20
-17.049922
 42
0.000000
 10
-101.516811
 20
-17.549922
 42
0.000000
 10
-101.805486
 20
-17.049922
 42
0.000000
 10
-102.938136
 20
-17.049922
 42
0.000000
 10
-103.326811
 20
-17.549922
 42
0.000000
 10
-103.615486
 20
-17.049922
 42
0.000000
 10
-104.748136
 20
-17.049922
 42
0.000000
 10
-105.136811
 20
-17.549922
 42
0.000000
 10
-105.425486
 20
-17.049922
 42
0.000000
 10
-106.558136
 20
-17.049922
 42
0.000000
 10
-106.946811
 20
-17.549922
 42
0.000000
 10
-107.235486
 20
-17.049922
 42
0.000000
 10
-108.368136
 20
-17.049922
 42
0.000000
 10
-108.756811
 20
-17.549922
 42
0.000000
 10
-109.045486
 20
-17.049922
 42
0.000000
 10
-110.178136
 20
-17.049922
 42
0.000000
 10
-110.566811
 20
-17.549922
 42
0.000000
 10
-110.855486
 20
-17.049922
 42
0.000000
 10
-111.988136
 20
-17.049922
 42
0.000000
 10
-112.376811
 20
-17.549922
 42
0.000000
 10
-112.665486
 20
-17.049922
 42
0.000000
 10
-113.798136
 20
-17.049922
 42
0.000000
 10
-114.186811
 20
-17.549922
 42
0.000000
 10
-114.475486
 20
-17.049922
 42
0.000000
 10
-115.608136
 20
-17.049922
 42
0.000000
 10
-115.996811
 20
-17.549922
 42
0.000000
 10
-116.285486
 20
-17.049922
 42
0.000000
 10
-117.418136
 20
-17.049922
 42
0.000000
 10
-117.806811
 20
-17.549922
 42
0.000000
 10
-118.095486
 20
-17.049922
 42
0.000000
 10
-119.228136
 20
-17.049922
 42
0.000000
 10
-119.616811
 20
-17.549922
 42
0.000000
 10
-119.905486
 20
-17.049922
 42
0.000000
 10
-121.038136
 20
-17.049922
 42
0.000000
 10
-121.426811
 20
-17.549922
 42
0.000000
 10
-121.715486
 20
-17.049922
 42
0.000000
 10
-122.848136
 20
-17.049922
 42
0.000000
 10
-123.236811
 20
-17.549922
 42
0.000000
 10
-123.525486
 20
-17.049922
 42
0.000000
 10
-124.658136
 20
-17.049922
 42
0.000000
 10
-125.046811
 20
-17.549922
 42
0.000000
 10
-125.335486
 20
-17.049922
 42
0.000000
 10
-126.468136
 20
-17.049922
 42
0.000000
 10
-126.856811
 20
-17.549922
 42
0.000000
 10
-127.145486
 20
-17.049922
 42
0.000000
 10
-128.278136
 20
-17.049922
 42
0.000000
 10
-128.666811
 20
-17.549922
 42
0.000000
 10
-128.955486
 20
-17.049922
 42
0.000000
 10
-130.088136
 20
-17.049922
 42
0.000000
 10
-130.476811
 20
-17.549922
 42
0.000000
 10
-130.861026
 20
-16.884443
 42
0.000000
 10
-131.789885
 20
-16.499697
 42
0.000000
 10
-132.178560
 20
-16.999697
 42
0.000000
 10
-132.680135
 20
-16.130943
 42
0.000000
 10
-133.463499
 20
-15.806463
 42
0.000000
 10
-133.852174
 20
-16.306463
 42
0.000000
 10
-134.353749
 20
-15.437709
 42
0.000000
 10
-136.014215
 20
-14.749922
 42
0.000000
  0
ENDBLK
  5
654
100
AcDbEntity
  8
0
100
AcDbBlockEnd
  0
BLOCK
  5
655
100
AcDbEntity
  8
Detail
100
AcDbBlockBegin
  2
B-70
 70
    66
 10
0.000000
 20
0.000000
 30
0.000000
  0
LWPOLYLINE
  5
656
100
AcDbEntity
  8
Detail
  6
CONTINUOUS
 62
     3
100
AcDbPolyline
 90
     5
 10
2.499982
 20
15.250078
 42
0.000000
 10
-17.514215
 20
15.250078
 42
0.000000
 10
-17.514215
 20
-44.749922
 42
0.000000
 10
2.499982
 20
-44.749922
 42
0.000000
 10
2.499982
 20
15.250078
 42
0.000000
  0
ENDBLK
  5
65C
100
AcDbEntity
  8
0
100
AcDbBlockEnd
  0
BLOCK
  5
65D
100
AcDbEntity
  8
Detail
100
AcDbBlockBegin
  2
B-71
 70
    66
 10
0.000000
 20
0.000000
 30
0.000000
  0
LWPOLYLINE
  5
65E
100
AcDbEntity
  8
Detail
  6
CONTINUOUS
 62
     6
100
AcDbPolyline
 90
   347
 10
6.499982
 20
149.760338
 42
0.000000
 10
8.499982
 20
148.423980
 42
0.000000
 10
8.499982
 20
147.424080
 42
0.000000
 10
7.999982
 20
146.424080
 42
0.000000
 10
8.499982
 20
145.424080
 42
0.000000
 10
8.499982
 20
144.424080
 42
0.000000
 10
8.999982
 20
143.424080
 42
0.000000
 10
8.499982
 20
142.424080
 42
0.000000
 10
8.499982
 20
141.424080
 42
0.000000
 10
7.999982
 20
140.424080
 42
0.000000
 10
8.499982
 20
139.424080
 42
0.000000
 10
8.499982
 20
138.424080
 42
0.000000
 10
8.999982
 20
137.424080
 42
0.000000
 10
8.499982
 20
136.416414
 42
0.000000
 10
8.499982
 20
135.424080
 42
0.000000
 10
7.999982
 20
134.424080
 42
0.000000
 10
8.499982
 20
133.424080
 42
0.000000
 10
8.499982
 20
132.424080
 42
0.000000
 10
8.999982
 20
131.424080
 42
0.000000
 10
8.499982
 20
130.424080
 42
0.000000
 10
8.499982
 20
129.424080
 42
0.000000
 10
7.999982
 20
128.424080
 42
0.000000
 10
8.499982
 20
127.424080
 42
0.000000
 10
8.499982
 20
126.424080
 42
0.000000
 10
8.999982
 20
125.424080
 42
0.000000
 10
8.499982
 20
124.424080
 42
0.000000
 10
8.499982
 20
123.424080
 42
0.000000
 10
7.999982
 20
122.424080
 42
0.000000
 10
8.499982
 20
121.424080
 42
0.000000
 10
8.499982
 20
120.424080
 42
0.000000
 10
8.999982
 20
119.424080
 42
0.000000
 10
8.499982
 20
118.424080
 42
0.000000
 10
8.499982
 20
117.424080
 42
0.000000
 10
7.999982
 20
116.424080
 42
0.000000
 10
8.499982
 20
115.424080
 42
0.000000
 10
8.499982
 20
114.424080
 42
0.000000
 10
8.999982
 20
113.424080
 42
0.000000
 10
8.499982
 20
112.424080
 42
0.000000
 10
8.499982
 20
111.424080
 42
0.000000
 10
7.999982
 20
110.424080
 42
0.000000
 10
8.499982
 20
109.424080
 42
0.000000
 10
8.499982
 20
108.424080
 42
0.000000
 10
8.999982
 20
107.424080
 42
0.000000
 10
8.499982
 20
106.424080
 42
0.000000
 10
8.499982
 20
105.424080
 42
0.000000
 10
7.999982
 20
104.424080
 42
0.000000
 10
8.499982
 20
103.424080
 42
0.000000
 10
8.499982
 20
102.424080
 42
0.000000
 10
8.999982
 20
101.424080
 42
0.000000
 10
8.499982
 20
100.416414
 42
0.000000
 10
8.499982
 20
99.424080
 42
0.000000
 10
7.999982
 20
98.424080
 42
0.000000
 10
8.499982
 20
97.424080
 42
0.000000
 10
8.499982
 20
96.424080
 42
0.000000
 10
8.999982
 20
95.424080
 42
0.000000
 10
8.499982
 20
94.424080
 42
0.000000
 10
8.499982
 20
93.424080
 42
0.000000
 10
7.999982
 20
92.424080
 42
0.000000
 10
8.499982
 20
91.424080
 42
0.000000
 10
8.499982
 20
90.424080
 42
0.000000
 10
8.999982
 20
89.424080
 42
0.000000
 10
8.499982
 20
88.424080
 42
0.000000
 10
8.499982
 20
87.424080
 42
0.000000
 10
7.999982
 20
86.424080
 42
0.000000
 10
8.499982
 20
85.424080
 42
0.000000
 10
8.499982
 20
84.424080
 42
0.000000
 10
8.999982
 20
83.424080
 42
0.000000
 10
8.499982
 20
82.424080
 42
0.000000
 10
8.499982
 20
81.424080
 42
0.000000
 10
7.999982
 20
80.424080
 42
0.000000
 10
8.499982
 20
79.424080
 42
0.000000
 10
8.499982
 20
78.424080
 42
0.000000
 10
8.999982
 20
77.424080
 42
0.000000
 10
8.499982
 20
76.424080
 42
0.000000
 10
8.499982
 20
75.424080
 42
0.000000
 10
7.999982
 20
74.424080
 42
0.000000
 10
8.499982
 20
73.424080
 42
0.000000
 10
8.499982
 20
72.424080
 42
0.000000
 10
8.999982
 20
71.424080
 42
0.000000
 10
8.499982
 20
70.424080
 42
0.000000
 10
8.499982
 20
69.424080
 42
0.000000
 10
7.999982
 20
68.424080
 42
0.000000
 10
8.499982
 20
67.424080
 42
0.000000
 10
8.499982
 20
66.424080
 42
0.000000
 10
8.999982
 20
65.424080
 42
0.000000
 10
8.499982
 20
64.424080
 42
0.000000
 10
8.499982
 20
63.424080
 42
0.000000
 10
7.999982
 20
62.424080
 42
0.000000
 10
8.499982
 20
61.424080
 42
0.000000
 10
8.499982
 20
60.424080
 42
0.000000
 10
8.999982
 20
59.424080
 42
0.000000
 10
8.499982
 20
58.424080
 42
0.000000
 10
8.499982
 20
57.424080
 42
0.000000
 10
7.999982
 20
56.424080
 42
0.000000
 10
8.499982
 20
55.424080
 42
0.000000
 10
8.499982
 20
54.424080
 42
0.000000
 10
8.999982
 20
53.424080
 42
0.000000
 10
8.499982
 20
52.424080
 42
0.000000
 10
8.499982
 20
51.424080
 42
0.000000
 10
7.999982
 20
50.424080
 42
0.000000
 10
8.499982
 20
49.424080
 42
0.000000
 10
8.499982
 20
48.424080
 42
0.000000
 10
8.999982
 20
47.424080
 42
0.000000
 10
8.499982
 20
46.424080
 42
0.000000
 10
8.499982
 20
45.424080
 42
0.000000
 10
7.999982
 20
44.424080
 42
0.000000
 10
8.499982
 20
43.424080
 42
0.000000
 10
8.499982
 20
42.424080
 42
0.000000
 10
8.999982
 20
41.424080
 42
0.000000
 10
8.499982
 20
40.424080
 42
0.000000
 10
8.499982
 20
39.424080
 42
0.000000
 10
7.999982
 20
38.424080
 42
0.000000
 10
8.499982
 20
37.424080
 42
0.000000
 10
8.499982
 20
36.424080
 42
0.000000
 10
8.999982
 20
35.424080
 42
0.000000
 10
8.499982
 20
34.424080
 42
0.000000
 10
8.499982
 20
33.424080
 42
0.000000
 10
7.999982
 20
32.424080
 42
0.000000
 10
8.499982
 20
31.424080
 42
0.000000
 10
8.499982
 20
30.424080
 42
0.000000
 10
8.999982
 20
29.424080
 42
0.000000
 10
8.499982
 20
28.424080
 42
0.000000
 10
8.499982
 20
27.424080
 42
0.000000
 10
7.999982
 20
26.424080
 42
0.000000
 10
8.499982
 20
25.424080
 42
0.000000
 10
8.504380
 20
24.415284
 42
0.000000
 10
8.999982
 20
23.424080
 42
0.000000
 10
8.499982
 20
22.424080
 42
0.000000
 10
8.499982
 20
21.424080
 42
0.000000
 10
7.999982
 20
20.424080
 42
0.000000
 10
8.499982
 20
19.424080
 42
0.000000
 10
8.499982
 20
18.424080
 42
0.000000
 10
8.999982
 20
17.424080
 42
0.000000
 10
8.499982
 20
16.424080
 42
0.000000
 10
8.499982
 20
15.424080
 42
0.000000
 10
7.999982
 20
14.424080
 42
0.000000
 10
8.499982
 20
13.424080
 42
0.000000
 10
8.499982
 20
12.424080
 42
0.000000
 10
8.999982
 20
11.424080
 42
0.000000
 10
8.499982
 20
10.424080
 42
0.000000
 10
8.499982
 20
9.424080
 42
0.000000
 10
7.999982
 20
8.424080
 42
0.000000
 10
8.499982
 20
7.424080
 42
0.000000
 10
8.499982
 20
6.424080
 42
0.000000
 10
8.999982
 20
5.424080
 42
0.000000
 10
8.499982
 20
4.424080
 42
0.000000
 10
8.499982
 20
3.424080
 42
0.000000
 10
7.999982
 20
2.424080
 42
0.000000
 10
8.499982
 20
1.424080
 42
0.000000
 10
8.499982
 20
0.424080
 42
0.000000
 10
8.999982
 20
-0.575920
 42
0.000000
 10
8.499982
 20
-1.575920
 42
0.000000
 10
8.499982
 20
-2.575920
 42
0.000000
 10
7.999982
 20
-3.575920
 42
0.000000
 10
8.499982
 20
-4.575920
 42
0.000000
 10
8.499982
 20
-5.575920
 42
0.000000
 10
8.999982
 20
-6.575920
 42
0.000000
 10
8.499982
 20
-7.583586
 42
0.000000
 10
8.499982
 20
-8.575920
 42
0.000000
 10
7.999982
 20
-9.575920
 42
0.000000
 10
8.499982
 20
-10.575920
 42
0.000000
 10
8.499982
 20
-11.575920
 42
0.000000
 10
8.999982
 20
-12.575920
 42
0.000000
 10
8.499982
 20
-13.575920
 42
0.000000
 10
8.499982
 20
-14.575920
 42
0.000000
 10
7.999982
 20
-15.575920
 42
0.000000
 10
8.499982
 20
-16.575920
 42
0.000000
 10
8.499982
 20
-17.575920
 42
0.000000
 10
8.999982
 20
-18.575920
 42
0.000000
 10
8.499982
 20
-19.575920
 42
0.000000
 10
8.499982
 20
-20.575920
 42
0.000000
 10
7.999982
 20
-21.575920
 42
0.000000
 10
8.499982
 20
-22.575920
 42
0.000000
 10
8.499982
 20
-23.575920
 42
0.000000
 10
8.999982
 20
-24.575920
 42
0.000000
 10
8.499982
 20
-25.575920
 42
0.000000
 10
8.499982
 20
-26.575920
 42
0.000000
 10
7.999982
 20
-27.575920
 42
0.000000
 10
8.499982
 20
-28.575920
 42
0.000000
 10
8.499982
 20
-29.575920
 42
0.000000
 10
8.999982
 20
-30.575920
 42
0.000000
 10
8.499982
 20
-31.575920
 42
0.000000
 10
8.499982
 20
-32.575920
 42
0.000000
 10
7.999982
 20
-33.575920
 42
0.000000
 10
8.499982
 20
-34.575920
 42
0.000000
 10
8.499982
 20
-35.575920
 42
0.000000
 10
8.999982
 20
-36.575920
 42
0.000000
 10
8.499982
 20
-37.575920
 42
0.000000
 10
8.499982
 20
-38.575920
 42
0.000000
 10
7.999982
 20
-39.575920
 42
0.000000
 10
8.499982
 20
-40.575920
 42
0.000000
 10
8.499982
 20
-41.575920
 42
0.000000
 10
8.999982
 20
-42.575920
 42
0.000000
 10
8.499982
 20
-43.575920
 42
0.000000
 10
8.499982
 20
-44.575920
 42
0.000000
 10
7.999982
 20
-45.575920
 42
0.000000
 10
8.499982
 20
-46.575920
 42
0.000000
 10
8.499982
 20
-47.575920
 42
0.000000
 10
8.999982
 20
-48.575920
 42
0.000000
 10
8.499982
 20
-49.575920
 42
0.000000
 10
8.499982
 20
-50.575920
 42
0.000000
 10
7.999982
 20
-51.575920
 42
0.000000
 10
8.499982
 20
-52.575920
 42
0.000000
 10
8.499982
 20
-53.575920
 42
0.000000
 10
8.999982
 20
-54.575920
 42
0.000000
 10
8.499982
 20
-55.575920
 42
0.000000
 10
8.499982
 20
-56.575920
 42
0.000000
 10
7.999982
 20
-57.575920
 42
0.000000
 10
8.499982
 20
-58.575920
 42
0.000000
 10
8.499982
 20
-59.575920
 42
0.000000
 10
8.999982
 20
-60.575920
 42
0.000000
 10
8.499982
 20
-61.575920
 42
0.000000
 10
8.499982
 20
-62.575920
 42
0.000000
 10
7.999982
 20
-63.575920
 42
0.000000
 10
8.499982
 20
-64.575920
 42
0.000000
 10
8.499982
 20
-65.575920
 42
0.000000
 10
8.999982
 20
-66.575920
 42
0.000000
 10
8.499982
 20
-67.575920
 42
0.000000
 10
8.499982
 20
-68.575920
 42
0.000000
 10
7.999982
 20
-69.575920
 42
0.000000
 10
8.499982
 20
-70.575920
 42
0.000000
 10
8.499982
 20
-71.575920
 42
0.000000
 10
8.999982
 20
-72.575920
 42
0.000000
 10
8.499982
 20
-73.575920
 42
0.000000
 10
8.499982
 20
-74.575920
 42
0.000000
 10
7.999982
 20
-75.575920
 42
0.000000
 10
8.499982
 20
-76.575920
 42
0.000000
 10
8.499982
 20
-77.575920
 42
0.000000
 10
8.999982
 20
-78.575920
 42
0.000000
 10
8.499982
 20
-79.575920
 42
0.000000
 10
8.499982
 20
-80.575920
 42
0.000000
 10
7.999982
 20
-81.575920
 42
0.000000
 10
8.499982
 20
-82.575920
 42
0.000000
 10
8.499982
 20
-83.575920
 42
0.000000
 10
8.999982
 20
-84.575920
 42
0.000000
 10
8.499982
 20
-85.575920
 42
0.000000
 10
8.499982
 20
-86.575920
 42
0.000000
 10
7.999982
 20
-87.575920
 42
0.000000
 10
8.499982
 20
-88.575920
 42
0.000000
 10
8.499982
 20
-89.575920
 42
0.000000
 10
8.999982
 20
-90.575920
 42
0.000000
 10
8.499982
 20
-91.575920
 42
0.000000
 10
8.499982
 20
-92.575920
 42
0.000000
 10
7.999982
 20
-93.575920
 42
0.000000
 10
8.499982
 20
-94.575920
 42
0.000000
 10
8.499982
 20
-95.575920
 42
0.000000
 10
8.999982
 20
-96.575920
 42
0.000000
 10
8.499982
 20
-97.575920
 42
0.000000
 10
8.499982
 20
-98.575920
 42
0.000000
 10
7.999982
 20
-99.575920
 42
0.000000
 10
8.499982
 20
-100.575920
 42
0.000000
 10
8.499982
 20
-101.575920
 42
0.000000
 10
8.999982
 20
-102.575920
 42
0.000000
 10
8.499982
 20
-103.575920
 42
0.000000
 10
8.499982
 20
-104.575920
 42
0.000000
 10
7.999982
 20
-105.575920
 42
0.000000
 10
8.499982
 20
-106.575920
 42
0.000000
 10
8.499982
 20
-107.575920
 42
0.000000
 10
8.999982
 20
-108.575920
 42
0.000000
 10
8.499982
 20
-109.575920
 42
0.000000
 10
8.499982
 20
-110.575920
 42
0.000000
 10
7.999982
 20
-111.575920
 42
0.000000
 10
8.499982
 20
-112.575920
 42
0.000000
 10
8.499982
 20
-113.575920
 42
0.000000
 10
8.999982
 20
-114.575920
 42
0.000000
 10
8.499982
 20
-115.575920
 42
0.000000
 10
8.499982
 20
-116.575920
 42
0.000000
 10
7.999982
 20
-117.575920
 42
0.000000
 10
8.499982
 20
-118.575920
 42
0.000000
 10
8.499982
 20
-119.575920
 42
0.000000
 10
8.999982
 20
-120.575920
 42
0.000000
 10
8.499982
 20
-121.575920
 42
0.000000
 10
8.499982
 20
-122.575920
 42
0.000000
 10
7.999982
 20
-123.575920
 42
0.000000
 10
8.499982
 20
-124.575920
 42
0.000000
 10
8.499982
 20
-125.575920
 42
0.000000
 10
8.999982
 20
-126.575920
 42
0.000000
 10
8.499982
 20
-127.575920
 42
0.000000
 10
8.499982
 20
-128.575920
 42
0.000000
 10
7.999982
 20
-129.575920
 42
0.000000
 10
8.499982
 20
-130.575920
 42
0.000000
 10
8.499982
 20
-131.575920
 42
0.000000
 10
8.999982
 20
-132.575920
 42
0.000000
 10
8.499982
 20
-133.575920
 42
0.000000
 10
8.499982
 20
-134.575920
 42
0.000000
 10
7.999982
 20
-135.575920
 42
0.000000
 10
8.499982
 20
-136.575920
 42
0.000000
 10
8.499982
 20
-137.575920
 42
0.000000
 10
8.999982
 20
-138.575920
 42
0.000000
 10
8.499982
 20
-139.575920
 42
0.000000
 10
8.499982
 20
-140.575920
 42
0.000000
 10
7.999982
 20
-141.575920
 42
0.000000
 10
8.499982
 20
-142.575920
 42
0.000000
 10
8.499982
 20
-143.575920
 42
0.000000
 10
8.999982
 20
-144.575920
 42
0.000000
 10
8.499982
 20
-145.583586
 42
0.000000
 10
8.499982
 20
-146.575920
 42
0.000000
 10
7.999982
 20
-147.575920
 42
0.000000
 10
8.499982
 20
-148.575920
 42
0.000000
 10
8.499982
 20
-149.575920
 42
0.000000
 10
8.999982
 20
-150.575920
 42
0.000000
 10
8.499982
 20
-151.575920
 42
0.000000
 10
8.499982
 20
-152.575920
 42
0.000000
 10
7.999982
 20
-153.575920
 42
0.000000
 10
8.499982
 20
-154.575920
 42
0.000000
 10
8.499982
 20
-155.575920
 42
0.000000
 10
8.999982
 20
-156.575920
 42
0.000000
 10
8.499982
 20
-157.575920
 42
0.000000
 10
8.499982
 20
-158.575920
 42
0.000000
 10
7.999982
 20
-159.575920
 42
0.000000
 10
8.499982
 20
-160.575920
 42
0.000000
 10
8.499982
 20
-161.575920
 42
0.000000
 10
8.999982
 20
-162.575920
 42
0.000000
 10
8.499982
 20
-163.575920
 42
0.000000
 10
8.499982
 20
-164.575920
 42
0.000000
 10
7.999982
 20
-165.575920
 42
0.000000
 10
8.499982
 20
-166.575920
 42
0.000000
 10
8.499982
 20
-167.575920
 42
0.000000
 10
8.999982
 20
-168.575920
 42
0.000000
 10
8.499982
 20
-169.575920
 42
0.000000
 10
8.499982
 20
-170.575920
 42
0.000000
 10
7.999982
 20
-171.575920
 42
0.000000
 10
8.499982
 20
-172.575920
 42
0.000000
 10
8.499982
 20
-173.575920
 42
0.000000
 10
8.999982
 20
-174.575920
 42
0.000000
 10
8.499982
 20
-175.575920
 42
0.000000
 10
8.499982
 20
-176.575920
 42
0.000000
 10
7.999982
 20
-177.575920
 42
0.000000
 10
8.499982
 20
-178.575920
 42
0.000000
 10
8.499982
 20
-179.575920
 42
0.000000
 10
8.999982
 20
-180.575920
 42
0.000000
 10
8.499982
 20
-181.575920
 42
0.000000
 10
8.499982
 20
-182.575920
 42
0.000000
 10
7.999982
 20
-183.575920
 42
0.000000
 10
8.499982
 20
-184.575920
 42
0.000000
 10
8.499982
 20
-185.575920
 42
0.000000
 10
8.999982
 20
-186.575920
 42
0.000000
 10
8.499982
 20
-187.583586
 42
0.000000
 10
8.499982
 20
-188.575920
 42
0.000000
 10
7.999982
 20
-189.575920
 42
0.000000
 10
8.499982
 20
-190.575920
 42
0.000000
 10
8.499982
 20
-191.575920
 42
0.000000
 10
8.999982
 20
-192.575920
 42
0.000000
 10
8.499982
 20
-193.575920
 42
0.000000
 10
8.499982
 20
-194.486274
 42
0.000000
 10
7.999982
 20
-195.575920
 42
0.000000
 10
8.336993
 20
-196.249941
 42
0.000000
  0
ENDBLK
  5
7BA
100
AcDbEntity
  8
0
100
AcDbBlockEnd
  0
BLOCK
  5
7BB
100
AcDbEntity
  8
Detail
100
AcDbBlockBegin
  2
B-72
 70
    66
 10
0.000000
 20
0.000000
 30
0.000000
  0
LWPOLYLINE
  5
7BC
100
AcDbEntity
  8
Detail
  6
CONTINUOUS
 62
     6
100
AcDbPolyline
 90
     2
 10
-142.500054
 20
261.718449
 42
0.000000
 10
-142.500054
 20
292.988672
 42
0.000000
  0
LWPOLYLINE
  5
7BF
100
AcDbEntity
  8
Detail
  6
CONTINUOUS
 62
     6
100
AcDbPolyline
 90
     2
 10
-132.500017
 20
228.812780
 42
0.000000
 10
-132.500017
 20
292.988672
 42
0.000000
  0
LWPOLYLINE
  5
7C2
100
AcDbEntity
  8
Detail
  6
CONTINUOUS
 62
     6
100
AcDbPolyline
 90
     2
 10
-209.492238
 20
261.820799
 42
0.000000
 10
-209.492238
 20
292.988672
 42
0.000000
  0
ENDBLK
  5
7C5
100
AcDbEntity
  8
0
100
AcDbBlockEnd
  0
BLOCK
  5
7C6
100
AcDbEntity
  8
SCHRAFF
100
AcDbBlockBegin
  2
B-73
 70
    66
 10
0.000000
 20
0.000000
 30
0.000000
  0
HATCH
  5
7C7
100
AcDbEntity
  8
SCHRAFF
 62
     8
440
     0
100
AcDbHatch
 10
0.000000
 20
0.000000
 30
0.000000
210
0.000000
220
0.000000
230
1.000000
  2
SOLID
 70
     1
 71
     1
 91
     1
 92
    18
 72
     1
 73
     0
 93
     5
 10
2.002463
 20
147.457866
 42
0.000000
 10
2.499982
 20
152.433052
 42
0.000000
 10
-7.450390
 20
153.428089
 42
0.000000
 10
-7.947908
 20
148.452903
 42
0.000000
 10
2.002463
 20
147.457866
 42
0.000000
 97
     0
 75
     0
 76
     1
 98
     0
  0
LWPOLYLINE
  5
7C8
100
AcDbEntity
  8
Detail
  6
CONTINUOUS
 62
     4
100
AcDbPolyline
 90
     5
 10
2.499982
 20
152.433052
 42
0.000000
 10
2.002463
 20
147.457866
 42
0.000000
 10
-7.947908
 20
148.452903
 42
0.000000
 10
-7.450390
 20
153.428089
 42
0.000000
 10
2.499982
 20
152.433052
 42
0.000000
  0
ENDBLK
  5
7CE
100
AcDbEntity
  8
0
100
AcDbBlockEnd
  0
BLOCK
  5
7CF
100
AcDbEntity
  8
SCHRAFF
100
AcDbBlockBegin
  2
B-74
 70
    66
 10
0.000000
 20
0.000000
 30
0.000000
  0
HATCH
  5
7D0
100
AcDbEntity
  8
SCHRAFF
 62
     7
440
     0
100
AcDbHatch
 10
0.000000
 20
0.000000
 30
0.000000
210
0.000000
220
0.000000
230
1.000000
  2
SOLID
 70
     1
 71
     1
 91
     1
 92
    18
 72
     1
 73
     0
 93
     3
 10
-2.110150
 20
150.431277
 42
1.000000
 10
-3.110150
 20
150.431277
 42
1.000000
 10
-2.110150
 20
150.431277
 42
0.000000
 97
     0
 75
     0
 76
     1
 98
     0
  0
ENDBLK
  5
7D1
100
AcDbEntity
  8
0
100
AcDbBlockEnd
  0
BLOCK
  5
7D2
100
AcDbEntity
  8
Detail
100
AcDbBlockBegin
  2
B-75
 70
    66
 10
0.000000
 20
0.000000
 30
0.000000
  0
CIRCLE
  5
7D3
100
AcDbEntity
  8
Detail
  6
CONTINUOUS
 62
     7
100
AcDbCircle
 10
-2.610150
 20
150.431277
 40
0.500000
  0
ENDBLK
  5
7D4
100
AcDbEntity
  8
0
100
AcDbBlockEnd
  0
BLOCK
  5
7D5
100
AcDbEntity
  8
Detail
100
AcDbBlockBegin
  2
B-76
 70
    66
 10
0.000000
 20
0.000000
 30
0.000000
  0
LWPOLYLINE
  5
7D6
100
AcDbEntity
  8
Detail
  6
CONTINUOUS
 62
     7
100
AcDbPolyline
 90
     3
 10
77.500023
 20
160.250078
 42
0.000000
 10
-2.610150
 20
160.250078
 42
0.000000
 10
-2.610150
 20
150.431277
 42
0.000000
  0
ENDBLK
  5
7DA
100
AcDbEntity
  8
0
100
AcDbBlockEnd
  0
BLOCK
  5
7DB
100
AcDbEntity
  8
Detail
100
AcDbBlockBegin
  2
B-77
 70
    66
 10
0.000000
 20
0.000000
 30
0.000000
  0
LWPOLYLINE
  5
7DC
100
AcDbEntity
  8
Detail
  6
CONTINUOUS
 62
     4
100
AcDbPolyline
 90
    10
 10
-130.500013
 20
183.522828
 42
0.000000
 10
-127.500013
 20
183.522828
 42
0.000000
 10
-127.500013
 20
178.522828
 42
0.000000
 10
-126.500013
 20
178.522828
 42
0.000000
 10
-125.500013
 20
184.183080
 42
0.000000
 10
-130.500015
 20
185.522826
 42
0.000000
 10
-132.500011
 20
185.522826
 42
0.000000
 10
-132.500011
 20
173.522828
 42
0.000000
 10
-130.500013
 20
173.522828
 42
0.000000
 10
-130.500013
 20
183.522828
 42
0.000000
  0
ENDBLK
  5
7E7
100
AcDbEntity
  8
0
100
AcDbBlockEnd
  0
BLOCK
  5
7E8
100
AcDbEntity
  8
SCHRAFF
100
AcDbBlockBegin
  2
B-78
 70
    66
 10
0.000000
 20
0.000000
 30
0.000000
  0
HATCH
  5
7E9
100
AcDbEntity
  8
SCHRAFF
 62
     7
440
     0
100
AcDbHatch
 10
0.000000
 20
0.000000
 30
0.000000
210
0.000000
220
0.000000
230
1.000000
  2
SOLID
 70
     1
 71
     1
 91
     1
 92
    18
 72
     1
 73
     0
 93
     3
 10
-128.500013
 20
184.321383
 42
1.000000
 10
-129.500013
 20
184.321383
 42
1.000000
 10
-128.500013
 20
184.321383
 42
0.000000
 97
     0
 75
     0
 76
     1
 98
     0
  0
CIRCLE
  5
7EA
100
AcDbEntity
  8
Detail
  6
CONTINUOUS
 62
     7
100
AcDbCircle
 10
-129.000013
 20
184.321383
 40
0.500000
  0
ENDBLK
  5
7EB
100
AcDbEntity
  8
0
100
AcDbBlockEnd
  0
BLOCK
  5
7EC
100
AcDbEntity
  8
Detail
100
AcDbBlockBegin
  2
B-79
 70
    66
 10
0.000000
 20
0.000000
 30
0.000000
  0
LWPOLYLINE
  5
7ED
100
AcDbEntity
  8
Detail
  6
CONTINUOUS
 62
     7
100
AcDbPolyline
 90
     3
 10
77.500023
 20
210.250078
 42
0.000000
 10
-129.000013
 20
210.250078
 42
0.000000
 10
-129.000013
 20
184.321383
 42
0.000000
  0
ENDBLK
  5
7F1
100
AcDbEntity
  8
0
100
AcDbBlockEnd
  0
BLOCK
  5
7F2
100
AcDbEntity
  8
Detail
100
AcDbBlockBegin
  2
B-80
 70
    66
 10
0.000000
 20
0.000000
 30
0.000000
  0
LWPOLYLINE
  5
7F3
100
AcDbEntity
  8
Detail
  6
CONTINUOUS
 62
     9
100
AcDbPolyline
 90
   171
 10
-133.764215
 20
85.250078
 42
0.000000
 10
-131.651139
 20
85.625343
 42
0.000000
 10
-131.149564
 20
86.494096
 42
0.000000
 10
-130.760889
 20
85.994096
 42
0.000000
 10
-129.680552
 20
86.441587
 42
0.000000
 10
-129.178977
 20
87.310341
 42
0.000000
 10
-128.790302
 20
86.810341
 42
0.000000
 10
-128.211525
 20
87.050078
 42
0.000000
 10
-127.610486
 20
87.050078
 42
0.000000
 10
-127.321811
 20
87.550078
 42
0.000000
 10
-126.933136
 20
87.050078
 42
0.000000
 10
-125.800486
 20
87.050078
 42
0.000000
 10
-125.511811
 20
87.550078
 42
0.000000
 10
-125.123136
 20
87.050078
 42
0.000000
 10
-123.990486
 20
87.050078
 42
0.000000
 10
-123.701811
 20
87.550078
 42
0.000000
 10
-123.313136
 20
87.050078
 42
0.000000
 10
-122.180486
 20
87.050078
 42
0.000000
 10
-121.891811
 20
87.550078
 42
0.000000
 10
-121.503136
 20
87.050078
 42
0.000000
 10
-120.370486
 20
87.050078
 42
0.000000
 10
-120.081811
 20
87.550078
 42
0.000000
 10
-119.693136
 20
87.050078
 42
0.000000
 10
-118.560486
 20
87.050078
 42
0.000000
 10
-118.271811
 20
87.550078
 42
0.000000
 10
-117.883136
 20
87.050078
 42
0.000000
 10
-116.750486
 20
87.050078
 42
0.000000
 10
-116.461811
 20
87.550078
 42
0.000000
 10
-116.073136
 20
87.050078
 42
0.000000
 10
-114.940486
 20
87.050078
 42
0.000000
 10
-114.651811
 20
87.550078
 42
0.000000
 10
-114.263136
 20
87.050078
 42
0.000000
 10
-113.130486
 20
87.050078
 42
0.000000
 10
-112.841811
 20
87.550078
 42
0.000000
 10
-112.453136
 20
87.050078
 42
0.000000
 10
-111.320486
 20
87.050078
 42
0.000000
 10
-111.031811
 20
87.550078
 42
0.000000
 10
-110.643136
 20
87.050078
 42
0.000000
 10
-109.510486
 20
87.050078
 42
0.000000
 10
-109.221811
 20
87.550078
 42
0.000000
 10
-108.833136
 20
87.050078
 42
0.000000
 10
-107.700486
 20
87.050078
 42
0.000000
 10
-107.411811
 20
87.550078
 42
0.000000
 10
-107.023136
 20
87.050078
 42
0.000000
 10
-105.890486
 20
87.050078
 42
0.000000
 10
-105.601811
 20
87.550078
 42
0.000000
 10
-105.213136
 20
87.050078
 42
0.000000
 10
-104.080486
 20
87.050078
 42
0.000000
 10
-103.791811
 20
87.550078
 42
0.000000
 10
-103.403136
 20
87.050078
 42
0.000000
 10
-102.270486
 20
87.050078
 42
0.000000
 10
-101.981811
 20
87.550078
 42
0.000000
 10
-101.593136
 20
87.050078
 42
0.000000
 10
-100.460486
 20
87.050078
 42
0.000000
 10
-100.171811
 20
87.550078
 42
0.000000
 10
-99.783136
 20
87.050078
 42
0.000000
 10
-98.650486
 20
87.050078
 42
0.000000
 10
-98.361811
 20
87.550078
 42
0.000000
 10
-97.950622
 20
87.050078
 42
0.000000
 10
-96.840486
 20
87.050078
 42
0.000000
 10
-96.551811
 20
87.550078
 42
0.000000
 10
-96.163136
 20
87.050078
 42
0.000000
 10
-95.030486
 20
87.050078
 42
0.000000
 10
-94.741811
 20
87.550078
 42
0.000000
 10
-94.353136
 20
87.050078
 42
0.000000
 10
-93.220486
 20
87.050078
 42
0.000000
 10
-92.931811
 20
87.550078
 42
0.000000
 10
-92.543136
 20
87.050078
 42
0.000000
 10
-91.410486
 20
87.050078
 42
0.000000
 10
-91.121811
 20
87.550078
 42
0.000000
 10
-90.733136
 20
87.050078
 42
0.000000
 10
-89.600486
 20
87.050078
 42
0.000000
 10
-89.311811
 20
87.550078
 42
0.000000
 10
-88.923136
 20
87.050078
 42
0.000000
 10
-87.790486
 20
87.050078
 42
0.000000
 10
-87.501811
 20
87.550078
 42
0.000000
 10
-87.113136
 20
87.050078
 42
0.000000
 10
-85.980486
 20
87.050078
 42
0.000000
 10
-85.691811
 20
87.550078
 42
0.000000
 10
-85.303136
 20
87.050078
 42
0.000000
 10
-84.170486
 20
87.050078
 42
0.000000
 10
-83.881811
 20
87.550078
 42
0.000000
 10
-83.493136
 20
87.050078
 42
0.000000
 10
-82.792525
 20
87.050078
 42
0.000000
 10
-77.500018
 20
89.129967
 42
0.000000
 10
-77.500018
 20
81.370189
 42
0.000000
 10
-82.588136
 20
83.450078
 42
0.000000
 10
-82.976811
 20
82.950078
 42
0.000000
 10
-83.265486
 20
83.450078
 42
0.000000
 10
-84.398136
 20
83.450078
 42
0.000000
 10
-84.786811
 20
82.950078
 42
0.000000
 10
-85.075486
 20
83.450078
 42
0.000000
 10
-86.208136
 20
83.450078
 42
0.000000
 10
-86.596811
 20
82.950078
 42
0.000000
 10
-86.885486
 20
83.450078
 42
0.000000
 10
-88.018136
 20
83.450078
 42
0.000000
 10
-88.406811
 20
82.950078
 42
0.000000
 10
-88.695486
 20
83.450078
 42
0.000000
 10
-89.828136
 20
83.450078
 42
0.000000
 10
-90.216811
 20
82.950078
 42
0.000000
 10
-90.505486
 20
83.450078
 42
0.000000
 10
-91.638136
 20
83.450078
 42
0.000000
 10
-92.026811
 20
82.950078
 42
0.000000
 10
-92.315486
 20
83.450078
 42
0.000000
 10
-93.448136
 20
83.450078
 42
0.000000
 10
-93.836811
 20
82.950078
 42
0.000000
 10
-94.125486
 20
83.450078
 42
0.000000
 10
-95.258136
 20
83.450078
 42
0.000000
 10
-95.646811
 20
82.950078
 42
0.000000
 10
-95.935486
 20
83.450078
 42
0.000000
 10
-97.068136
 20
83.450078
 42
0.000000
 10
-97.456811
 20
82.950078
 42
0.000000
 10
-97.745486
 20
83.450078
 42
0.000000
 10
-98.878136
 20
83.450078
 42
0.000000
 10
-99.266811
 20
82.950078
 42
0.000000
 10
-99.555486
 20
83.450078
 42
0.000000
 10
-100.688136
 20
83.450078
 42
0.000000
 10
-101.076811
 20
82.950078
 42
0.000000
 10
-101.365486
 20
83.450078
 42
0.000000
 10
-102.498136
 20
83.450078
 42
0.000000
 10
-102.886811
 20
82.950078
 42
0.000000
 10
-103.175486
 20
83.450078
 42
0.000000
 10
-104.308136
 20
83.450078
 42
0.000000
 10
-104.696811
 20
82.950078
 42
0.000000
 10
-104.985486
 20
83.450078
 42
0.000000
 10
-106.118136
 20
83.450078
 42
0.000000
 10
-106.506811
 20
82.950078
 42
0.000000
 10
-106.795486
 20
83.450078
 42
0.000000
 10
-107.928136
 20
83.450078
 42
0.000000
 10
-108.316811
 20
82.950078
 42
0.000000
 10
-108.605486
 20
83.450078
 42
0.000000
 10
-109.738136
 20
83.450078
 42
0.000000
 10
-110.126811
 20
82.950078
 42
0.000000
 10
-110.415486
 20
83.450078
 42
0.000000
 10
-111.548136
 20
83.450078
 42
0.000000
 10
-111.936811
 20
82.950078
 42
0.000000
 10
-112.225486
 20
83.450078
 42
0.000000
 10
-113.358136
 20
83.450078
 42
0.000000
 10
-113.746811
 20
82.950078
 42
0.000000
 10
-114.035486
 20
83.450078
 42
0.000000
 10
-115.168136
 20
83.450078
 42
0.000000
 10
-115.556811
 20
82.950078
 42
0.000000
 10
-115.845486
 20
83.450078
 42
0.000000
 10
-116.978136
 20
83.450078
 42
0.000000
 10
-117.366811
 20
82.950078
 42
0.000000
 10
-117.655486
 20
83.450078
 42
0.000000
 10
-118.788136
 20
83.450078
 42
0.000000
 10
-119.176811
 20
82.950078
 42
0.000000
 10
-119.465486
 20
83.450078
 42
0.000000
 10
-120.598136
 20
83.450078
 42
0.000000
 10
-120.986811
 20
82.950078
 42
0.000000
 10
-121.275486
 20
83.450078
 42
0.000000
 10
-122.408136
 20
83.450078
 42
0.000000
 10
-122.796811
 20
82.950078
 42
0.000000
 10
-123.085486
 20
83.450078
 42
0.000000
 10
-124.218136
 20
83.450078
 42
0.000000
 10
-124.606811
 20
82.950078
 42
0.000000
 10
-124.895486
 20
83.450078
 42
0.000000
 10
-126.028136
 20
83.450078
 42
0.000000
 10
-126.416811
 20
82.950078
 42
0.000000
 10
-126.705486
 20
83.450078
 42
0.000000
 10
-127.838136
 20
83.450078
 42
0.000000
 10
-128.226811
 20
82.950078
 42
0.000000
 10
-128.611026
 20
83.615557
 42
0.000000
 10
-129.539885
 20
84.000303
 42
0.000000
 10
-129.928560
 20
83.500303
 42
0.000000
 10
-130.430135
 20
84.369057
 42
0.000000
 10
-131.213499
 20
84.693537
 42
0.000000
 10
-131.602174
 20
84.193537
 42
0.000000
 10
-132.103749
 20
85.062291
 42
0.000000
 10
-133.764215
 20
85.250078
 42
0.000000
  0
LWPOLYLINE
  5
89F
100
AcDbEntity
  8
Detail
  6
CONTINUOUS
 62
     9
100
AcDbPolyline
 90
    73
 10
-77.500018
 20
78.350955
 42
0.000000
 10
-76.000018
 20
80.615381
 42
0.000000
 10
-76.000018
 20
89.884775
 42
0.000000
 10
-77.500018
 20
92.149200
 42
0.000000
 10
-77.500018
 20
89.129967
 42
0.000000
 10
-92.212215
 20
88.710078
 42
0.000000
 10
-93.578158
 20
88.463069
 42
0.000000
 10
-93.653911
 20
88.710078
 42
0.000000
 10
-96.436215
 20
88.710078
 42
0.000000
 10
-97.802158
 20
88.463069
 42
0.000000
 10
-97.877911
 20
88.710078
 42
0.000000
 10
-100.660215
 20
88.710078
 42
0.000000
 10
-102.026158
 20
88.463069
 42
0.000000
 10
-102.101827
 20
88.705278
 42
0.000000
 10
-104.884215
 20
88.710078
 42
0.000000
 10
-106.250158
 20
88.463069
 42
0.000000
 10
-106.325911
 20
88.710078
 42
0.000000
 10
-109.108215
 20
88.710078
 42
0.000000
 10
-110.474158
 20
88.463069
 42
0.000000
 10
-110.549911
 20
88.710078
 42
0.000000
 10
-113.332215
 20
88.710078
 42
0.000000
 10
-114.698158
 20
88.463069
 42
0.000000
 10
-114.773911
 20
88.710078
 42
0.000000
 10
-117.556215
 20
88.710078
 42
0.000000
 10
-118.922158
 20
88.463069
 42
0.000000
 10
-118.997911
 20
88.710078
 42
0.000000
 10
-121.780215
 20
88.710078
 42
0.000000
 10
-123.146158
 20
88.463069
 42
0.000000
 10
-123.221911
 20
88.710078
 42
0.000000
 10
-126.004215
 20
88.710078
 42
0.000000
 10
-127.208372
 20
88.427646
 42
0.000000
 10
-127.667355
 20
88.590077
 42
0.000000
 10
-128.644215
 20
88.155822
 42
0.000000
 10
-128.884215
 20
87.630078
 42
0.000000
 10
-129.652215
 20
87.630078
 42
0.000000
 10
-131.170108
 20
87.089110
 42
0.000000
 10
-132.003725
 20
85.710078
 42
0.000000
 10
-133.764215
 20
85.250078
 42
0.000000
 10
-132.003725
 20
84.790078
 42
0.000000
 10
-131.170108
 20
83.411046
 42
0.000000
 10
-129.907414
 20
82.883685
 42
0.000000
 10
-128.884215
 20
82.870078
 42
0.000000
 10
-128.644215
 20
82.344334
 42
0.000000
 10
-127.892059
 20
81.910078
 42
0.000000
 10
-127.442646
 20
81.910078
 42
0.000000
 10
-127.208372
 20
82.072510
 42
0.000000
 10
-126.004215
 20
81.790078
 42
0.000000
 10
-123.221911
 20
81.790078
 42
0.000000
 10
-123.146158
 20
82.037087
 42
0.000000
 10
-121.780215
 20
81.790078
 42
0.000000
 10
-118.997911
 20
81.790078
 42
0.000000
 10
-118.922158
 20
82.037087
 42
0.000000
 10
-117.556215
 20
81.790078
 42
0.000000
 10
-114.773911
 20
81.790078
 42
0.000000
 10
-114.698158
 20
82.037087
 42
0.000000
 10
-113.332215
 20
81.790078
 42
0.000000
 10
-110.549911
 20
81.790078
 42
0.000000
 10
-110.474158
 20
82.037087
 42
0.000000
 10
-109.108215
 20
81.790078
 42
0.000000
 10
-106.325911
 20
81.790078
 42
0.000000
 10
-106.250158
 20
82.037087
 42
0.000000
 10
-104.884215
 20
81.790078
 42
0.000000
 10
-102.101827
 20
81.794878
 42
0.000000
 10
-102.026158
 20
82.037087
 42
0.000000
 10
-100.660215
 20
81.790078
 42
0.000000
 10
-97.877911
 20
81.790078
 42
0.000000
 10
-97.802158
 20
82.037087
 42
0.000000
 10
-96.436215
 20
81.790078
 42
0.000000
 10
-93.653911
 20
81.790078
 42
0.000000
 10
-93.578158
 20
82.037087
 42
0.000000
 10
-92.212215
 20
81.790078
 42
0.000000
 10
-77.500018
 20
81.370189
 42
0.000000
 10
-77.500018
 20
78.350955
 42
0.000000
  0
ENDBLK
  5
8E9
100
AcDbEntity
  8
0
100
AcDbBlockEnd
  0
ENDSEC
  0
SECTION
  2
ENTITIES
  0
INSERT
  5
8EA
100
AcDbEntity
  8
0
100
AcDbBlockReference
  2
B
 10
0.000000
 20
0.000000
 30
0.000000
 41
1.000000
 42
1.000000
 43
1.000000
 50
0.000000
  0
INSERT
  5
8EB
100
AcDbEntity
  8
0
100
AcDbBlockReference
  2
B-2
 10
0.000000
 20
0.000000
 30
0.000000
 41
1.000000
 42
1.000000
 43
1.000000
 50
0.000000
  0
INSERT
  5
8EC
100
AcDbEntity
  8
0
100
AcDbBlockReference
  2
B-3
 10
0.000000
 20
0.000000
 30
0.000000
 41
1.000000
 42
1.000000
 43
1.000000
 50
0.000000
  0
INSERT
  5
8ED
100
AcDbEntity
  8
0
100
AcDbBlockReference
  2
B-4
 10
0.000000
 20
0.000000
 30
0.000000
 41
1.000000
 42
1.000000
 43
1.000000
 50
0.000000
  0
INSERT
  5
8EE
100
AcDbEntity
  8
0
100
AcDbBlockReference
  2
B-5
 10
0.000000
 20
0.000000
 30
0.000000
 41
1.000000
 42
1.000000
 43
1.000000
 50
0.000000
  0
INSERT
  5
8EF
100
AcDbEntity
  8
0
100
AcDbBlockReference
  2
B-6
 10
0.000000
 20
0.000000
 30
0.000000
 41
1.000000
 42
1.000000
 43
1.000000
 50
0.000000
  0
INSERT
  5
8F0
100
AcDbEntity
  8
0
100
AcDbBlockReference
  2
B-7
 10
0.000000
 20
0.000000
 30
0.000000
 41
1.000000
 42
1.000000
 43
1.000000
 50
0.000000
  0
INSERT
  5
8F1
100
AcDbEntity
  8
Detail
100
AcDbBlockReference
  2
B-8
 10
0.000000
 20
0.000000
 30
0.000000
 41
1.000000
 42
1.000000
 43
1.000000
 50
0.000000
  0
INSERT
  5
8F2
100
AcDbEntity
  8
0
100
AcDbBlockReference
  2
B-9
 10
0.000000
 20
0.000000
 30
0.000000
 41
1.000000
 42
1.000000
 43
1.000000
 50
0.000000
  0
INSERT
  5
8F3
100
AcDbEntity
  8
Detail
100
AcDbBlockReference
  2
B-10
 10
0.000000
 20
0.000000
 30
0.000000
 41
1.000000
 42
1.000000
 43
1.000000
 50
0.000000
  0
INSERT
  5
8F4
100
AcDbEntity
  8
0
100
AcDbBlockReference
  2
B-11
 10
0.000000
 20
0.000000
 30
0.000000
 41
1.000000
 42
1.000000
 43
1.000000
 50
0.000000
  0
INSERT
  5
8F5
100
AcDbEntity
  8
0
100
AcDbBlockReference
  2
B-12
 10
0.000000
 20
0.000000
 30
0.000000
 41
1.000000
 42
1.000000
 43
1.000000
 50
0.000000
  0
INSERT
  5
8F6
100
AcDbEntity
  8
0
100
AcDbBlockReference
  2
B-13
 10
0.000000
 20
0.000000
 30
0.000000
 41
1.000000
 42
1.000000
 43
1.000000
 50
0.000000
  0
INSERT
  5
8F7
100
AcDbEntity
  8
Detail
100
AcDbBlockReference
  2
B-14
 10
0.000000
 20
0.000000
 30
0.000000
 41
1.000000
 42
1.000000
 43
1.000000
 50
0.000000
  0
INSERT
  5
8F8
100
AcDbEntity
  8
Detail
100
AcDbBlockReference
  2
B-15
 10
0.000000
 20
0.000000
 30
0.000000
 41
1.000000
 42
1.000000
 43
1.000000
 50
0.000000
  0
INSERT
  5
8F9
100
AcDbEntity
  8
0
100
AcDbBlockReference
  2
B-16
 10
0.000000
 20
0.000000
 30
0.000000
 41
1.000000
 42
1.000000
 43
1.000000
 50
0.000000
  0
INSERT
  5
8FA
100
AcDbEntity
  8
Detail
100
AcDbBlockReference
  2
B-17
 10
0.000000
 20
0.000000
 30
0.000000
 41
1.000000
 42
1.000000
 43
1.000000
 50
0.000000
  0
INSERT
  5
8FB
100
AcDbEntity
  8
Detail
100
AcDbBlockReference
  2
B-18
 10
0.000000
 20
0.000000
 30
0.000000
 41
1.000000
 42
1.000000
 43
1.000000
 50
0.000000
  0
INSERT
  5
8FC
100
AcDbEntity
  8
0
100
AcDbBlockReference
  2
B-19
 10
0.000000
 20
0.000000
 30
0.000000
 41
1.000000
 42
1.000000
 43
1.000000
 50
0.000000
  0
INSERT
  5
8FD
100
AcDbEntity
  8
Detail
100
AcDbBlockReference
  2
B-20
 10
0.000000
 20
0.000000
 30
0.000000
 41
1.000000
 42
1.000000
 43
1.000000
 50
0.000000
  0
INSERT
  5
8FE
100
AcDbEntity
  8
Detail
100
AcDbBlockReference
  2
B-21
 10
0.000000
 20
0.000000
 30
0.000000
 41
1.000000
 42
1.000000
 43
1.000000
 50
0.000000
  0
INSERT
  5
8FF
100
AcDbEntity
  8
Detail
100
AcDbBlockReference
  2
B-22
 10
0.000000
 20
0.000000
 30
0.000000
 41
1.000000
 42
1.000000
 43
1.000000
 50
0.000000
  0
INSERT
  5
900
100
AcDbEntity
  8
0
100
AcDbBlockReference
  2
B-23
 10
0.000000
 20
0.000000
 30
0.000000
 41
1.000000
 42
1.000000
 43
1.000000
 50
0.000000
  0
INSERT
  5
901
100
AcDbEntity
  8
Detail
100
AcDbBlockReference
  2
B-24
 10
0.000000
 20
0.000000
 30
0.000000
 41
1.000000
 42
1.000000
 43
1.000000
 50
0.000000
  0
INSERT
  5
902
100
AcDbEntity
  8
0
100
AcDbBlockReference
  2
B-25
 10
0.000000
 20
0.000000
 30
0.000000
 41
1.000000
 42
1.000000
 43
1.000000
 50
0.000000
  0
INSERT
  5
903
100
AcDbEntity
  8
Detail
100
AcDbBlockReference
  2
B-26
 10
0.000000
 20
0.000000
 30
0.000000
 41
1.000000
 42
1.000000
 43
1.000000
 50
0.000000
  0
INSERT
  5
904
100
AcDbEntity
  8
0
100
AcDbBlockReference
  2
B-27
 10
0.000000
 20
0.000000
 30
0.000000
 41
1.000000
 42
1.000000
 43
1.000000
 50
0.000000
  0
INSERT
  5
905
100
AcDbEntity
  8
0
100
AcDbBlockReference
  2
B-28
 10
0.000000
 20
0.000000
 30
0.000000
 41
1.000000
 42
1.000000
 43
1.000000
 50
0.000000
  0
INSERT
  5
906
100
AcDbEntity
  8
Detail
100
AcDbBlockReference
  2
B-29
 10
0.000000
 20
0.000000
 30
0.000000
 41
1.000000
 42
1.000000
 43
1.000000
 50
0.000000
  0
INSERT
  5
907
100
AcDbEntity
  8
Detail
100
AcDbBlockReference
  2
B-30
 10
0.000000
 20
0.000000
 30
0.000000
 41
1.000000
 42
1.000000
 43
1.000000
 50
0.000000
  0
INSERT
  5
908
100
AcDbEntity
  8
0
100
AcDbBlockReference
  2
B-31
 10
0.000000
 20
0.000000
 30
0.000000
 41
1.000000
 42
1.000000
 43
1.000000
 50
0.000000
  0
INSERT
  5
909
100
AcDbEntity
  8
Detail
100
AcDbBlockReference
  2
B-32
 10
0.000000
 20
0.000000
 30
0.000000
 41
1.000000
 42
1.000000
 43
1.000000
 50
0.000000
  0
INSERT
  5
90A
100
AcDbEntity
  8
0
100
AcDbBlockReference
  2
B-33
 10
0.000000
 20
0.000000
 30
0.000000
 41
1.000000
 42
1.000000
 43
1.000000
 50
0.000000
  0
INSERT
  5
90B
100
AcDbEntity
  8
Detail
100
AcDbBlockReference
  2
B-34
 10
0.000000
 20
0.000000
 30
0.000000
 41
1.000000
 42
1.000000
 43
1.000000
 50
0.000000
  0
INSERT
  5
90C
100
AcDbEntity
  8
Detail
100
AcDbBlockReference
  2
B-35
 10
0.000000
 20
0.000000
 30
0.000000
 41
1.000000
 42
1.000000
 43
1.000000
 50
0.000000
  0
INSERT
  5
90D
100
AcDbEntity
  8
Detail
100
AcDbBlockReference
  2
B-36
 10
0.000000
 20
0.000000
 30
0.000000
 41
1.000000
 42
1.000000
 43
1.000000
 50
0.000000
  0
INSERT
  5
90E
100
AcDbEntity
  8
Detail
100
AcDbBlockReference
  2
B-37
 10
0.000000
 20
0.000000
 30
0.000000
 41
1.000000
 42
1.000000
 43
1.000000
 50
0.000000
  0
INSERT
  5
90F
100
AcDbEntity
  8
Detail
100
AcDbBlockReference
  2
B-38
 10
0.000000
 20
0.000000
 30
0.000000
 41
1.000000
 42
1.000000
 43
1.000000
 50
0.000000
  0
INSERT
  5
910
100
AcDbEntity
  8
Detail
100
AcDbBlockReference
  2
B-39
 10
0.000000
 20
0.000000
 30
0.000000
 41
1.000000
 42
1.000000
 43
1.000000
 50
0.000000
  0
INSERT
  5
911
100
AcDbEntity
  8
0
100
AcDbBlockReference
  2
glasleiste
 10
0.000000
 20
0.000000
 30
0.000000
 41
1.000000
 42
1.000000
 43
1.000000
 50
0.000000
  0
INSERT
  5
912
100
AcDbEntity
  8
0
100
AcDbBlockReference
  2
rahmen
 10
0.000000
 20
0.000000
 30
0.000000
 41
1.000000
 42
1.000000
 43
1.000000
 50
0.000000
  0
INSERT
  5
913
100
AcDbEntity
  8
0
100
AcDbBlockReference
  2
fluegel
 10
0.000000
 20
0.000000
 30
0.000000
 41
1.000000
 42
1.000000
 43
1.000000
 50
0.000000
  0
INSERT
  5
914
100
AcDbEntity
  8
Detail
100
AcDbBlockReference
  2
w-schenkel
 10
0.000000
 20
0.000000
 30
0.000000
 41
1.000000
 42
1.000000
 43
1.000000
 50
0.000000
  0
INSERT
  5
915
100
AcDbEntity
  8
Detail
100
AcDbBlockReference
  2
glas
 10
0.000000
 20
0.000000
 30
0.000000
 41
1.000000
 42
1.000000
 43
1.000000
 50
0.000000
  0
INSERT
  5
916
100
AcDbEntity
  8
Detail
100
AcDbBlockReference
  2
B-40
 10
0.000000
 20
0.000000
 30
0.000000
 41
1.000000
 42
1.000000
 43
1.000000
 50
0.000000
  0
INSERT
  5
917
100
AcDbEntity
  8
Detail
100
AcDbBlockReference
  2
B-41
 10
0.000000
 20
0.000000
 30
0.000000
 41
1.000000
 42
1.000000
 43
1.000000
 50
0.000000
  0
INSERT
  5
918
100
AcDbEntity
  8
Detail
100
AcDbBlockReference
  2
B-42
 10
0.000000
 20
0.000000
 30
0.000000
 41
1.000000
 42
1.000000
 43
1.000000
 50
0.000000
  0
INSERT
  5
919
100
AcDbEntity
  8
0
100
AcDbBlockReference
  2
B-43
 10
0.000000
 20
0.000000
 30
0.000000
 41
1.000000
 42
1.000000
 43
1.000000
 50
0.000000
  0
INSERT
  5
91A
100
AcDbEntity
  8
Detail
100
AcDbBlockReference
  2
B-44
 10
0.000000
 20
0.000000
 30
0.000000
 41
1.000000
 42
1.000000
 43
1.000000
 50
0.000000
  0
INSERT
  5
91B
100
AcDbEntity
  8
Detail
100
AcDbBlockReference
  2
B-45
 10
0.000000
 20
0.000000
 30
0.000000
 41
1.000000
 42
1.000000
 43
1.000000
 50
0.000000
  0
INSERT
  5
91C
100
AcDbEntity
  8
Detail
100
AcDbBlockReference
  2
B-46
 10
0.000000
 20
0.000000
 30
0.000000
 41
1.000000
 42
1.000000
 43
1.000000
 50
0.000000
  0
INSERT
  5
91D
100
AcDbEntity
  8
Detail
100
AcDbBlockReference
  2
B-47
 10
0.000000
 20
0.000000
 30
0.000000
 41
1.000000
 42
1.000000
 43
1.000000
 50
0.000000
  0
INSERT
  5
91E
100
AcDbEntity
  8
Detail
100
AcDbBlockReference
  2
B-48
 10
0.000000
 20
0.000000
 30
0.000000
 41
1.000000
 42
1.000000
 43
1.000000
 50
0.000000
  0
INSERT
  5
91F
100
AcDbEntity
  8
Detail
100
AcDbBlockReference
  2
B-49
 10
0.000000
 20
0.000000
 30
0.000000
 41
1.000000
 42
1.000000
 43
1.000000
 50
0.000000
  0
INSERT
  5
920
100
AcDbEntity
  8
Detail
100
AcDbBlockReference
  2
B-50
 10
0.000000
 20
0.000000
 30
0.000000
 41
1.000000
 42
1.000000
 43
1.000000
 50
0.000000
  0
INSERT
  5
921
100
AcDbEntity
  8
Detail
100
AcDbBlockReference
  2
B-51
 10
0.000000
 20
0.000000
 30
0.000000
 41
1.000000
 42
1.000000
 43
1.000000
 50
0.000000
  0
INSERT
  5
922
100
AcDbEntity
  8
Detail
100
AcDbBlockReference
  2
B-52
 10
0.000000
 20
0.000000
 30
0.000000
 41
1.000000
 42
1.000000
 43
1.000000
 50
0.000000
  0
INSERT
  5
923
100
AcDbEntity
  8
Detail
100
AcDbBlockReference
  2
B-53
 10
0.000000
 20
0.000000
 30
0.000000
 41
1.000000
 42
1.000000
 43
1.000000
 50
0.000000
  0
INSERT
  5
924
100
AcDbEntity
  8
Detail
100
AcDbBlockReference
  2
B-54
 10
0.000000
 20
0.000000
 30
0.000000
 41
1.000000
 42
1.000000
 43
1.000000
 50
0.000000
  0
INSERT
  5
925
100
AcDbEntity
  8
Detail
100
AcDbBlockReference
  2
B-55
 10
0.000000
 20
0.000000
 30
0.000000
 41
1.000000
 42
1.000000
 43
1.000000
 50
0.000000
  0
INSERT
  5
926
100
AcDbEntity
  8
Detail
100
AcDbBlockReference
  2
B-56
 10
0.000000
 20
0.000000
 30
0.000000
 41
1.000000
 42
1.000000
 43
1.000000
 50
0.000000
  0
INSERT
  5
927
100
AcDbEntity
  8
Detail
100
AcDbBlockReference
  2
B-57
 10
0.000000
 20
0.000000
 30
0.000000
 41
1.000000
 42
1.000000
 43
1.000000
 50
0.000000
  0
INSERT
  5
928
100
AcDbEntity
  8
Detail
100
AcDbBlockReference
  2
B-58
 10
0.000000
 20
0.000000
 30
0.000000
 41
1.000000
 42
1.000000
 43
1.000000
 50
0.000000
  0
INSERT
  5
929
100
AcDbEntity
  8
Detail
100
AcDbBlockReference
  2
B-59
 10
0.000000
 20
0.000000
 30
0.000000
 41
1.000000
 42
1.000000
 43
1.000000
 50
0.000000
  0
INSERT
  5
92A
100
AcDbEntity
  8
Detail
100
AcDbBlockReference
  2
B-60
 10
0.000000
 20
0.000000
 30
0.000000
 41
1.000000
 42
1.000000
 43
1.000000
 50
0.000000
  0
INSERT
  5
92B
100
AcDbEntity
  8
Detail
100
AcDbBlockReference
  2
B-61
 10
0.000000
 20
0.000000
 30
0.000000
 41
1.000000
 42
1.000000
 43
1.000000
 50
0.000000
  0
INSERT
  5
92C
100
AcDbEntity
  8
0
100
AcDbBlockReference
  2
B-62
 10
0.000000
 20
0.000000
 30
0.000000
 41
1.000000
 42
1.000000
 43
1.000000
 50
0.000000
  0
INSERT
  5
92D
100
AcDbEntity
  8
Stahlbau
100
AcDbBlockReference
  2
B-63
 10
0.000000
 20
0.000000
 30
0.000000
 41
1.000000
 42
1.000000
 43
1.000000
 50
0.000000
  0
INSERT
  5
92E
100
AcDbEntity
  8
Detail
100
AcDbBlockReference
  2
B-64
 10
0.000000
 20
0.000000
 30
0.000000
 41
1.000000
 42
1.000000
 43
1.000000
 50
0.000000
  0
INSERT
  5
92F
100
AcDbEntity
  8
0
100
AcDbBlockReference
  2
B-65
 10
0.000000
 20
0.000000
 30
0.000000
 41
1.000000
 42
1.000000
 43
1.000000
 50
0.000000
  0
INSERT
  5
930
100
AcDbEntity
  8
Detail
100
AcDbBlockReference
  2
B-66
 10
0.000000
 20
0.000000
 30
0.000000
 41
1.000000
 42
1.000000
 43
1.000000
 50
0.000000
  0
INSERT
  5
931
100
AcDbEntity
  8
Detail
100
AcDbBlockReference
  2
B-67
 10
0.000000
 20
0.000000
 30
0.000000
 41
1.000000
 42
1.000000
 43
1.000000
 50
0.000000
  0
INSERT
  5
932
100
AcDbEntity
  8
Detail
100
AcDbBlockReference
  2
B-68
 10
0.000000
 20
0.000000
 30
0.000000
 41
1.000000
 42
1.000000
 43
1.000000
 50
0.000000
  0
INSERT
  5
933
100
AcDbEntity
  8
Detail
100
AcDbBlockReference
  2
B-70
 10
0.000000
 20
0.000000
 30
0.000000
 41
1.000000
 42
1.000000
 43
1.000000
 50
0.000000
  0
INSERT
  5
934
100
AcDbEntity
  8
Detail
100
AcDbBlockReference
  2
B-71
 10
0.000000
 20
0.000000
 30
0.000000
 41
1.000000
 42
1.000000
 43
1.000000
 50
0.000000
  0
INSERT
  5
935
100
AcDbEntity
  8
Detail
100
AcDbBlockReference
  2
B-72
 10
0.000000
 20
0.000000
 30
0.000000
 41
1.000000
 42
1.000000
 43
1.000000
 50
0.000000
  0
INSERT
  5
936
100
AcDbEntity
  8
0
100
AcDbBlockReference
  2
B-73
 10
0.000000
 20
0.000000
 30
0.000000
 41
1.000000
 42
1.000000
 43
1.000000
 50
0.000000
  0
INSERT
  5
937
100
AcDbEntity
  8
0
100
AcDbBlockReference
  2
B-74
 10
0.000000
 20
0.000000
 30
0.000000
 41
1.000000
 42
1.000000
 43
1.000000
 50
0.000000
  0
INSERT
  5
938
100
AcDbEntity
  8
Detail
100
AcDbBlockReference
  2
B-75
 10
0.000000
 20
0.000000
 30
0.000000
 41
1.000000
 42
1.000000
 43
1.000000
 50
0.000000
  0
INSERT
  5
939
100
AcDbEntity
  8
Detail
100
AcDbBlockReference
  2
B-76
 10
0.000000
 20
0.000000
 30
0.000000
 41
1.000000
 42
1.000000
 43
1.000000
 50
0.000000
  0
INSERT
  5
93A
100
AcDbEntity
  8
Detail
100
AcDbBlockReference
  2
B-77
 10
0.000000
 20
0.000000
 30
0.000000
 41
1.000000
 42
1.000000
 43
1.000000
 50
0.000000
  0
INSERT
  5
93B
100
AcDbEntity
  8
0
100
AcDbBlockReference
  2
B-78
 10
0.000000
 20
0.000000
 30
0.000000
 41
1.000000
 42
1.000000
 43
1.000000
 50
0.000000
  0
INSERT
  5
93C
100
AcDbEntity
  8
Detail
100
AcDbBlockReference
  2
B-79
 10
0.000000
 20
0.000000
 30
0.000000
 41
1.000000
 42
1.000000
 43
1.000000
 50
0.000000
  0
INSERT
  5
93D
100
AcDbEntity
  8
Detail
100
AcDbBlockReference
  2
B-80
 10
0.000000
 20
0.000000
 30
0.000000
 41
1.000000
 42
1.000000
 43
1.000000
 50
0.000000
  0
ENDSEC
  0
SECTION
  2
OBJECTS
  0
DICTIONARY
  5
C
330
0
100
AcDbDictionary
281
     1
  3
ACAD_COLOR
350
6B
  3
ACAD_GROUP
350
D
  3
ACAD_IMAGE_DICT
350
1E2
  3
ACAD_IMAGE_VARS
350
1E3
  3
ACAD_MATERIAL
350
6A
  3
ACAD_MLINESTYLE
350
17
  3
ACAD_PLOTSETTINGS
350
19
  3
ACAD_PLOTSTYLENAME
350
E
  3
ACAD_SCALELIST
350
10C
  3
ACAD_TABLESTYLE
350
7E
  3
ACAD_VISUALSTYLE
350
EF
  3
ACDB_RECOMPOSE_DATA
350
15D
  3
AcDbVariableDictionary
350
5E
  0
DICTIONARY
  5
13C
330
10
100
AcDbDictionary
280
     1
281
     1
  0
DICTIONARY
  5
203
330
202
100
AcDbDictionary
280
     1
281
     1
  0
DICTIONARY
  5
6B
102
{ACAD_REACTORS
330
C
102
}
330
C
100
AcDbDictionary
281
     1
  0
DICTIONARY
  5
D
102
{ACAD_REACTORS
330
C
102
}
330
C
100
AcDbDictionary
281
     1
  0
DICTIONARY
  5
1E2
102
{ACAD_REACTORS
330
C
102
}
330
C
100
AcDbDictionary
281
     1
  3
WDVS mit Putz_Brüstung_4_1.tif
350
20F
  0
RASTERVARIABLES
  5
1E3
102
{ACAD_REACTORS
330
C
102
}
330
C
100
AcDbRasterVariables
 90
        0
 70
     1
 71
     1
 72
     1
  0
DICTIONARY
  5
6A
102
{ACAD_REACTORS
330
C
102
}
330
C
100
AcDbDictionary
281
     1
  3
ByBlock
350
ED
  3
ByLayer
350
EC
  3
Global
350
EE
  0
DICTIONARY
  5
12D
102
{ACAD_REACTORS
330
C
102
}
330
C
100
AcDbDictionary
281
     1
  3
Annotative
350
13B
  3
Standard
350
12E
  0
DICTIONARY
  5
17
102
{ACAD_REACTORS
330
C
102
}
330
C
100
AcDbDictionary
281
     1
  3
Standard
350
18
  0
DICTIONARY
  5
19
102
{ACAD_REACTORS
330
C
102
}
330
C
100
AcDbDictionary
281
     1
  0
ACDBDICTIONARYWDFLT
  5
E
102
{ACAD_REACTORS
330
C
102
}
330
C
100
AcDbDictionary
281
     1
  3
Normal
350
F
100
AcDbDictionaryWithDefault
340
F
  0
DICTIONARY
  5
10C
102
{ACAD_REACTORS
330
C
102
}
330
C
100
AcDbDictionary
281
     1
  3
A0
350
10D
  3
A1
350
1BE
  3
A2
350
1BF
  3
A3
350
1C0
  3
A4
350
1C1
  3
A5
350
1C2
  3
A6
350
1C3
  3
A7
350
1C4
  3
A8
350
1C5
  3
A9
350
1C6
  3
B0
350
1C7
  3
B1
350
1C8
  3
B2
350
1C9
  3
B3
350
1CA
  3
B4
350
1CB
  3
B5
350
1CC
  3
B6
350
1CD
  0
DICTIONARY
  5
7E
102
{ACAD_REACTORS
330
C
102
}
330
C
100
AcDbDictionary
281
     1
  3
Standard
350
7F
  0
DICTIONARY
  5
EF
102
{ACAD_REACTORS
330
C
102
}
330
C
100
AcDbDictionary
281
     1
  3
2dWireframe
350
F5
  3
3D Hidden
350
F7
  3
3dWireframe
350
F6
  3
Basic
350
F4
  3
Brighten
350
FB
  3
ColorChange
350
FF
  3
Conceptual
350
F8
  3
Dim
350
FA
  3
Facepattern
350
FE
  3
Flat
350
F0
  3
FlatWithEdges
350
F1
  3
Gouraud
350
F2
  3
GouraudWithEdges
350
F3
  3
Linepattern
350
FD
  3
Realistic
350
F9
  3
Thicken
350
FC
  0
XRECORD
  5
15D
102
{ACAD_REACTORS
330
C
102
}
330
C
100
AcDbXrecord
280
     1
 90
        1
330
7F
  0
DICTIONARY
  5
5E
102
{ACAD_REACTORS
330
C
102
}
330
C
100
AcDbDictionary
281
     1
  3
CANNOSCALE
350
146
  3
CMLEADERSTYLE
350
145
  3
CTABLESTYLE
350
84
  3
DIMASSOC
350
5F
  3
HIDETEXT
350
63
  3
LAYEREVAL
350
1AE
  3
LAYERNOTIFY
350
1AF
  0
MATERIAL
  5
ED
102
{ACAD_REACTORS
330
6A
102
}
330
6A
100
AcDbMaterial
  1
ByBlock
 94
       63
  0
MATERIAL
  5
EC
102
{ACAD_REACTORS
330
6A
102
}
330
6A
100
AcDbMaterial
  1
ByLayer
 94
       63
  0
MATERIAL
  5
EE
102
{ACAD_XDICTIONARY
360
173
102
}
102
{ACAD_REACTORS
330
6A
102
}
330
6A
100
AcDbMaterial
  1
Global
 43
0.0007999999797903
 43
0.0
 43
0.0
 43
0.0
 43
0.0
 43
0.0007999999797903
 43
0.0
 43
0.0
 43
0.0
 43
0.0
 43
1.0
 43
0.0
 43
0.0
 43
0.0
 43
0.0
 43
1.0
 49
0.0007999999797903
 49
0.0
 49
0.0
 49
0.0
 49
0.0
 49
0.0007999999797903
 49
0.0
 49
0.0
 49
0.0
 49
0.0
 49
1.0
 49
0.0
 49
0.0
 49
0.0
 49
0.0
 49
1.0
142
0.0007999999797903
142
0.0
142
0.0
142
0.0
142
0.0
142
0.0007999999797903
142
0.0
142
0.0
142
0.0
142
0.0
142
1.0
142
0.0
142
0.0
142
0.0
142
0.0
142
1.0
144
0.0007999999797903
144
0.0
144
0.0
144
0.0
144
0.0
144
0.0007999999797903
144
0.0
144
0.0
144
0.0
144
0.0
144
1.0
144
0.0
144
0.0
144
0.0
144
0.0
144
1.0
 94
       63
1001
ACAD
1070
    -1
1070
     3
1070
     0
1000

1071
        0
1070
     0
  0
MLINESTYLE
  5
18
102
{ACAD_REACTORS
330
17
102
}
330
17
100
AcDbMlineStyle
  2
STANDARD
 70
     0
  3

 62
   256
 51
90.0
 52
90.0
 71
     2
 49
0.5
 62
   256
  6
BYLAYER
 49
-0.5
 62
   256
  6
BYLAYER
  0
ACDBPLACEHOLDER
  5
F
102
{ACAD_REACTORS
330
E
102
}
330
E
  0
SCALE
  5
10D
102
{ACAD_REACTORS
330
10C
102
}
330
10C
100
AcDbScale
 70
     0
300
1:1
140
1.0
141
1.0
290
     1
  0
SCALE
  5
1BE
102
{ACAD_REACTORS
330
10C
102
}
330
10C
100
AcDbScale
 70
     0
300
1:2
140
1.0
141
2.0
290
     0
  0
SCALE
  5
1BF
102
{ACAD_REACTORS
330
10C
102
}
330
10C
100
AcDbScale
 70
     0
300
1:4
140
1.0
141
4.0
290
     0
  0
SCALE
  5
1C0
102
{ACAD_REACTORS
330
10C
102
}
330
10C
100
AcDbScale
 70
     0
300
1:5
140
1.0
141
5.0
290
     0
  0
SCALE
  5
1C1
102
{ACAD_REACTORS
330
10C
102
}
330
10C
100
AcDbScale
 70
     0
300
1:8
140
1.0
141
8.0
290
     0
  0
SCALE
  5
1C2
102
{ACAD_REACTORS
330
10C
102
}
330
10C
100
AcDbScale
 70
     0
300
1:10
140
1.0
141
10.0
290
     0
  0
SCALE
  5
1C3
102
{ACAD_REACTORS
330
10C
102
}
330
10C
100
AcDbScale
 70
     0
300
1:16
140
1.0
141
16.0
290
     0
  0
SCALE
  5
1C4
102
{ACAD_REACTORS
330
10C
102
}
330
10C
100
AcDbScale
 70
     0
300
1:20
140
1.0
141
20.0
290
     0
  0
SCALE
  5
1C5
102
{ACAD_REACTORS
330
10C
102
}
330
10C
100
AcDbScale
 70
     0
300
1:30
140
1.0
141
30.0
290
     0
  0
SCALE
  5
1C6
102
{ACAD_REACTORS
330
10C
102
}
330
10C
100
AcDbScale
 70
     0
300
1:40
140
1.0
141
40.0
290
     0
  0
SCALE
  5
1C7
102
{ACAD_REACTORS
330
10C
102
}
330
10C
100
AcDbScale
 70
     0
300
1:50
140
1.0
141
50.0
290
     0
  0
SCALE
  5
1C8
102
{ACAD_REACTORS
330
10C
102
}
330
10C
100
AcDbScale
 70
     0
300
1:100
140
1.0
141
100.0
290
     0
  0
SCALE
  5
1C9
102
{ACAD_REACTORS
330
10C
102
}
330
10C
100
AcDbScale
 70
     0
300
2:1
140
2.0
141
1.0
290
     0
  0
SCALE
  5
1CA
102
{ACAD_REACTORS
330
10C
102
}
330
10C
100
AcDbScale
 70
     0
300
4:1
140
4.0
141
1.0
290
     0
  0
SCALE
  5
1CB
102
{ACAD_REACTORS
330
10C
102
}
330
10C
100
AcDbScale
 70
     0
300
8:1
140
8.0
141
1.0
290
     0
  0
SCALE
  5
1CC
102
{ACAD_REACTORS
330
10C
102
}
330
10C
100
AcDbScale
 70
     0
300
10:1
140
10.0
141
1.0
290
     0
  0
SCALE
  5
1CD
102
{ACAD_REACTORS
330
10C
102
}
330
10C
100
AcDbScale
 70
     0
300
100:1
140
100.0
141
1.0
290
     0
  0
TABLESTYLE
  5
7F
102
{ACAD_XDICTIONARY
360
162
102
}
102
{ACAD_REACTORS
330
7E
102
}
330
7E
100
AcDbTableStyle
  3
Standard
 70
     0
 71
     0
 40
1.5
 41
1.5
280
     0
281
     0
  7
Standard
140
4.5
170
     2
 62
     0
 63
     7
283
     0
 90
      512
 91
        0
  1

274
    -2
284
     1
 64
     0
275
    -2
285
     1
 65
     0
276
    -2
286
     1
 66
     0
277
    -2
287
     1
 67
     0
278
    -2
288
     1
 68
     0
279
    -2
289
     1
 69
     0
  7
Standard
140
6.0
170
     5
 62
     0
 63
     7
283
     0
 90
      512
 91
        0
  1

274
    -2
284
     1
 64
     0
275
    -2
285
     1
 65
     0
276
    -2
286
     1
 66
     0
277
    -2
287
     1
 67
     0
278
    -2
288
     1
 68
     0
279
    -2
289
     1
 69
     0
  7
Standard
140
4.5
170
     5
 62
     0
 63
     7
283
     0
 90
      512
 91
        0
  1

274
    -2
284
     1
 64
     0
275
    -2
285
     1
 65
     0
276
    -2
286
     1
 66
     0
277
    -2
287
     1
 67
     0
278
    -2
288
     1
 68
     0
279
    -2
289
     1
 69
     0
  0
VISUALSTYLE
  5
F5
102
{ACAD_REACTORS
330
EF
102
}
330
EF
100
AcDbVisualStyle
  2
2dWireframe
 70
     4
 71
     0
 72
     2
 73
     1
 90
        0
 40
-0.6
 41
-30.0
 62
     5
 63
     7
421
 16777215
 74
     1
 91
        4
 64
     7
 65
   257
 75
     1
175
     1
 42
1.0
 92
        0
 66
   257
 43
1.0
 76
     1
 77
     6
 78
     2
 67
     7
 79
     5
170
     0
171
     0
290
     0
174
     0
 93
        1
 44
0.0
173
     0
291
     0
 45
0.0
  0
VISUALSTYLE
  5
F7
102
{ACAD_REACTORS
330
EF
102
}
330
EF
100
AcDbVisualStyle
  2
3D Hidden
 70
     6
 71
     1
 72
     2
 73
     2
 90
        0
 40
-0.6
 41
-30.0
 62
     5
 63
     7
421
 16777215
 74
     2
 91
        2
 64
     7
 65
   257
 75
     2
175
     1
 42
40.0
 92
        0
 66
   257
 43
1.0
 76
     1
 77
     6
 78
     2
 67
     7
 79
     3
170
     0
171
     0
290
     0
174
     0
 93
        1
 44
0.0
173
     0
291
     0
 45
0.0
  0
VISUALSTYLE
  5
F6
102
{ACAD_REACTORS
330
EF
102
}
330
EF
100
AcDbVisualStyle
  2
3dWireframe
 70
     5
 71
     0
 72
     2
 73
     1
 90
        0
 40
-0.6
 41
-30.0
 62
     5
 63
     7
421
 16777215
 74
     1
 91
        4
 64
     7
 65
   257
 75
     1
175
     1
 42
1.0
 92
        0
 66
   257
 43
1.0
 76
     1
 77
     6
 78
     2
 67
     7
 79
     5
170
     0
171
     0
290
     0
174
     0
 93
        1
 44
0.0
173
     0
291
     0
 45
0.0
  0
VISUALSTYLE
  5
F4
102
{ACAD_REACTORS
330
EF
102
}
330
EF
100
AcDbVisualStyle
  2
Basic
 70
     7
 71
     1
 72
     0
 73
     1
 90
        0
 40
-0.6
 41
-30.0
 62
     5
 63
     7
421
 16777215
 74
     0
 91
        4
 64
     7
 65
   257
 75
     1
175
     1
 42
1.0
 92
        8
 66
     7
 43
1.0
 76
     1
 77
     6
 78
     2
 67
     7
 79
     5
170
     0
171
     0
290
     0
174
     0
 93
        1
 44
0.0
173
     0
291
     1
 45
0.0
  0
VISUALSTYLE
  5
FB
102
{ACAD_REACTORS
330
EF
102
}
330
EF
100
AcDbVisualStyle
  2
Brighten
 70
    12
 71
     2
 72
     2
 73
     1
 90
        0
 40
-0.6
 41
-30.0
 62
     5
 63
     7
421
 16777215
 74
     1
 91
        4
 64
     7
 65
   257
 75
     1
175
     1
 42
1.0
 92
        8
 66
     7
 43
1.0
 76
     1
 77
     6
 78
     2
 67
     7
 79
     5
170
     0
171
     0
290
     0
174
     0
 93
        1
 44
50.0
173
     0
291
     1
 45
0.0
  0
VISUALSTYLE
  5
FF
102
{ACAD_REACTORS
330
EF
102
}
330
EF
100
AcDbVisualStyle
  2
ColorChange
 70
    16
 71
     2
 72
     2
 73
     3
 90
        0
 40
-0.6
 41
-30.0
 62
     5
 63
     8
421
  8421504
 74
     1
 91
        4
 64
     7
 65
   257
 75
     1
175
     1
 42
1.0
 92
        8
 66
     8
424
  8421504
 43
1.0
 76
     1
 77
     6
 78
     2
 67
     7
 79
     5
170
     0
171
     0
290
     0
174
     0
 93
        1
 44
0.0
173
     0
291
     1
 45
0.0
  0
VISUALSTYLE
  5
F8
102
{ACAD_REACTORS
330
EF
102
}
330
EF
100
AcDbVisualStyle
  2
Conceptual
 70
     9
 71
     3
 72
     2
 73
     1
 90
        0
 40
-0.6
 41
-30.0
 62
     5
 63
     7
421
 16777215
 74
     2
 91
        2
 64
     7
 65
   257
 75
     1
175
     1
 42
40.0
 92
        8
 66
     7
 43
1.0
 76
     1
 77
     6
 78
     2
 67
     7
 79
     3
170
     0
171
     0
290
     0
174
     0
 93
        1
 44
0.0
173
     0
291
     0
 45
0.0
  0
VISUALSTYLE
  5
FA
102
{ACAD_REACTORS
330
EF
102
}
330
EF
100
AcDbVisualStyle
  2
Dim
 70
    11
 71
     2
 72
     2
 73
     1
 90
        0
 40
-0.6
 41
-30.0
 62
     5
 63
     7
421
 16777215
 74
     1
 91
        4
 64
     7
 65
   257
 75
     1
175
     1
 42
1.0
 92
        8
 66
     7
 43
1.0
 76
     1
 77
     6
 78
     2
 67
     7
 79
     5
170
     0
171
     0
290
     0
174
     0
 93
        1
 44
-50.0
173
     0
291
     1
 45
0.0
  0
VISUALSTYLE
  5
FE
102
{ACAD_REACTORS
330
EF
102
}
330
EF
100
AcDbVisualStyle
  2
Facepattern
 70
    15
 71
     2
 72
     2
 73
     1
 90
        0
 40
-0.6
 41
-30.0
 62
     5
 63
     7
421
 16777215
 74
     1
 91
        4
 64
     7
 65
   257
 75
     1
175
     1
 42
1.0
 92
        8
 66
     7
 43
1.0
 76
     1
 77
     6
 78
     2
 67
     7
 79
     5
170
     0
171
     0
290
     0
174
     0
 93
        1
 44
0.0
173
     0
291
     1
 45
0.0
  0
VISUALSTYLE
  5
F0
102
{ACAD_REACTORS
330
EF
102
}
330
EF
100
AcDbVisualStyle
  2
Flat
 70
     0
 71
     2
 72
     1
 73
     1
 90
        2
 40
-0.6
 41
30.0
 62
     5
 63
     7
421
 16777215
 74
     0
 91
        4
 64
     7
 65
   257
 75
     1
175
     1
 42
1.0
 92
        8
 66
     7
 43
1.0
 76
     1
 77
     6
 78
     2
 67
     7
 79
     5
170
     0
171
     0
290
     0
174
     0
 93
        1
 44
0.0
173
     0
291
     1
 45
0.0
  0
VISUALSTYLE
  5
F1
102
{ACAD_REACTORS
330
EF
102
}
330
EF
100
AcDbVisualStyle
  2
FlatWithEdges
 70
     1
 71
     2
 72
     1
 73
     1
 90
        2
 40
-0.6
 41
30.0
 62
     5
 63
     7
421
 16777215
 74
     1
 91
        4
 64
     7
 65
   257
 75
     1
175
     1
 42
1.0
 92
        0
 66
   257
 43
1.0
 76
     1
 77
     6
 78
     2
 67
     7
 79
     5
170
     0
171
     0
290
     0
174
     0
 93
        1
 44
0.0
173
     0
291
     1
 45
0.0
  0
VISUALSTYLE
  5
F2
102
{ACAD_REACTORS
330
EF
102
}
330
EF
100
AcDbVisualStyle
  2
Gouraud
 70
     2
 71
     2
 72
     2
 73
     1
 90
        2
 40
-0.6
 41
30.0
 62
     5
 63
     7
421
 16777215
 74
     0
 91
        4
 64
     7
 65
   257
 75
     1
175
     1
 42
1.0
 92
        0
 66
     7
 43
1.0
 76
     1
 77
     6
 78
     2
 67
     7
 79
     5
170
     0
171
     0
290
     0
174
     0
 93
        1
 44
0.0
173
     0
291
     1
 45
0.0
  0
VISUALSTYLE
  5
F3
102
{ACAD_REACTORS
330
EF
102
}
330
EF
100
AcDbVisualStyle
  2
GouraudWithEdges
 70
     3
 71
     2
 72
     2
 73
     1
 90
        2
 40
-0.6
 41
30.0
 62
     5
 63
     7
421
 16777215
 74
     1
 91
        4
 64
     7
 65
   257
 75
     1
175
     1
 42
1.0
 92
        0
 66
   257
 43
1.0
 76
     1
 77
     6
 78
     2
 67
     7
 79
     5
170
     0
171
     0
290
     0
174
     0
 93
        1
 44
0.0
173
     0
291
     1
 45
0.0
  0
VISUALSTYLE
  5
FD
102
{ACAD_REACTORS
330
EF
102
}
330
EF
100
AcDbVisualStyle
  2
Linepattern
 70
    14
 71
     2
 72
     2
 73
     1
 90
        0
 40
-0.6
 41
-30.0
 62
     5
 63
     7
421
 16777215
 74
     1
 91
        4
 64
     7
 65
   257
 75
     7
175
     7
 42
1.0
 92
        8
 66
     7
 43
1.0
 76
     1
 77
     6
 78
     2
 67
     7
 79
     5
170
     0
171
     0
290
     0
174
     0
 93
        1
 44
0.0
173
     0
291
     1
 45
0.0
  0
VISUALSTYLE
  5
F9
102
{ACAD_REACTORS
330
EF
102
}
330
EF
100
AcDbVisualStyle
  2
Realistic
 70
     8
 71
     2
 72
     2
 73
     1
 90
        0
 40
-0.6
 41
-30.0
 62
     5
 63
     7
421
 16777215
 74
     1
 91
        0
 64
     7
 65
   257
 75
     1
175
     1
 42
1.0
 92
        8
 66
     8
424
  7895160
 43
1.0
 76
     1
 77
     6
 78
     2
 67
     7
 79
     5
170
     0
171
     0
290
     0
174
     0
 93
       13
 44
0.0
173
     0
291
     0
 45
0.0
  0
VISUALSTYLE
  5
FC
102
{ACAD_REACTORS
330
EF
102
}
330
EF
100
AcDbVisualStyle
  2
Thicken
 70
    13
 71
     2
 72
     2
 73
     1
 90
        0
 40
-0.6
 41
-30.0
 62
     5
 63
     7
421
 16777215
 74
     1
 91
        4
 64
     7
 65
   257
 75
     1
175
     1
 42
1.0
 92
       12
 66
     7
 43
1.0
 76
     1
 77
     6
 78
     2
 67
     7
 79
     5
170
     0
171
     0
290
     0
174
     0
 93
        1
 44
0.0
173
     0
291
     1
 45
0.0
  0
DICTIONARYVAR
  5
146
102
{ACAD_REACTORS
330
5E
102
}
330
5E
100
DictionaryVariables
280
     0
  1
1:1
  0
DICTIONARYVAR
  5
145
102
{ACAD_REACTORS
330
5E
102
}
330
5E
100
DictionaryVariables
280
     0
  1
STANDARD
  0
DICTIONARYVAR
  5
84
102
{ACAD_REACTORS
330
5E
102
}
330
5E
100
DictionaryVariables
280
     0
  1
STANDARD
  0
DICTIONARYVAR
  5
5F
102
{ACAD_REACTORS
330
5E
102
}
330
5E
100
DictionaryVariables
280
     0
  1
2
  0
DICTIONARYVAR
  5
63
102
{ACAD_REACTORS
330
5E
102
}
330
5E
100
DictionaryVariables
280
     0
  1
1
  0
DICTIONARYVAR
  5
1AE
102
{ACAD_REACTORS
330
5E
102
}
330
5E
100
DictionaryVariables
280
     0
  1
0
  0
DICTIONARYVAR
  5
1AF
102
{ACAD_REACTORS
330
5E
102
}
330
5E
100
DictionaryVariables
280
     0
  1
0
  0
DICTIONARY
  5
173
330
EE
100
AcDbDictionary
280
     1
281
     1
  3
BUMPTILE
360
175
  3
DIFFUSETILE
360
174
  3
OPACITYTILE
360
176
  3
REFLECTIONTILE
360
177
  0
DICTIONARY
  5
162
330
7F
100
AcDbDictionary
280
     1
281
     1
  3
ACAD_ROUNDTRIP_2008_TABLESTYLE_CELLSTYLEMAP
360
1E7
  0
XRECORD
  5
175
102
{ACAD_REACTORS
330
173
102
}
330
173
100
AcDbXrecord
280
     1
270
     1
271
     1
  0
XRECORD
  5
174
102
{ACAD_REACTORS
330
173
102
}
330
173
100
AcDbXrecord
280
     1
270
     1
271
     1
  0
XRECORD
  5
176
102
{ACAD_REACTORS
330
173
102
}
330
173
100
AcDbXrecord
280
     1
270
     1
271
     1
  0
XRECORD
  5
177
102
{ACAD_REACTORS
330
173
102
}
330
173
100
AcDbXrecord
280
     1
270
     1
271
     1
  0
CELLSTYLEMAP
  5
1E7
102
{ACAD_REACTORS
330
162
102
}
330
162
100
AcDbCellStyleMap
 90
        3
300
CELLSTYLE
  1
TABLEFORMAT_BEGIN
 90
        5
170
     1
 91
        0
 92
    32768
 62
   257
 93
        1
300
CONTENTFORMAT
  1
CONTENTFORMAT_BEGIN
 90
        0
 91
        0
 92
      512
 93
        0
300

 40
0.0
140
1.0
 94
        5
 62
     0
340
11
144
6.0
309
CONTENTFORMAT_END
171
     1
301
MARGIN
  1
CELLMARGIN_BEGIN
 40
1.5
 40
1.5
 40
1.5
 40
1.5
 40
4.5
 40
4.5
309
CELLMARGIN_END
 94
        6
 95
        1
302
GRIDFORMAT
  1
GRIDFORMAT_BEGIN
 90
        0
 91
        1
 62
     0
 92
       -2
340
812
 93
        0
 40
1.125
309
GRIDFORMAT_END
 95
        2
302
GRIDFORMAT
  1
GRIDFORMAT_BEGIN
 90
        0
 91
        1
 62
     0
 92
       -2
340
812
 93
        0
 40
1.125
309
GRIDFORMAT_END
 95
        4
302
GRIDFORMAT
  1
GRIDFORMAT_BEGIN
 90
        0
 91
        1
 62
     0
 92
       -2
340
812
 93
        0
 40
1.125
309
GRIDFORMAT_END
 95
        8
302
GRIDFORMAT
  1
GRIDFORMAT_BEGIN
 90
        0
 91
        1
 62
     0
 92
       -2
340
812
 93
        0
 40
1.125
309
GRIDFORMAT_END
 95
       16
302
GRIDFORMAT
  1
GRIDFORMAT_BEGIN
 90
        0
 91
        1
 62
     0
 92
       -2
340
812
 93
        0
 40
1.125
309
GRIDFORMAT_END
 95
       32
302
GRIDFORMAT
  1
GRIDFORMAT_BEGIN
 90
        0
 91
        1
 62
     0
 92
       -2
340
812
 93
        0
 40
1.125
309
GRIDFORMAT_END
309
TABLEFORMAT_END
  1
CELLSTYLE_BEGIN
 90
        1
 91
        1
300
_TITLE
309
CELLSTYLE_END
300
CELLSTYLE
  1
TABLEFORMAT_BEGIN
 90
        5
170
     1
 91
        0
 92
        0
 62
   257
 93
        1
300
CONTENTFORMAT
  1
CONTENTFORMAT_BEGIN
 90
        0
 91
        0
 92
      512
 93
        0
300

 40
0.0
140
1.0
 94
        5
 62
     0
340
11
144
4.5
309
CONTENTFORMAT_END
171
     1
301
MARGIN
  1
CELLMARGIN_BEGIN
 40
1.5
 40
1.5
 40
1.5
 40
1.5
 40
4.5
 40
4.5
309
CELLMARGIN_END
 94
        6
 95
        1
302
GRIDFORMAT
  1
GRIDFORMAT_BEGIN
 90
        0
 91
        1
 62
     0
 92
       -2
340
812
 93
        0
 40
1.125
309
GRIDFORMAT_END
 95
        2
302
GRIDFORMAT
  1
GRIDFORMAT_BEGIN
 90
        0
 91
        1
 62
     0
 92
       -2
340
812
 93
        0
 40
1.125
309
GRIDFORMAT_END
 95
        4
302
GRIDFORMAT
  1
GRIDFORMAT_BEGIN
 90
        0
 91
        1
 62
     0
 92
       -2
340
812
 93
        0
 40
1.125
309
GRIDFORMAT_END
 95
        8
302
GRIDFORMAT
  1
GRIDFORMAT_BEGIN
 90
        0
 91
        1
 62
     0
 92
       -2
340
812
 93
        0
 40
1.125
309
GRIDFORMAT_END
 95
       16
302
GRIDFORMAT
  1
GRIDFORMAT_BEGIN
 90
        0
 91
        1
 62
     0
 92
       -2
340
812
 93
        0
 40
1.125
309
GRIDFORMAT_END
 95
       32
302
GRIDFORMAT
  1
GRIDFORMAT_BEGIN
 90
        0
 91
        1
 62
     0
 92
       -2
340
812
 93
        0
 40
1.125
309
GRIDFORMAT_END
309
TABLEFORMAT_END
  1
CELLSTYLE_BEGIN
 90
        2
 91
        1
300
_HEADER
309
CELLSTYLE_END
300
CELLSTYLE
  1
TABLEFORMAT_BEGIN
 90
        5
170
     1
 91
        0
 92
        0
 62
   257
 93
        1
300
CONTENTFORMAT
  1
CONTENTFORMAT_BEGIN
 90
        0
 91
        0
 92
      512
 93
        0
300

 40
0.0
140
1.0
 94
        2
 62
     0
340
11
144
4.5
309
CONTENTFORMAT_END
171
     1
301
MARGIN
  1
CELLMARGIN_BEGIN
 40
1.5
 40
1.5
 40
1.5
 40
1.5
 40
4.5
 40
4.5
309
CELLMARGIN_END
 94
        6
 95
        1
302
GRIDFORMAT
  1
GRIDFORMAT_BEGIN
 90
        0
 91
        1
 62
     0
 92
       -2
340
812
 93
        0
 40
1.125
309
GRIDFORMAT_END
 95
        2
302
GRIDFORMAT
  1
GRIDFORMAT_BEGIN
 90
        0
 91
        1
 62
     0
 92
       -2
340
812
 93
        0
 40
1.125
309
GRIDFORMAT_END
 95
        4
302
GRIDFORMAT
  1
GRIDFORMAT_BEGIN
 90
        0
 91
        1
 62
     0
 92
       -2
340
812
 93
        0
 40
1.125
309
GRIDFORMAT_END
 95
        8
302
GRIDFORMAT
  1
GRIDFORMAT_BEGIN
 90
        0
 91
        1
 62
     0
 92
       -2
340
812
 93
        0
 40
1.125
309
GRIDFORMAT_END
 95
       16
302
GRIDFORMAT
  1
GRIDFORMAT_BEGIN
 90
        0
 91
        1
 62
     0
 92
       -2
340
812
 93
        0
 40
1.125
309
GRIDFORMAT_END
 95
       32
302
GRIDFORMAT
  1
GRIDFORMAT_BEGIN
 90
        0
 91
        1
 62
     0
 92
       -2
340
812
 93
        0
 40
1.125
309
GRIDFORMAT_END
309
TABLEFORMAT_END
  1
CELLSTYLE_BEGIN
 90
        3
 91
        2
300
_DATA
309
CELLSTYLE_END
  0
IMAGEDEF_REACTOR
  5
210
330
20E
100
AcDbRasterImageDefReactor
 90
     2
330
20E
  0
IMAGEDEF
  5
20F
102
{ACAD_REACTORS
330
5E
330
210
102
}
330
5E
100
AcDbRasterImageDef
 90
     0
  1
WDVS mit Putz_Brüstung_4_1.tif
 10
395.000000
 20
405.000000
 11
0.002532
 21
0.002469
280
     1
281
     0
  0
ENDSEC
  0
EOF
