  0
SECTION
  2
HEADER
  9
$ACADVER
  1
AC1024
  9
$ACADMAINTVER
 70
     6
  9
$DWGCODEPAGE
  3
ANSI_1252
  9
$INSBASE
 10
0.0
 20
0.0
 30
0.0
  9
$EXTMIN
 10
-262.500018
 20
-371.249941
 30
0.000000
  9
$EXTMAX
 10
237.500023
 20
346.250078
 30
0.000000
  9
$LIMMIN
 10
0.0
 20
0.0
  9
$LIMMAX
 10
420.0
 20
297.0
  9
$ORTHOMODE
 70
     0
  9
$REGENMODE
 70
     1
  9
$FILLMODE
 70
     1
  9
$QTEXTMODE
 70
     0
  9
$MIRRTEXT
 70
     0
  9
$LTSCALE
 40
25.000000
  9
$ATTMODE
 70
     1
  9
$TEXTSIZE
 40
2.5
  9
$TRACEWID
 40
1.0
  9
$TEXTSTYLE
  7
Standard
  9
$CLAYER
  8
0
  9
$CELTYPE
  6
ByLayer
  9
$CECOLOR
 62
   256
  9
$CELTSCALE
 40
1.0
  9
$DISPSILH
 70
     0
  9
$DIMSCALE
 40
1.0
  9
$DIMASZ
 40
2.5
  9
$DIMEXO
 40
0.625
  9
$DIMDLI
 40
3.75
  9
$DIMRND
 40
0.0
  9
$DIMDLE
 40
0.0
  9
$DIMEXE
 40
1.25
  9
$DIMTP
 40
0.0
  9
$DIMTM
 40
0.0
  9
$DIMTXT
 40
2.5
  9
$DIMCEN
 40
2.5
  9
$DIMTSZ
 40
0.0
  9
$DIMTOL
 70
     0
  9
$DIMLIM
 70
     0
  9
$DIMTIH
 70
     0
  9
$DIMTOH
 70
     0
  9
$DIMSE1
 70
     0
  9
$DIMSE2
 70
     0
  9
$DIMTAD
 70
     1
  9
$DIMZIN
 70
     8
  9
$DIMBLK
  1

  9
$DIMASO
 70
     1
  9
$DIMSHO
 70
     1
  9
$DIMPOST
  1

  9
$DIMAPOST
  1

  9
$DIMALT
 70
     0
  9
$DIMALTD
 70
     3
  9
$DIMALTF
 40
0.03937007874016
  9
$DIMLFAC
 40
1.0
  9
$DIMTOFL
 70
     1
  9
$DIMTVP
 40
0.0
  9
$DIMTIX
 70
     0
  9
$DIMSOXD
 70
     0
  9
$DIMSAH
 70
     0
  9
$DIMBLK1
  1

  9
$DIMBLK2
  1

  9
$DIMSTYLE
  2
ISO-25
  9
$DIMCLRD
 70
     0
  9
$DIMCLRE
 70
     0
  9
$DIMCLRT
 70
     0
  9
$DIMTFAC
 40
1.0
  9
$DIMGAP
 40
0.625
  9
$DIMJUST
 70
     0
  9
$DIMSD1
 70
     0
  9
$DIMSD2
 70
     0
  9
$DIMTOLJ
 70
     0
  9
$DIMTZIN
 70
     8
  9
$DIMALTZ
 70
     0
  9
$DIMALTTZ
 70
     0
  9
$DIMUPT
 70
     0
  9
$DIMDEC
 70
     2
  9
$DIMTDEC
 70
     2
  9
$DIMALTU
 70
     2
  9
$DIMALTTD
 70
     3
  9
$DIMTXSTY
  7
Standard
  9
$DIMAUNIT
 70
     0
  9
$DIMADEC
 70
     0
  9
$DIMALTRND
 40
0.0
  9
$DIMAZIN
 70
     0
  9
$DIMDSEP
 70
    44
  9
$DIMATFIT
 70
     3
  9
$DIMFRAC
 70
     0
  9
$DIMLDRBLK
  1

  9
$DIMLUNIT
 70
     2
  9
$DIMLWD
 70
    -2
  9
$DIMLWE
 70
    -2
  9
$DIMTMOVE
 70
     0
  9
$DIMFXL
 40
1.0
  9
$DIMFXLON
 70
     0
  9
$DIMJOGANG
 40
0.7853981633974483
  9
$DIMTFILL
 70
     0
  9
$DIMTFILLCLR
 70
     0
  9
$DIMARCSYM
 70
     0
  9
$DIMLTYPE
  6

  9
$DIMLTEX1
  6

  9
$DIMLTEX2
  6

  9
$DIMTXTDIRECTION
 70
     0
  9
$LUNITS
 70
     2
  9
$LUPREC
 70
     4
  9
$SKETCHINC
 40
1.0
  9
$FILLETRAD
 40
10.0
  9
$AUNITS
 70
     0
  9
$AUPREC
 70
     0
  9
$MENU
  1
.
  9
$ELEVATION
 40
0.0
  9
$PELEVATION
 40
0.0
  9
$THICKNESS
 40
0.0
  9
$LIMCHECK
 70
     0
  9
$CHAMFERA
 40
10.0
  9
$CHAMFERB
 40
10.0
  9
$CHAMFERC
 40
20.0
  9
$CHAMFERD
 40
0.0
  9
$SKPOLY
 70
     0
  9
$TDCREATE
 40
2452006.439837951
  9
$TDUCREATE
 40
2452006.356504618
  9
$TDUPDATE
 40
2452006.439963946
  9
$TDUUPDATE
 40
2452006.356630613
  9
$TDINDWG
 40
0.0001273843
  9
$TDUSRTIMER
 40
0.0001272685
  9
$USRTIMER
 70
     1
  9
$ANGBASE
 50
0.0
  9
$ANGDIR
 70
     0
  9
$PDMODE
 70
     0
  9
$PDSIZE
 40
0.0
  9
$PLINEWID
 40
0.0
  9
$SPLFRAME
 70
     0
  9
$SPLINETYPE
 70
     6
  9
$SPLINESEGS
 70
     8
  9
$HANDSEED
  5
784
  9
$SURFTAB1
 70
     6
  9
$SURFTAB2
 70
     6
  9
$SURFTYPE
 70
     6
  9
$SURFU
 70
     6
  9
$SURFV
 70
     6
  9
$UCSBASE
  2

  9
$UCSNAME
  2

  9
$UCSORG
 10
0.0
 20
0.0
 30
0.0
  9
$UCSXDIR
 10
1.0
 20
0.0
 30
0.0
  9
$UCSYDIR
 10
0.0
 20
1.0
 30
0.0
  9
$UCSORTHOREF
  2

  9
$UCSORTHOVIEW
 70
     0
  9
$UCSORGTOP
 10
0.0
 20
0.0
 30
0.0
  9
$UCSORGBOTTOM
 10
0.0
 20
0.0
 30
0.0
  9
$UCSORGLEFT
 10
0.0
 20
0.0
 30
0.0
  9
$UCSORGRIGHT
 10
0.0
 20
0.0
 30
0.0
  9
$UCSORGFRONT
 10
0.0
 20
0.0
 30
0.0
  9
$UCSORGBACK
 10
0.0
 20
0.0
 30
0.0
  9
$PUCSBASE
  2

  9
$PUCSNAME
  2

  9
$PUCSORG
 10
0.0
 20
0.0
 30
0.0
  9
$PUCSXDIR
 10
1.0
 20
0.0
 30
0.0
  9
$PUCSYDIR
 10
0.0
 20
1.0
 30
0.0
  9
$PUCSORTHOREF
  2

  9
$PUCSORTHOVIEW
 70
     0
  9
$PUCSORGTOP
 10
0.0
 20
0.0
 30
0.0
  9
$PUCSORGBOTTOM
 10
0.0
 20
0.0
 30
0.0
  9
$PUCSORGLEFT
 10
0.0
 20
0.0
 30
0.0
  9
$PUCSORGRIGHT
 10
0.0
 20
0.0
 30
0.0
  9
$PUCSORGFRONT
 10
0.0
 20
0.0
 30
0.0
  9
$PUCSORGBACK
 10
0.0
 20
0.0
 30
0.0
  9
$USERI1
 70
     0
  9
$USERI2
 70
     0
  9
$USERI3
 70
     0
  9
$USERI4
 70
     0
  9
$USERI5
 70
     0
  9
$USERR1
 40
0.0
  9
$USERR2
 40
0.0
  9
$USERR3
 40
0.0
  9
$USERR4
 40
0.0
  9
$USERR5
 40
0.0
  9
$WORLDVIEW
 70
     1
  9
$SHADEDGE
 70
     3
  9
$SHADEDIF
 70
    70
  9
$TILEMODE
 70
     1
  9
$MAXACTVP
 70
    64
  9
$PINSBASE
 10
0.0
 20
0.0
 30
0.0
  9
$PLIMCHECK
 70
     0
  9
$PEXTMIN
 10
1.000000000000000E+20
 20
1.000000000000000E+20
 30
1.000000000000000E+20
  9
$PEXTMAX
 10
-1.000000000000000E+20
 20
-1.000000000000000E+20
 30
-1.000000000000000E+20
  9
$PLIMMIN
 10
0.0
 20
0.0
  9
$PLIMMAX
 10
420.0
 20
297.0
  9
$UNITMODE
 70
     0
  9
$VISRETAIN
 70
     1
  9
$PLINEGEN
 70
     0
  9
$PSLTSCALE
 70
     1
  9
$TREEDEPTH
 70
  3020
  9
$CMLSTYLE
  2
Standard
  9
$CMLJUST
 70
     0
  9
$CMLSCALE
 40
20.0
  9
$PROXYGRAPHICS
 70
     1
  9
$MEASUREMENT
 70
     1
  9
$CELWEIGHT
370
    -1
  9
$ENDCAPS
280
     0
  9
$JOINSTYLE
280
     0
  9
$LWDISPLAY
290
     0
  9
$INSUNITS
 70
     4
  9
$HYPERLINKBASE
  1

  9
$STYLESHEET
  1

  9
$XEDIT
290
     1
  9
$CEPSNTYPE
380
     0
  9
$PSTYLEMODE
290
     1
  9
$FINGERPRINTGUID
  2

  9
$VERSIONGUID
  2

  9
$EXTNAMES
290
     1
  9
$PSVPSCALE
 40
0.0
  9
$OLESTARTUP
290
     0
  9
$SORTENTS
280
   127
  9
$INDEXCTL
280
     0
  9
$HIDETEXT
280
     1
  9
$XCLIPFRAME
280
     2
  9
$HALOGAP
280
     0
  9
$OBSCOLOR
 70
   257
  9
$OBSLTYPE
280
     0
  9
$INTERSECTIONDISPLAY
280
     0
  9
$INTERSECTIONCOLOR
 70
   257
  9
$DIMASSOC
280
     2
  9
$PROJECTNAME
  1

  9
$CAMERADISPLAY
290
     0
  9
$LENSLENGTH
 40
50.0
  9
$CAMERAHEIGHT
 40
0.0
  9
$STEPSPERSEC
 40
2.0
  9
$STEPSIZE
 40
6.0
  9
$3DDWFPREC
 40
2.0
  9
$PSOLWIDTH
 40
5.0
  9
$PSOLHEIGHT
 40
80.0
  9
$LOFTANG1
 40
1.570796326794896
  9
$LOFTANG2
 40
1.570796326794896
  9
$LOFTMAG1
 40
0.0
  9
$LOFTMAG2
 40
0.0
  9
$LOFTPARAM
 70
     7
  9
$LOFTNORMALS
280
     1
  9
$LATITUDE
 40
37.795
  9
$LONGITUDE
 40
-122.394
  9
$NORTHDIRECTION
 40
0.0
  9
$TIMEZONE
 70
 -8000
  9
$LIGHTGLYPHDISPLAY
280
     1
  9
$TILEMODELIGHTSYNCH
280
     1
  9
$CMATERIAL
347
EC
  9
$SOLIDHIST
280
     1
  9
$SHOWHIST
280
     1
  9
$DWFFRAME
280
     2
  9
$DGNFRAME
280
     0
  9
$REALWORLDSCALE
290
     1
  9
$INTERFERECOLOR
 62
     1
  9
$INTERFEREOBJVS
345
F9
  9
$INTERFEREVPVS
346
F6
  9
$CSHADOW
280
     0
  9
$SHADOWPLANELOCATION
 40
0.0
  0
ENDSEC
  0
SECTION
  2
CLASSES
  0
CLASS
  1
ACDBDICTIONARYWDFLT
  2
AcDbDictionaryWithDefault
  3
ObjectDBX Classes
 90
        0
 91
        1
280
     0
281
     0
  0
CLASS
  1
ACDBPLACEHOLDER
  2
AcDbPlaceHolder
  3
ObjectDBX Classes
 90
        0
 91
        1
280
     0
281
     0
  0
CLASS
  1
LAYOUT
  2
AcDbLayout
  3
ObjectDBX Classes
 90
        0
 91
        2
280
     0
281
     0
  0
CLASS
  1
DICTIONARYVAR
  2
AcDbDictionaryVar
  3
ObjectDBX Classes
 90
        0
 91
        7
280
     0
281
     0
  0
CLASS
  1
TABLESTYLE
  2
AcDbTableStyle
  3
ObjectDBX Classes
 90
     4095
 91
        1
280
     0
281
     0
  0
CLASS
  1
MATERIAL
  2
AcDbMaterial
  3
ObjectDBX Classes
 90
     1153
 91
        3
280
     0
281
     0
  0
CLASS
  1
VISUALSTYLE
  2
AcDbVisualStyle
  3
ObjectDBX Classes
 90
     4095
 91
       16
280
     0
281
     0
  0
CLASS
  1
SCALE
  2
AcDbScale
  3
ObjectDBX Classes
 90
     1153
 91
       17
280
     0
281
     0
  0
CLASS
  1
MLEADERSTYLE
  2
AcDbMLeaderStyle
  3
ACDB_MLEADERSTYLE_CLASS
 90
     4095
 91
        1
280
     0
281
     0
  0
CLASS
  1
CELLSTYLEMAP
  2
AcDbCellStyleMap
  3
ObjectDBX Classes
 90
     1152
 91
        2
280
     0
281
     0
  0
CLASS
  1
EXACXREFPANELOBJECT
  2
ExAcXREFPanelObject
  3
EXAC_ESW
 90
    33793
 91
        0
280
     0
281
     0
  0
CLASS
  1
NPOCOLLECTION
  2
AcDbImpNonPersistentObjectsCollection
  3
ObjectDBX Classes
 90
     1153
 91
        0
280
     0
281
     0
  0
CLASS
  1
LAYER_INDEX
  2
AcDbLayerIndex
  3
ObjectDBX Classes
 90
        0
 91
        0
280
     0
281
     0
  0
CLASS
  1
SPATIAL_INDEX
  2
AcDbSpatialIndex
  3
ObjectDBX Classes
 90
        0
 91
        0
280
     0
281
     0
  0
CLASS
  1
IDBUFFER
  2
AcDbIdBuffer
  3
ObjectDBX Classes
 90
        0
 91
        0
280
     0
281
     0
  0
CLASS
  1
RASTERVARIABLES
  2
AcDbRasterVariables
  3
ISM
 90
        0
 91
        2
280
     0
281
     0
  0
CLASS
  1
IMAGEDEF
  2
AcDbRasterImageDef
  3
ISM
 90
        0
 91
        5
280
     0
281
     0
  0
CLASS
  1
IMAGEDEF_REACTOR
  2
AcDbRasterImageDefReactor
  3
ISM
 90
        1
 91
        5
280
     0
281
     0
  0
CLASS
  1
IMAGE
  2
AcDbRasterImage
  3
ISM
 90
     2175
 91
        5
280
     0
281
     1
  0
CLASS
  1
LWPOLYLINE
  2
AcDbPolyline
  3
ObjectDBX Classes
 90
        0
 91
        0
280
     0
281
     1
  0
CLASS
  1
OLE2FRAME
  2
AcDbOle2Frame
  3
ObjectDBX Classes
 90
        0
 91
        0
280
     0
281
     1
  0
CLASS
  1
HATCH
  2
AcDbHatch
  3
ObjectDBX Classes
 90
        0
 91
        0
280
     0
281
     1
  0
CLASS
  1
XRECORD
  2
AcDbXrecord
  3
ObjectDBX Classes
 90
        0
 91
        9
280
     0
281
     0
  0
CLASS
  1
SORTENTSTABLE
  2
AcDbSortentsTable
  3
ObjectDBX Classes
 90
        0
 91
        0
280
     0
281
     0
  0
CLASS
  1
OBJECT_PTR
  2
CAseDLPNTableRecord
  3
"ASE-LPNTableRecord"
 90
    32769
 91
        0
280
     0
281
     0
  0
CLASS
  1
PLOTSETTINGS
  2
AcDbPlotSettings
  3
ObjectDBX Classes
 90
        0
 91
        0
280
     0
281
     0
  0
CLASS
  1
VBA_PROJECT
  2
AcDbVbaProject
  3
acad
 90
        0
 91
        0
280
     0
281
     0
  0
CLASS
  1
WIPEOUT
  2
AcDbWipeout
  3
WipeOut|AutoCAD Express Tool|expresstools@autodesk.com
 90
    32895
 91
        0
280
     0
281
     1
  0
CLASS
  1
WIPEOUTVARIABLES
  2
AcDbWipeoutVariables
  3
WipeOut|AutoCAD Express Tool|expresstools@autodesk.com
 90
    32768
 91
        0
280
     0
281
     0
  0
CLASS
  1
RTEXT
  2
RText
  3
RText|AutoCAD Express Tool|expresstools@autodesk.com
 90
    32768
 91
        0
280
     0
281
     1
  0
CLASS
  1
ARCALIGNEDTEXT
  2
AcDbArcAlignedText
  3
ATEXT|AutoCAD Express Tool|expresstools@autodesk.com
 90
    32768
 91
        0
280
     0
281
     1
  0
ENDSEC
  0
SECTION
  2
TABLES
  0
TABLE
  2
VPORT
  5
71B
100
AcDbSymbolTable
 70
     1
  0
VPORT
  5
71C
100
AcDbSymbolTableRecord
100
AcDbViewportTableRecord
  2
*ACTIVE
 70
     0
 10
0.000000
 20
0.000000
 11
1.000000
 21
1.000000
 12
50.000000
 22
50.000000
 13
0.000000
 23
0.000000
 14
1.000000
 24
1.000000
 15
10.000000
 25
10.000000
 16
0.000000
 26
0.000000
 36
1.000000
 17
0.000000
 27
0.000000
 37
0.000000
 40
100.000000
 41
1.387409
 42
50.000000
 43
0.000000
 44
0.000000
 50
0.000000
 51
0.000000
 71
     0
 72
   100
 73
     1
 74
     1
 75
     0
 76
     0
 77
     0
 78
     0
  0
ENDTAB
  0
TABLE
  2
LTYPE
  5
71D
330
0
100
AcDbSymbolTable
 70
     9
  0
LTYPE
  5
71E
330
71D
100
AcDbSymbolTableRecord
100
AcDbLinetypeTableRecord
  2
ByBlock
 70
     0
  3

 72
    65
 73
     0
 40
0.000000
  0
LTYPE
  5
71F
330
71D
100
AcDbSymbolTableRecord
100
AcDbLinetypeTableRecord
  2
ByLayer
 70
     0
  3

 72
    65
 73
     0
 40
0.000000
  0
LTYPE
  5
720
330
71D
100
AcDbSymbolTableRecord
100
AcDbLinetypeTableRecord
  2
CONTINUOUS
 70
     0
  3
Solid line
 72
    65
 73
     0
 40
0.000000
  0
LTYPE
  5
721
330
71D
100
AcDbSymbolTableRecord
100
AcDbLinetypeTableRecord
  2
HIDDEN
 70
     0
  3
_ _ _ _ _ _ _ _ _ _ _ _ _ _ _ _ _ _ _ _ _ _ _
 72
    65
 73
     2
 40
0.375000
 49
0.250000
 74
     0
 49
-0.125000
 74
     0
  0
LTYPE
  5
722
330
71D
100
AcDbSymbolTableRecord
100
AcDbLinetypeTableRecord
  2
DOT
 70
     0
  3
...............................................
 72
    65
 73
     2
 40
0.250000
 49
0.000000
 74
     0
 49
-0.250000
 74
     0
  0
LTYPE
  5
723
330
71D
100
AcDbSymbolTableRecord
100
AcDbLinetypeTableRecord
  2
DASHED
 70
     0
  3
__ __ __ __ __ __ __ __ __ __ __ __ __ __ __ 
 72
    65
 73
     2
 40
0.750000
 49
0.500000
 74
     0
 49
-0.250000
 74
     0
  0
LTYPE
  5
724
330
71D
100
AcDbSymbolTableRecord
100
AcDbLinetypeTableRecord
  2
DIVIDE
 70
     0
  3
__ . . __ . . __ . . __ . . __ . . __ . . __
 72
    65
 73
     6
 40
1.250000
 49
0.500000
 74
     0
 49
-0.250000
 74
     0
 49
0.000000
 74
     0
 49
-0.250000
 74
     0
 49
0.000000
 74
     0
 49
-0.250000
 74
     0
  0
LTYPE
  5
725
330
71D
100
AcDbSymbolTableRecord
100
AcDbLinetypeTableRecord
  2
DASHDOT
 70
     0
  3
__ . __ . __ . __ . __ . __ . __ . __ . __ . __
 72
    65
 73
     4
 40
1.000000
 49
0.500000
 74
     0
 49
-0.250000
 74
     0
 49
0.000000
 74
     0
 49
-0.250000
 74
     0
  0
LTYPE
  5
726
330
71D
100
AcDbSymbolTableRecord
100
AcDbLinetypeTableRecord
  2
BORDER
 70
     0
  3
__ __ . __ __ . __ __ . __ __ . __ __ . __ __
 72
    65
 73
     6
 40
1.750000
 49
0.500000
 74
     0
 49
-0.250000
 74
     0
 49
0.500000
 74
     0
 49
-0.250000
 74
     0
 49
0.000000
 74
     0
 49
-0.250000
 74
     0
  0
LTYPE
  5
727
330
71D
100
AcDbSymbolTableRecord
100
AcDbLinetypeTableRecord
  2
CENTER
 70
     0
  3
____ _ ____ _ ____ _ ____ _ ____ _ ____ _ ____
 72
    65
 73
     4
 40
2.000000
 49
1.250000
 74
     0
 49
-0.250000
 74
     0
 49
0.250000
 74
     0
 49
-0.250000
 74
     0
  0
LTYPE
  5
728
330
71D
100
AcDbSymbolTableRecord
100
AcDbLinetypeTableRecord
  2
PHANTOM
 70
     0
  3
_____ _ _ _____ _ _ _____ _ _ _____ _ _ ____
 72
    65
 73
     6
 40
2.500000
 49
1.250000
 74
     0
 49
-0.250000
 74
     0
 49
0.250000
 74
     0
 49
-0.250000
 74
     0
 49
0.250000
 74
     0
 49
-0.250000
 74
     0
  0
ENDTAB
  0
TABLE
  2
LAYER
  5
729
100
AcDbSymbolTable
 70
     4
  0
LAYER
  5
72A
100
AcDbSymbolTableRecord
100
AcDbLayerTableRecord
  2
0
 70
     0
 62
     7
  6
CONTINUOUS
370
    -3
390
     0
  0
LAYER
  5
72B
100
AcDbSymbolTableRecord
100
AcDbLayerTableRecord
  2
Detail
 70
     0
 62
     7
  6
CONTINUOUS
370
    -3
390
     0
  0
LAYER
  5
72C
100
AcDbSymbolTableRecord
100
AcDbLayerTableRecord
  2
SCHRAFF
 70
     0
 62
     7
  6
CONTINUOUS
370
    -3
390
     0
  0
LAYER
  5
72D
100
AcDbSymbolTableRecord
100
AcDbLayerTableRecord
  2
L
 70
     0
 62
     7
  6
CONTINUOUS
370
    -3
390
     0
  0
ENDTAB
  0
TABLE
  2
STYLE
  5
72E
100
AcDbSymbolTable
 70
     2
  0
STYLE
  5
201
100
AcDbSymbolTableRecord
100
AcDbTextStyleTableRecord
  2
STANDARD
 70
     0
 40
0.000000
 41
1.000000
 50
0.000000
 71
     0
 42
3.500000
  3
txt
  4

  0
STYLE
  5
2FF
100
AcDbSymbolTableRecord
100
AcDbTextStyleTableRecord
  2
Arial
 70
     0
 40
0.000000
 41
1.000000
 50
0.000000
 71
     0
 42
3.500000
  3
Arial.ttf
  4

1001
ACAD
1000
Arial
1071
     0
  0
ENDTAB
  0
TABLE
  2
DIMSTYLE
  5
72F
100
AcDbSymbolTable
 70
     0
100
AcDbDimStyleTable
  0
ENDTAB
  0
TABLE
  2
VIEW
  5
730
100
AcDbSymbolTable
 70
     0
  0
ENDTAB
  0
TABLE
  2
UCS
  5
731
100
AcDbSymbolTable
 70
     0
  0
ENDTAB
  0
TABLE
  2
APPID
  5
732
100
AcDbSymbolTable
 70
     1
  0
APPID
  5
733
100
AcDbSymbolTableRecord
100
AcDbRegAppTableRecord
  2
ACAD
 70
     0
  0
ENDTAB
  0
TABLE
  2
BLOCK_RECORD
  5
734
100
AcDbSymbolTable
 70
    80
  0
BLOCK_RECORD
  5
202
102
{ACAD_XDICTIONARY
360
203
102
}
100
AcDbSymbolTableRecord
100
AcDbBlockTableRecord
  2
*Model_Space
  0
BLOCK_RECORD
  5
735
100
AcDbSymbolTableRecord
100
AcDbBlockTableRecord
  2
*Paper_Space
  0
BLOCK_RECORD
  5
736
100
AcDbSymbolTableRecord
100
AcDbBlockTableRecord
  2
*Paper_Space0
  0
BLOCK_RECORD
  5
737
100
AcDbSymbolTableRecord
100
AcDbBlockTableRecord
  2
B
  0
BLOCK_RECORD
  5
738
100
AcDbSymbolTableRecord
100
AcDbBlockTableRecord
  2
B-2
  0
BLOCK_RECORD
  5
739
100
AcDbSymbolTableRecord
100
AcDbBlockTableRecord
  2
B-3
  0
BLOCK_RECORD
  5
73A
100
AcDbSymbolTableRecord
100
AcDbBlockTableRecord
  2
B-4
  0
BLOCK_RECORD
  5
73B
100
AcDbSymbolTableRecord
100
AcDbBlockTableRecord
  2
B-5
  0
BLOCK_RECORD
  5
73C
100
AcDbSymbolTableRecord
100
AcDbBlockTableRecord
  2
B-6
  0
BLOCK_RECORD
  5
73D
100
AcDbSymbolTableRecord
100
AcDbBlockTableRecord
  2
B-7
  0
BLOCK_RECORD
  5
73E
100
AcDbSymbolTableRecord
100
AcDbBlockTableRecord
  2
B-8
  0
BLOCK_RECORD
  5
73F
100
AcDbSymbolTableRecord
100
AcDbBlockTableRecord
  2
B-9
  0
BLOCK_RECORD
  5
740
100
AcDbSymbolTableRecord
100
AcDbBlockTableRecord
  2
B-10
  0
BLOCK_RECORD
  5
741
100
AcDbSymbolTableRecord
100
AcDbBlockTableRecord
  2
B-11
  0
BLOCK_RECORD
  5
742
100
AcDbSymbolTableRecord
100
AcDbBlockTableRecord
  2
B-12
  0
BLOCK_RECORD
  5
743
100
AcDbSymbolTableRecord
100
AcDbBlockTableRecord
  2
B-13
  0
BLOCK_RECORD
  5
744
100
AcDbSymbolTableRecord
100
AcDbBlockTableRecord
  2
B-14
  0
BLOCK_RECORD
  5
745
100
AcDbSymbolTableRecord
100
AcDbBlockTableRecord
  2
B-15
  0
BLOCK_RECORD
  5
746
100
AcDbSymbolTableRecord
100
AcDbBlockTableRecord
  2
B-16
  0
BLOCK_RECORD
  5
747
100
AcDbSymbolTableRecord
100
AcDbBlockTableRecord
  2
B-17
  0
BLOCK_RECORD
  5
748
100
AcDbSymbolTableRecord
100
AcDbBlockTableRecord
  2
B-18
  0
BLOCK_RECORD
  5
749
100
AcDbSymbolTableRecord
100
AcDbBlockTableRecord
  2
B-19
  0
BLOCK_RECORD
  5
74A
100
AcDbSymbolTableRecord
100
AcDbBlockTableRecord
  2
B-20
  0
BLOCK_RECORD
  5
74B
100
AcDbSymbolTableRecord
100
AcDbBlockTableRecord
  2
B-21
  0
BLOCK_RECORD
  5
74C
100
AcDbSymbolTableRecord
100
AcDbBlockTableRecord
  2
B-22
  0
BLOCK_RECORD
  5
74D
100
AcDbSymbolTableRecord
100
AcDbBlockTableRecord
  2
B-23
  0
BLOCK_RECORD
  5
74E
100
AcDbSymbolTableRecord
100
AcDbBlockTableRecord
  2
B-24
  0
BLOCK_RECORD
  5
74F
100
AcDbSymbolTableRecord
100
AcDbBlockTableRecord
  2
B-25
  0
BLOCK_RECORD
  5
750
100
AcDbSymbolTableRecord
100
AcDbBlockTableRecord
  2
B-26
  0
BLOCK_RECORD
  5
751
100
AcDbSymbolTableRecord
100
AcDbBlockTableRecord
  2
B-27
  0
BLOCK_RECORD
  5
752
100
AcDbSymbolTableRecord
100
AcDbBlockTableRecord
  2
B-28
  0
BLOCK_RECORD
  5
753
100
AcDbSymbolTableRecord
100
AcDbBlockTableRecord
  2
B-29
  0
BLOCK_RECORD
  5
754
100
AcDbSymbolTableRecord
100
AcDbBlockTableRecord
  2
B-30
  0
BLOCK_RECORD
  5
755
100
AcDbSymbolTableRecord
100
AcDbBlockTableRecord
  2
B-31
  0
BLOCK_RECORD
  5
756
100
AcDbSymbolTableRecord
100
AcDbBlockTableRecord
  2
B-32
  0
BLOCK_RECORD
  5
757
100
AcDbSymbolTableRecord
100
AcDbBlockTableRecord
  2
B-33
  0
BLOCK_RECORD
  5
758
100
AcDbSymbolTableRecord
100
AcDbBlockTableRecord
  2
B-34
  0
BLOCK_RECORD
  5
759
100
AcDbSymbolTableRecord
100
AcDbBlockTableRecord
  2
B-35
  0
BLOCK_RECORD
  5
75A
100
AcDbSymbolTableRecord
100
AcDbBlockTableRecord
  2
B-36
  0
BLOCK_RECORD
  5
75B
100
AcDbSymbolTableRecord
100
AcDbBlockTableRecord
  2
B-37
  0
BLOCK_RECORD
  5
75C
100
AcDbSymbolTableRecord
100
AcDbBlockTableRecord
  2
B-38
  0
BLOCK_RECORD
  5
75D
100
AcDbSymbolTableRecord
100
AcDbBlockTableRecord
  2
B-39
  0
BLOCK_RECORD
  5
75E
100
AcDbSymbolTableRecord
100
AcDbBlockTableRecord
  2
B-40
  0
BLOCK_RECORD
  5
75F
100
AcDbSymbolTableRecord
100
AcDbBlockTableRecord
  2
B-41
  0
BLOCK_RECORD
  5
760
100
AcDbSymbolTableRecord
100
AcDbBlockTableRecord
  2
B-42
  0
BLOCK_RECORD
  5
761
100
AcDbSymbolTableRecord
100
AcDbBlockTableRecord
  2
B-43
  0
BLOCK_RECORD
  5
762
100
AcDbSymbolTableRecord
100
AcDbBlockTableRecord
  2
B-44
  0
BLOCK_RECORD
  5
763
100
AcDbSymbolTableRecord
100
AcDbBlockTableRecord
  2
B-45
  0
BLOCK_RECORD
  5
764
100
AcDbSymbolTableRecord
100
AcDbBlockTableRecord
  2
B-46
  0
BLOCK_RECORD
  5
765
100
AcDbSymbolTableRecord
100
AcDbBlockTableRecord
  2
B-47
  0
BLOCK_RECORD
  5
766
100
AcDbSymbolTableRecord
100
AcDbBlockTableRecord
  2
B-48
  0
BLOCK_RECORD
  5
767
100
AcDbSymbolTableRecord
100
AcDbBlockTableRecord
  2
B-49
  0
BLOCK_RECORD
  5
768
100
AcDbSymbolTableRecord
100
AcDbBlockTableRecord
  2
B-50
  0
BLOCK_RECORD
  5
769
100
AcDbSymbolTableRecord
100
AcDbBlockTableRecord
  2
B-51
  0
BLOCK_RECORD
  5
76A
100
AcDbSymbolTableRecord
100
AcDbBlockTableRecord
  2
B-52
  0
BLOCK_RECORD
  5
76B
100
AcDbSymbolTableRecord
100
AcDbBlockTableRecord
  2
B-53
  0
BLOCK_RECORD
  5
76C
100
AcDbSymbolTableRecord
100
AcDbBlockTableRecord
  2
B-54
  0
BLOCK_RECORD
  5
76D
100
AcDbSymbolTableRecord
100
AcDbBlockTableRecord
  2
B-55
  0
BLOCK_RECORD
  5
76E
100
AcDbSymbolTableRecord
100
AcDbBlockTableRecord
  2
B-56
  0
BLOCK_RECORD
  5
76F
100
AcDbSymbolTableRecord
100
AcDbBlockTableRecord
  2
B-57
  0
BLOCK_RECORD
  5
770
100
AcDbSymbolTableRecord
100
AcDbBlockTableRecord
  2
B-58
  0
BLOCK_RECORD
  5
771
100
AcDbSymbolTableRecord
100
AcDbBlockTableRecord
  2
B-60
  0
BLOCK_RECORD
  5
772
100
AcDbSymbolTableRecord
100
AcDbBlockTableRecord
  2
B-61
  0
BLOCK_RECORD
  5
773
100
AcDbSymbolTableRecord
100
AcDbBlockTableRecord
  2
B-62
  0
BLOCK_RECORD
  5
774
100
AcDbSymbolTableRecord
100
AcDbBlockTableRecord
  2
B-63
  0
BLOCK_RECORD
  5
775
100
AcDbSymbolTableRecord
100
AcDbBlockTableRecord
  2
B-64
  0
BLOCK_RECORD
  5
776
100
AcDbSymbolTableRecord
100
AcDbBlockTableRecord
  2
B-65
  0
BLOCK_RECORD
  5
777
100
AcDbSymbolTableRecord
100
AcDbBlockTableRecord
  2
B-66
  0
BLOCK_RECORD
  5
778
100
AcDbSymbolTableRecord
100
AcDbBlockTableRecord
  2
B-67
  0
BLOCK_RECORD
  5
779
100
AcDbSymbolTableRecord
100
AcDbBlockTableRecord
  2
B-68
  0
BLOCK_RECORD
  5
77A
100
AcDbSymbolTableRecord
100
AcDbBlockTableRecord
  2
B-69
  0
BLOCK_RECORD
  5
77B
100
AcDbSymbolTableRecord
100
AcDbBlockTableRecord
  2
B-70
  0
BLOCK_RECORD
  5
77C
100
AcDbSymbolTableRecord
100
AcDbBlockTableRecord
  2
B-72
  0
BLOCK_RECORD
  5
77D
100
AcDbSymbolTableRecord
100
AcDbBlockTableRecord
  2
B-73
  0
BLOCK_RECORD
  5
77E
100
AcDbSymbolTableRecord
100
AcDbBlockTableRecord
  2
B-74
  0
BLOCK_RECORD
  5
77F
100
AcDbSymbolTableRecord
100
AcDbBlockTableRecord
  2
B-75
  0
BLOCK_RECORD
  5
780
100
AcDbSymbolTableRecord
100
AcDbBlockTableRecord
  2
B-76
  0
BLOCK_RECORD
  5
781
100
AcDbSymbolTableRecord
100
AcDbBlockTableRecord
  2
B-77
  0
BLOCK_RECORD
  5
782
100
AcDbSymbolTableRecord
100
AcDbBlockTableRecord
  2
B-78
  0
BLOCK_RECORD
  5
783
100
AcDbSymbolTableRecord
100
AcDbBlockTableRecord
  2
B-79
  0
ENDTAB
  0
ENDSEC
  0
SECTION
  2
BLOCKS
  0
BLOCK
  5
204
100
AcDbEntity
  8
0
100
AcDbBlockBegin
  2
*Model_Space
 70
     0
 10
0.000000
 20
0.000000
 30
0.000000
  3
*Model_Space
  1

  0
ENDBLK
  5
205
100
AcDbEntity
  8
0
100
AcDbBlockEnd
  0
BLOCK
  5
206
100
AcDbEntity
 67
     1
  8
0
100
AcDbBlockBegin
  2
*Paper_Space
 70
     0
 10
0.000000
 20
0.000000
 30
0.000000
  3
*Paper_Space
  1

  0
ENDBLK
  5
207
100
AcDbEntity
 67
     1
  8
0
100
AcDbBlockEnd
  0
BLOCK
  5
208
100
AcDbEntity
 67
     1
  8
0
100
AcDbBlockBegin
  2
*Paper_Space0
 70
     0
 10
0.000000
 20
0.000000
 30
0.000000
  3
*Paper_Space0
  1

  0
ENDBLK
  5
209
100
AcDbEntity
 67
     1
  8
0
100
AcDbBlockEnd
  0
BLOCK
  5
20A
100
AcDbEntity
  8
SCHRAFF
100
AcDbBlockBegin
  2
B
 70
    66
 10
0.000000
 20
0.000000
 30
0.000000
  0
HATCH
  5
20B
100
AcDbEntity
  8
SCHRAFF
  6
CONTINUOUS
 62
     9
100
AcDbHatch
 10
0.000000
 20
0.000000
 30
0.000000
210
0.000000
220
0.000000
230
1.000000
  2
_U
 70
     0
 71
     1
 91
     1
 92
    18
 72
     1
 73
     0
 93
     5
 10
-152.500018
 20
36.395299
 42
0.000000
 10
-152.500018
 20
-196.249941
 42
0.000000
 10
-212.500018
 20
-196.249941
 42
0.000000
 10
-212.500018
 20
36.395299
 42
0.000000
 10
-152.500018
 20
36.395299
 42
0.000000
 97
     0
 75
     0
 76
     0
 52
0.000000
 41
1.000000
 77
     0
 78
     1
 53
45.000000
 43
-0.000000
 44
0.000000
 45
-17.677670
 46
17.677670
 79
     0
 98
     0
  0
ENDBLK
  5
20C
100
AcDbEntity
  8
0
100
AcDbBlockEnd
  0
BLOCK
  5
20D
100
AcDbEntity
  8
Detail
100
AcDbBlockBegin
  2
B-2
 70
    66
 10
0.000000
 20
0.000000
 30
0.000000
  0
LWPOLYLINE
  5
20E
100
AcDbEntity
  8
Detail
  6
CONTINUOUS
 62
     9
100
AcDbPolyline
 90
     2
 10
-169.500018
 20
41.395299
 42
0.000000
 10
-212.500018
 20
98.728633
 42
0.000000
  0
LWPOLYLINE
  5
211
100
AcDbEntity
  8
Detail
  6
CONTINUOUS
 62
     9
100
AcDbPolyline
 90
     2
 10
-169.500018
 20
201.395299
 42
0.000000
 10
-212.500018
 20
144.061966
 42
0.000000
  0
ENDBLK
  5
214
100
AcDbEntity
  8
0
100
AcDbBlockEnd
  0
BLOCK
  5
215
100
AcDbEntity
  8
SCHRAFF
100
AcDbBlockBegin
  2
B-3
 70
    66
 10
0.000000
 20
0.000000
 30
0.000000
  0
HATCH
  5
216
100
AcDbEntity
  8
SCHRAFF
  6
CONTINUOUS
 62
     9
100
AcDbHatch
 10
0.000000
 20
0.000000
 30
0.000000
210
0.000000
220
0.000000
230
1.000000
  2
_U
 70
     0
 71
     1
 91
     1
 92
    18
 72
     1
 73
     0
 93
     5
 10
-167.500018
 20
201.395299
 42
0.000000
 10
-167.500018
 20
41.395299
 42
0.000000
 10
-152.500018
 20
41.395299
 42
0.000000
 10
-152.500018
 20
201.395299
 42
0.000000
 10
-167.500018
 20
201.395299
 42
0.000000
 97
     0
 75
     0
 76
     0
 52
0.000000
 41
1.000000
 77
     0
 78
     2
 53
45.000000
 43
-0.000000
 44
0.000000
 45
-4.861359
 46
4.861359
 79
     0
 53
-45.000000
 43
0.000000
 44
0.000000
 45
4.861359
 46
4.861359
 79
     0
 98
     0
  0
ENDBLK
  5
217
100
AcDbEntity
  8
0
100
AcDbBlockEnd
  0
BLOCK
  5
218
100
AcDbEntity
  8
SCHRAFF
100
AcDbBlockBegin
  2
B-4
 70
    66
 10
0.000000
 20
0.000000
 30
0.000000
  0
HATCH
  5
219
100
AcDbEntity
  8
SCHRAFF
 62
    21
440
     0
100
AcDbHatch
 10
0.000000
 20
0.000000
 30
0.000000
210
0.000000
220
0.000000
230
1.000000
  2
SOLID
 70
     1
 71
     1
 91
     1
 92
    18
 72
     1
 73
     0
 93
   289
 10
-61.500018
 20
22.082922
 42
0.000000
 10
-61.500018
 20
21.082922
 42
0.000000
 10
-61.000018
 20
20.082922
 42
0.000000
 10
-61.500018
 20
19.082922
 42
0.000000
 10
-61.500018
 20
18.082922
 42
0.000000
 10
-62.000018
 20
17.082922
 42
0.000000
 10
-61.500018
 20
16.082922
 42
0.000000
 10
-61.500018
 20
15.082922
 42
0.000000
 10
-61.000018
 20
14.082922
 42
0.000000
 10
-61.500018
 20
13.082922
 42
0.000000
 10
-61.500018
 20
12.082922
 42
0.000000
 10
-62.000018
 20
11.082922
 42
0.000000
 10
-61.500018
 20
10.082922
 42
0.000000
 10
-61.500018
 20
9.082922
 42
0.000000
 10
-61.000018
 20
8.082922
 42
0.000000
 10
-61.500018
 20
7.082922
 42
0.000000
 10
-61.500018
 20
6.082922
 42
0.000000
 10
-62.000018
 20
5.082922
 42
0.000000
 10
-61.500018
 20
4.082922
 42
0.000000
 10
-61.500018
 20
3.082922
 42
0.000000
 10
-61.000018
 20
2.082922
 42
0.000000
 10
-61.500018
 20
1.082922
 42
0.000000
 10
-61.500018
 20
0.082922
 42
0.000000
 10
-62.000018
 20
-0.917078
 42
0.000000
 10
-61.500018
 20
-1.917078
 42
0.000000
 10
-61.500018
 20
-2.917078
 42
0.000000
 10
-61.000018
 20
-3.917078
 42
0.000000
 10
-61.500018
 20
-4.917078
 42
0.000000
 10
-61.500018
 20
-5.917078
 42
0.000000
 10
-62.000018
 20
-6.917078
 42
0.000000
 10
-61.500018
 20
-7.917078
 42
0.000000
 10
-61.500018
 20
-8.917078
 42
0.000000
 10
-61.000018
 20
-9.917078
 42
0.000000
 10
-61.500018
 20
-10.917078
 42
0.000000
 10
-61.500018
 20
-11.917078
 42
0.000000
 10
-62.000018
 20
-12.917078
 42
0.000000
 10
-61.500018
 20
-13.917078
 42
0.000000
 10
-61.500018
 20
-14.917078
 42
0.000000
 10
-61.000018
 20
-15.917078
 42
0.000000
 10
-61.500018
 20
-16.917078
 42
0.000000
 10
-61.500018
 20
-17.917078
 42
0.000000
 10
-62.000018
 20
-18.917078
 42
0.000000
 10
-61.500018
 20
-19.917078
 42
0.000000
 10
-61.500018
 20
-20.917078
 42
0.000000
 10
-61.000018
 20
-21.917078
 42
0.000000
 10
-61.500018
 20
-22.917078
 42
0.000000
 10
-61.500018
 20
-23.917078
 42
0.000000
 10
-62.000018
 20
-24.917078
 42
0.000000
 10
-61.500018
 20
-25.917078
 42
0.000000
 10
-61.500018
 20
-26.917078
 42
0.000000
 10
-61.000018
 20
-27.917078
 42
0.000000
 10
-61.500018
 20
-28.917078
 42
0.000000
 10
-61.500018
 20
-29.917078
 42
0.000000
 10
-62.000018
 20
-30.917078
 42
0.000000
 10
-61.500018
 20
-31.917078
 42
0.000000
 10
-61.500018
 20
-32.917078
 42
0.000000
 10
-61.000018
 20
-33.917078
 42
0.000000
 10
-61.500018
 20
-34.917078
 42
0.000000
 10
-61.500018
 20
-35.917078
 42
0.000000
 10
-62.000018
 20
-36.917078
 42
0.000000
 10
-61.500018
 20
-37.917078
 42
0.000000
 10
-61.500018
 20
-38.917078
 42
0.000000
 10
-61.000018
 20
-39.917078
 42
0.000000
 10
-61.500018
 20
-40.917078
 42
0.000000
 10
-61.500018
 20
-41.917078
 42
0.000000
 10
-62.000018
 20
-42.917078
 42
0.000000
 10
-61.500018
 20
-43.917078
 42
0.000000
 10
-61.500018
 20
-44.917078
 42
0.000000
 10
-61.000018
 20
-45.917078
 42
0.000000
 10
-61.500018
 20
-46.917078
 42
0.000000
 10
-61.500018
 20
-47.917078
 42
0.000000
 10
-62.000018
 20
-48.917078
 42
0.000000
 10
-61.500018
 20
-49.917078
 42
0.000000
 10
-61.500018
 20
-50.917078
 42
0.000000
 10
-61.000018
 20
-51.917078
 42
0.000000
 10
-61.500018
 20
-52.917078
 42
0.000000
 10
-61.500018
 20
-53.917078
 42
0.000000
 10
-62.000018
 20
-54.917078
 42
0.000000
 10
-61.500018
 20
-55.917078
 42
0.000000
 10
-61.500018
 20
-56.917078
 42
0.000000
 10
-61.000018
 20
-57.917078
 42
0.000000
 10
-61.500018
 20
-58.917078
 42
0.000000
 10
-61.500018
 20
-59.917078
 42
0.000000
 10
-62.000018
 20
-60.917078
 42
0.000000
 10
-61.500018
 20
-61.917078
 42
0.000000
 10
-61.500018
 20
-62.917078
 42
0.000000
 10
-61.000018
 20
-63.917078
 42
0.000000
 10
-61.500018
 20
-64.917078
 42
0.000000
 10
-61.500018
 20
-65.917078
 42
0.000000
 10
-62.000018
 20
-66.917078
 42
0.000000
 10
-61.500018
 20
-67.917078
 42
0.000000
 10
-61.500018
 20
-68.917078
 42
0.000000
 10
-61.000018
 20
-69.917078
 42
0.000000
 10
-61.500018
 20
-70.917078
 42
0.000000
 10
-61.500018
 20
-71.917078
 42
0.000000
 10
-62.000018
 20
-72.917078
 42
0.000000
 10
-61.500018
 20
-73.917078
 42
0.000000
 10
-61.500018
 20
-74.917078
 42
0.000000
 10
-61.000018
 20
-75.917078
 42
0.000000
 10
-61.500018
 20
-76.917078
 42
0.000000
 10
-61.500018
 20
-77.917078
 42
0.000000
 10
-62.000018
 20
-78.917078
 42
0.000000
 10
-61.500018
 20
-79.917078
 42
0.000000
 10
-61.500018
 20
-80.917078
 42
0.000000
 10
-61.000018
 20
-81.917078
 42
0.000000
 10
-61.500018
 20
-82.917078
 42
0.000000
 10
-61.500018
 20
-83.917078
 42
0.000000
 10
-62.000018
 20
-84.917078
 42
0.000000
 10
-61.500018
 20
-85.917078
 42
0.000000
 10
-61.500018
 20
-86.917078
 42
0.000000
 10
-61.000018
 20
-87.917078
 42
0.000000
 10
-61.500018
 20
-88.917078
 42
0.000000
 10
-61.500018
 20
-89.917078
 42
0.000000
 10
-62.000018
 20
-90.917078
 42
0.000000
 10
-61.500018
 20
-91.917078
 42
0.000000
 10
-61.500018
 20
-92.917078
 42
0.000000
 10
-61.000018
 20
-93.917078
 42
0.000000
 10
-61.500018
 20
-94.917078
 42
0.000000
 10
-61.500018
 20
-95.917078
 42
0.000000
 10
-62.000018
 20
-96.917078
 42
0.000000
 10
-61.500018
 20
-97.917078
 42
0.000000
 10
-61.500018
 20
-98.909411
 42
0.000000
 10
-61.000018
 20
-99.917078
 42
0.000000
 10
-61.500018
 20
-100.917078
 42
0.000000
 10
-61.500018
 20
-101.917078
 42
0.000000
 10
-62.000018
 20
-102.917078
 42
0.000000
 10
-61.500018
 20
-103.917078
 42
0.000000
 10
-61.500018
 20
-104.917078
 42
0.000000
 10
-61.000018
 20
-105.917078
 42
0.000000
 10
-61.500018
 20
-106.917078
 42
0.000000
 10
-61.500018
 20
-107.917078
 42
0.000000
 10
-62.000018
 20
-108.917078
 42
0.000000
 10
-61.500018
 20
-109.917078
 42
0.000000
 10
-61.500018
 20
-110.917078
 42
0.000000
 10
-61.000018
 20
-111.917078
 42
0.000000
 10
-61.500018
 20
-112.917078
 42
0.000000
 10
-61.500018
 20
-113.917078
 42
0.000000
 10
-62.000018
 20
-114.917078
 42
0.000000
 10
-61.500018
 20
-115.917078
 42
0.000000
 10
-61.500018
 20
-116.917078
 42
0.000000
 10
-61.000018
 20
-117.917078
 42
0.000000
 10
-61.500018
 20
-118.917078
 42
0.000000
 10
-61.500018
 20
-119.917078
 42
0.000000
 10
-62.000018
 20
-120.917078
 42
0.000000
 10
-61.500018
 20
-121.917078
 42
0.000000
 10
-61.500018
 20
-122.917078
 42
0.000000
 10
-61.000018
 20
-123.917078
 42
0.000000
 10
-61.500018
 20
-124.917078
 42
0.000000
 10
-61.500018
 20
-125.917078
 42
0.000000
 10
-62.000018
 20
-126.917078
 42
0.000000
 10
-61.500018
 20
-127.917078
 42
0.000000
 10
-61.500018
 20
-128.917078
 42
0.000000
 10
-61.000018
 20
-129.917078
 42
0.000000
 10
-61.500018
 20
-130.908282
 42
0.000000
 10
-61.500018
 20
-131.917078
 42
0.000000
 10
-62.000018
 20
-132.917078
 42
0.000000
 10
-61.500018
 20
-133.917078
 42
0.000000
 10
-61.500018
 20
-134.917078
 42
0.000000
 10
-61.000018
 20
-135.917078
 42
0.000000
 10
-61.500018
 20
-136.917078
 42
0.000000
 10
-61.500018
 20
-137.917078
 42
0.000000
 10
-62.000018
 20
-138.917078
 42
0.000000
 10
-61.500018
 20
-139.917078
 42
0.000000
 10
-61.500018
 20
-140.917078
 42
0.000000
 10
-61.000018
 20
-141.917078
 42
0.000000
 10
-61.500018
 20
-142.917078
 42
0.000000
 10
-61.500018
 20
-143.917078
 42
0.000000
 10
-62.000018
 20
-144.917078
 42
0.000000
 10
-61.500018
 20
-145.917078
 42
0.000000
 10
-61.500018
 20
-146.917078
 42
0.000000
 10
-61.000018
 20
-147.917078
 42
0.000000
 10
-61.500018
 20
-148.917078
 42
0.000000
 10
-61.500018
 20
-149.917078
 42
0.000000
 10
-62.000018
 20
-150.917078
 42
0.000000
 10
-61.500018
 20
-151.917078
 42
0.000000
 10
-61.500018
 20
-152.917078
 42
0.000000
 10
-61.000018
 20
-153.917078
 42
0.000000
 10
-61.500018
 20
-154.917078
 42
0.000000
 10
-61.500018
 20
-155.917078
 42
0.000000
 10
-62.000018
 20
-156.917078
 42
0.000000
 10
-61.500018
 20
-157.917078
 42
0.000000
 10
-61.500018
 20
-158.917078
 42
0.000000
 10
-61.000018
 20
-159.917078
 42
0.000000
 10
-61.500018
 20
-160.917078
 42
0.000000
 10
-61.500018
 20
-161.917078
 42
0.000000
 10
-62.000018
 20
-162.917078
 42
0.000000
 10
-61.500018
 20
-163.917078
 42
0.000000
 10
-61.500018
 20
-164.917078
 42
0.000000
 10
-61.000018
 20
-165.917078
 42
0.000000
 10
-61.500018
 20
-166.917078
 42
0.000000
 10
-61.500018
 20
-167.917078
 42
0.000000
 10
-62.000018
 20
-168.917078
 42
0.000000
 10
-61.500018
 20
-169.917078
 42
0.000000
 10
-61.500018
 20
-170.917078
 42
0.000000
 10
-61.000018
 20
-171.917078
 42
0.000000
 10
-61.495620
 20
-172.908282
 42
0.000000
 10
-61.500018
 20
-173.917078
 42
0.000000
 10
-62.000018
 20
-174.917078
 42
0.000000
 10
-61.500018
 20
-175.917078
 42
0.000000
 10
-61.500018
 20
-176.917078
 42
0.000000
 10
-61.000018
 20
-177.917078
 42
0.000000
 10
-61.500018
 20
-178.917078
 42
0.000000
 10
-61.500018
 20
-179.917078
 42
0.000000
 10
-62.000018
 20
-180.917078
 42
0.000000
 10
-61.500018
 20
-181.917078
 42
0.000000
 10
-61.500018
 20
-182.917078
 42
0.000000
 10
-61.000018
 20
-183.917078
 42
0.000000
 10
-61.500018
 20
-184.917078
 42
0.000000
 10
-61.500018
 20
-185.917078
 42
0.000000
 10
-62.000018
 20
-186.917078
 42
0.000000
 10
-61.500018
 20
-187.917078
 42
0.000000
 10
-61.500018
 20
-188.917078
 42
0.000000
 10
-61.000018
 20
-189.917078
 42
0.000000
 10
-61.500018
 20
-190.917078
 42
0.000000
 10
-61.500018
 20
-191.917078
 42
0.000000
 10
-62.000018
 20
-192.917078
 42
0.000000
 10
-61.500018
 20
-193.917078
 42
0.000000
 10
-61.500018
 20
-194.917078
 42
0.000000
 10
-61.000018
 20
-195.917078
 42
0.000000
 10
-61.166449
 20
-196.249941
 42
0.000000
 10
-63.500018
 20
-196.249941
 42
0.000000
 10
-63.500018
 20
89.237623
 42
0.000000
 10
-61.500018
 20
88.082922
 42
0.000000
 10
-61.500018
 20
87.082922
 42
0.000000
 10
-61.007096
 20
86.097079
 42
0.000000
 10
-61.500018
 20
85.082922
 42
0.000000
 10
-61.500018
 20
84.093118
 42
0.000000
 10
-62.000018
 20
83.082922
 42
0.000000
 10
-61.500018
 20
82.082922
 42
0.000000
 10
-61.500018
 20
81.082922
 42
0.000000
 10
-61.000018
 20
80.082922
 42
0.000000
 10
-61.500018
 20
79.082922
 42
0.000000
 10
-61.500018
 20
78.082922
 42
0.000000
 10
-62.000018
 20
77.082922
 42
0.000000
 10
-61.500018
 20
76.082922
 42
0.000000
 10
-61.500018
 20
75.082922
 42
0.000000
 10
-61.007096
 20
74.097079
 42
0.000000
 10
-61.500018
 20
73.082922
 42
0.000000
 10
-61.500018
 20
72.093118
 42
0.000000
 10
-62.000018
 20
71.082922
 42
0.000000
 10
-61.500018
 20
70.082922
 42
0.000000
 10
-61.500018
 20
69.082922
 42
0.000000
 10
-61.000018
 20
68.082922
 42
0.000000
 10
-61.500018
 20
67.082922
 42
0.000000
 10
-61.500018
 20
66.082922
 42
0.000000
 10
-62.000018
 20
65.082922
 42
0.000000
 10
-61.500018
 20
64.082922
 42
0.000000
 10
-61.500018
 20
63.082922
 42
0.000000
 10
-61.007096
 20
62.097079
 42
0.000000
 10
-61.500018
 20
61.082922
 42
0.000000
 10
-61.500018
 20
60.082922
 42
0.000000
 10
-62.000018
 20
59.082922
 42
0.000000
 10
-61.500018
 20
58.082922
 42
0.000000
 10
-61.500018
 20
57.082922
 42
0.000000
 10
-61.000018
 20
56.082922
 42
0.000000
 10
-61.500018
 20
55.082922
 42
0.000000
 10
-61.500018
 20
54.082922
 42
0.000000
 10
-62.000018
 20
53.082922
 42
0.000000
 10
-61.500018
 20
52.082922
 42
0.000000
 10
-61.500018
 20
51.082922
 42
0.000000
 10
-61.000018
 20
50.082922
 42
0.000000
 10
-61.500018
 20
49.082922
 42
0.000000
 10
-61.500018
 20
48.082922
 42
0.000000
 10
-62.000018
 20
47.082922
 42
0.000000
 10
-61.500018
 20
46.082922
 42
0.000000
 10
-61.500018
 20
45.082922
 42
0.000000
 10
-61.000018
 20
44.082922
 42
0.000000
 10
-61.500018
 20
43.082922
 42
0.000000
 10
-61.500018
 20
42.082922
 42
0.000000
 10
-62.000018
 20
41.082922
 42
0.000000
 10
-61.500018
 20
40.082922
 42
0.000000
 10
-61.500018
 20
39.090589
 42
0.000000
 10
-61.000018
 20
38.082922
 42
0.000000
 10
-61.500018
 20
37.082922
 42
0.000000
 10
-61.500018
 20
36.082922
 42
0.000000
 10
-62.000018
 20
35.082922
 42
0.000000
 10
-61.500018
 20
34.082922
 42
0.000000
 10
-61.500018
 20
33.082922
 42
0.000000
 10
-61.000018
 20
32.082922
 42
0.000000
 10
-61.500018
 20
31.082922
 42
0.000000
 10
-61.500018
 20
30.082922
 42
0.000000
 10
-62.000018
 20
29.082922
 42
0.000000
 10
-61.500018
 20
28.082922
 42
0.000000
 10
-61.500018
 20
27.082922
 42
0.000000
 10
-61.000018
 20
26.082922
 42
0.000000
 10
-61.500018
 20
25.082922
 42
0.000000
 10
-61.500018
 20
24.082922
 42
0.000000
 10
-62.000018
 20
23.082922
 42
0.000000
 10
-61.500018
 20
22.082922
 42
0.000000
 97
     0
 75
     0
 76
     1
 98
     0
  0
ENDBLK
  5
21A
100
AcDbEntity
  8
0
100
AcDbBlockEnd
  0
BLOCK
  5
21B
100
AcDbEntity
  8
SCHRAFF
100
AcDbBlockBegin
  2
B-5
 70
    66
 10
0.000000
 20
0.000000
 30
0.000000
  0
HATCH
  5
21C
100
AcDbEntity
  8
SCHRAFF
 62
    51
440
     0
100
AcDbHatch
 10
0.000000
 20
0.000000
 30
0.000000
210
0.000000
220
0.000000
230
1.000000
  2
SOLID
 70
     1
 71
     1
 91
     1
 92
    18
 72
     1
 73
     0
 93
     5
 10
-87.500018
 20
-48.392171
 42
0.000000
 10
-67.500018
 20
-48.392171
 42
0.000000
 10
-67.500018
 20
11.607829
 42
0.000000
 10
-87.500018
 20
11.607829
 42
0.000000
 10
-87.500018
 20
-48.392171
 42
0.000000
 97
     0
 75
     0
 76
     1
 98
     0
  0
HATCH
  5
21D
100
AcDbEntity
  8
SCHRAFF
  6
CONTINUOUS
 62
     9
100
AcDbHatch
 10
0.000000
 20
0.000000
 30
0.000000
210
0.000000
220
0.000000
230
1.000000
  2
_U
 70
     0
 71
     1
 91
     1
 92
    18
 72
     1
 73
     0
 93
     5
 10
-67.500018
 20
-48.392171
 42
0.000000
 10
-67.500018
 20
11.607829
 42
0.000000
 10
-87.500018
 20
11.607829
 42
0.000000
 10
-87.500018
 20
-48.392171
 42
0.000000
 10
-67.500018
 20
-48.392171
 42
0.000000
 97
     0
 75
     0
 76
     0
 52
0.000000
 41
1.000000
 77
     0
 78
     1
 53
90.000000
 43
-0.000000
 44
0.000000
 45
-6.875000
 46
0.000000
 79
     0
 98
     0
  0
ENDBLK
  5
21E
100
AcDbEntity
  8
0
100
AcDbBlockEnd
  0
BLOCK
  5
21F
100
AcDbEntity
  8
SCHRAFF
100
AcDbBlockBegin
  2
B-6
 70
    66
 10
0.000000
 20
0.000000
 30
0.000000
  0
LWPOLYLINE
  5
220
100
AcDbEntity
  8
SCHRAFF
  6
CONTINUOUS
 62
     9
100
AcDbPolyline
 90
     8
 10
90.148960
 20
31.700735
 42
-0.152207
 10
83.143145
 20
42.634701
 42
-0.193668
 10
85.130264
 20
59.045054
 42
-0.098573
 10
90.905362
 20
65.478206
 42
0.000000
 10
124.170946
 20
87.023380
 42
0.112700
 10
130.967359
 20
94.159808
 42
0.193668
 10
132.954470
 20
110.570156
 42
0.193623
 10
123.091874
 20
123.536910
 42
0.000000
  0
LWPOLYLINE
  5
229
100
AcDbEntity
  8
SCHRAFF
  6
CONTINUOUS
 62
     9
100
AcDbPolyline
 90
     5
 10
122.001103
 20
124.166667
 42
0.193624
 10
105.840202
 20
126.224562
 42
0.193668
 10
92.622008
 20
116.298507
 42
0.112700
 10
89.839886
 20
106.844426
 42
0.000000
 10
89.537463
 20
100.828105
 42
0.000000
  0
LWPOLYLINE
  5
22F
100
AcDbEntity
  8
SCHRAFF
  6
CONTINUOUS
 62
     9
100
AcDbPolyline
 90
     5
 10
89.160460
 20
93.328120
 42
0.000000
 10
87.912376
 20
68.499101
 42
-0.112699
 10
85.130257
 20
59.045058
 42
-0.193668
 10
71.912050
 20
49.119002
 42
-0.154587
 10
58.749567
 20
49.789403
 42
0.000000
  0
LWPOLYLINE
  5
235
100
AcDbEntity
  8
SCHRAFF
  6
CONTINUOUS
 62
     9
100
AcDbPolyline
 90
     5
 10
51.994402
 20
53.680941
 42
-0.155116
 10
44.797791
 20
64.773401
 42
-0.193668
 10
46.784909
 20
81.183755
 42
-0.098573
 10
52.560008
 20
87.616906
 42
0.000000
 10
61.378079
 20
93.328120
 42
0.000000
  0
LWPOLYLINE
  5
23B
100
AcDbEntity
  8
SCHRAFF
  6
CONTINUOUS
 62
     9
100
AcDbPolyline
 90
     5
 10
72.957998
 20
100.828105
 42
0.000000
 10
85.825592
 20
109.162080
 42
0.112700
 10
92.622005
 20
116.298509
 42
0.193668
 10
94.609116
 20
132.708856
 42
0.193623
 10
84.746520
 20
145.675610
 42
0.000000
  0
LWPOLYLINE
  5
241
100
AcDbEntity
  8
SCHRAFF
  6
CONTINUOUS
 62
     9
100
AcDbPolyline
 90
     5
 10
83.655749
 20
146.305367
 42
0.193624
 10
67.494847
 20
148.363262
 42
0.193668
 10
54.276654
 20
138.437208
 42
0.112700
 10
51.494532
 20
128.983127
 42
0.000000
 10
50.079259
 20
100.828105
 42
0.000000
  0
LWPOLYLINE
  5
247
100
AcDbEntity
  8
SCHRAFF
  6
CONTINUOUS
 62
     9
100
AcDbPolyline
 90
     5
 10
49.702257
 20
93.328120
 42
0.000000
 10
49.567022
 20
90.637802
 42
-0.112699
 10
46.784903
 20
81.183759
 42
-0.193668
 10
33.566696
 20
71.257702
 42
-0.157709
 10
20.155618
 20
72.022735
 42
0.000000
  0
LWPOLYLINE
  5
24D
100
AcDbEntity
  8
SCHRAFF
  6
CONTINUOUS
 62
     9
100
AcDbPolyline
 90
     8
 10
13.855865
 20
75.651918
 42
-0.158241
 10
6.452437
 20
86.912102
 42
-0.193668
 10
8.439555
 20
103.322455
 42
-0.098573
 10
14.214654
 20
109.755607
 42
0.000000
 10
47.480238
 20
131.300781
 42
0.112700
 10
54.276651
 20
138.437209
 42
0.193668
 10
56.263762
 20
154.847557
 42
0.193623
 10
46.401166
 20
167.814311
 42
0.000000
  0
LWPOLYLINE
  5
256
100
AcDbEntity
  8
SCHRAFF
  6
CONTINUOUS
 62
     9
100
AcDbPolyline
 90
     8
 10
45.310394
 20
168.444068
 42
0.193624
 10
29.149493
 20
170.501963
 42
0.193668
 10
15.931300
 20
160.575908
 42
0.112700
 10
13.149178
 20
151.121827
 42
0.000000
 10
11.221668
 20
112.776502
 42
-0.112699
 10
8.439548
 20
103.322459
 42
-0.193668
 10
-4.778658
 20
93.396403
 42
-0.161103
 10
-18.458446
 20
94.267656
 42
0.000000
  0
LWPOLYLINE
  5
25F
100
AcDbEntity
  8
SCHRAFF
  6
CONTINUOUS
 62
     9
100
AcDbPolyline
 90
     8
 10
-24.262487
 20
97.611267
 42
-0.161640
 10
-31.892917
 20
109.050802
 42
-0.193668
 10
-29.905799
 20
125.461156
 42
-0.098573
 10
-24.130700
 20
131.894307
 42
0.000000
 10
9.134884
 20
153.439481
 42
0.112700
 10
15.931297
 20
160.575910
 42
0.193668
 10
17.918408
 20
176.986257
 42
0.193623
 10
8.055812
 20
189.953011
 42
0.000000
  0
LWPOLYLINE
  5
268
100
AcDbEntity
  8
SCHRAFF
  6
CONTINUOUS
 62
     9
100
AcDbPolyline
 90
     8
 10
6.965040
 20
190.582768
 42
0.193624
 10
-9.195861
 20
192.640663
 42
0.193668
 10
-22.414054
 20
182.714608
 42
0.112700
 10
-25.196176
 20
173.260528
 42
0.000000
 10
-27.123686
 20
134.915203
 42
-0.112699
 10
-29.905806
 20
125.461160
 42
-0.193668
 10
-43.124012
 20
115.535103
 42
-0.164856
 10
-57.098959
 20
116.527812
 42
0.000000
  0
LWPOLYLINE
  5
271
100
AcDbEntity
  8
SCHRAFF
  6
CONTINUOUS
 62
     9
100
AcDbPolyline
 90
     8
 10
-62.354280
 20
119.555316
 42
-0.165400
 10
-70.238271
 20
131.189503
 42
-0.193668
 10
-68.251153
 20
147.599856
 42
-0.098573
 10
-62.476055
 20
154.033007
 42
0.000000
 10
-29.210470
 20
175.578182
 42
0.112700
 10
-22.414057
 20
182.714610
 42
0.193668
 10
-20.426946
 20
199.124958
 42
0.193623
 10
-30.289542
 20
212.091712
 42
0.000000
  0
LWPOLYLINE
  5
27A
100
AcDbEntity
  8
SCHRAFF
  6
CONTINUOUS
 62
     9
100
AcDbPolyline
 90
     8
 10
-31.380314
 20
212.721469
 42
0.193624
 10
-47.541215
 20
214.779364
 42
0.193668
 10
-60.759408
 20
204.853309
 42
0.112700
 10
-63.541530
 20
195.399228
 42
0.000000
 10
-65.469040
 20
157.053903
 42
-0.112699
 10
-68.251160
 20
147.599860
 42
-0.193668
 10
-81.469366
 20
137.673804
 42
-0.169114
 10
-95.776526
 20
138.809315
 42
0.000000
  0
LWPOLYLINE
  5
283
100
AcDbEntity
  8
SCHRAFF
  6
CONTINUOUS
 62
     9
100
AcDbPolyline
 90
     8
 10
-100.408823
 20
141.477905
 42
-0.169667
 10
-108.583625
 20
153.328203
 42
-0.193668
 10
-106.596507
 20
169.738557
 42
-0.098573
 10
-100.821409
 20
176.171708
 42
0.000000
 10
-67.555824
 20
197.716882
 42
0.112700
 10
-60.759411
 20
204.853311
 42
0.193668
 10
-58.772301
 20
221.263658
 42
0.193623
 10
-68.634896
 20
234.230412
 42
0.000000
  0
LWPOLYLINE
  5
28C
100
AcDbEntity
  8
SCHRAFF
  6
CONTINUOUS
 62
     9
100
AcDbPolyline
 90
     8
 10
-69.725668
 20
234.860169
 42
0.193624
 10
-85.886569
 20
236.918064
 42
0.193668
 10
-99.104762
 20
226.992009
 42
0.112700
 10
-101.886884
 20
217.537929
 42
0.000000
 10
-103.814394
 20
179.192604
 42
-0.112699
 10
-106.596514
 20
169.738561
 42
-0.193668
 10
-119.814720
 20
159.812504
 42
-0.174158
 10
-134.511652
 20
161.123978
 42
0.000000
  0
LWPOLYLINE
  5
295
100
AcDbEntity
  8
SCHRAFF
  6
CONTINUOUS
 62
     9
100
AcDbPolyline
 90
     8
 10
-138.405392
 20
163.367096
 42
-0.174725
 10
-146.928979
 20
175.466904
 42
-0.193668
 10
-144.941861
 20
191.877257
 42
-0.098573
 10
-139.166763
 20
198.310408
 42
0.000000
 10
-105.901178
 20
219.855583
 42
0.112700
 10
-99.104765
 20
226.992011
 42
0.193668
 10
-97.117655
 20
243.402359
 42
0.193623
 10
-106.980250
 20
256.369113
 42
0.000000
  0
LWPOLYLINE
  5
29E
100
AcDbEntity
  8
SCHRAFF
  6
CONTINUOUS
 62
     9
100
AcDbPolyline
 90
     7
 10
-108.071022
 20
256.998870
 42
0.193624
 10
-124.231923
 20
259.056765
 42
0.193668
 10
-137.450116
 20
249.130710
 42
0.112700
 10
-140.232238
 20
239.676629
 42
0.000000
 10
-142.159748
 20
201.331304
 42
-0.112699
 10
-144.941868
 20
191.877261
 42
-0.094661
 10
-150.500018
 20
185.702035
 42
0.000000
  0
LWPOLYLINE
  5
2A6
100
AcDbEntity
  8
SCHRAFF
  6
CONTINUOUS
 62
     9
100
AcDbPolyline
 90
     7
 10
-186.030332
 20
203.395299
 42
-0.125830
 10
-183.287215
 20
214.015958
 42
-0.098573
 10
-177.512117
 20
220.449109
 42
0.000000
 10
-144.246532
 20
241.994283
 42
0.112700
 10
-137.450119
 20
249.130712
 42
0.193668
 10
-135.463009
 20
265.541059
 42
0.193623
 10
-145.325605
 20
278.507813
 42
0.000000
  0
LWPOLYLINE
  5
2AE
100
AcDbEntity
  8
SCHRAFF
  6
CONTINUOUS
 62
     9
100
AcDbPolyline
 90
     8
 10
-146.416376
 20
279.137570
 42
0.193624
 10
-162.577277
 20
281.195465
 42
0.193668
 10
-175.795471
 20
271.269410
 42
0.112700
 10
-178.577592
 20
261.815330
 42
0.000000
 10
-180.505102
 20
223.470005
 42
-0.112699
 10
-183.287222
 20
214.015962
 42
-0.193668
 10
-196.505428
 20
204.089905
 42
-0.054498
 10
-201.197567
 20
203.395299
 42
0.000000
  0
LWPOLYLINE
  5
2B7
100
AcDbEntity
  8
SCHRAFF
  6
CONTINUOUS
 62
     9
100
AcDbPolyline
 90
     2
 10
-202.859231
 20
203.395299
 42
-0.116114
 10
-212.500018
 20
206.055915
 42
0.000000
  0
LWPOLYLINE
  5
2BA
100
AcDbEntity
  8
SCHRAFF
  6
CONTINUOUS
 62
     9
100
AcDbPolyline
 90
     5
 10
-212.500018
 20
244.762336
 42
0.000000
 10
-182.591886
 20
264.132983
 42
0.112700
 10
-175.795473
 20
271.269412
 42
0.193668
 10
-173.808363
 20
287.679760
 42
0.112836
 10
-178.406824
 20
296.250078
 42
0.000000
  0
LWPOLYLINE
  5
2C0
100
AcDbEntity
  8
SCHRAFF
  6
CONTINUOUS
 62
     9
100
AcDbPolyline
 90
     2
 10
-212.098052
 20
296.250078
 42
0.007148
 10
-212.500018
 20
295.761112
 42
0.000000
  0
ENDBLK
  5
2C3
100
AcDbEntity
  8
0
100
AcDbBlockEnd
  0
BLOCK
  5
2C4
100
AcDbEntity
  8
SCHRAFF
100
AcDbBlockBegin
  2
B-7
 70
    66
 10
0.000000
 20
0.000000
 30
0.000000
  0
IMAGE
  5
2C5
100
AcDbEntity
  8
SCHRAFF
100
AcDbRasterImage
 10
140.969928
 20
-349.249941
 30
0.000000
 11
0.204938
 21
-0.000000
 31
0.000000
 12
-0.000000
 22
0.204938
 32
-0.000000
 13
395.000000
 23
405.000000
340
2C6
 70
     7
280
     0
281
    50
282
    50
283
     0
360
2C7
 71
     1
 91
     2
 14
-0.500000
 24
-0.500000
 14
394.500000
 24
404.500000
  0
ENDBLK
  5
2C8
100
AcDbEntity
  8
0
100
AcDbBlockEnd
  0
BLOCK
  5
2C9
100
AcDbEntity
  8
Detail
100
AcDbBlockBegin
  2
B-8
 70
    66
 10
0.000000
 20
0.000000
 30
0.000000
  0
LWPOLYLINE
  5
2CA
100
AcDbEntity
  8
Detail
  6
CONTINUOUS
 62
     4
100
AcDbPolyline
 90
     3
 10
-72.056108
 20
296.250078
 42
0.000000
 10
143.470435
 20
171.815770
 42
0.000000
 10
132.720434
 20
153.196224
 42
0.000000
  0
ENDBLK
  5
2CE
100
AcDbEntity
  8
0
100
AcDbBlockEnd
  0
BLOCK
  5
2CF
100
AcDbEntity
  8
SCHRAFF
100
AcDbBlockBegin
  2
B-9
 70
    66
 10
0.000000
 20
0.000000
 30
0.000000
  0
HATCH
  5
2D0
100
AcDbEntity
  8
SCHRAFF
  6
CONTINUOUS
 62
     9
100
AcDbHatch
 10
0.000000
 20
0.000000
 30
0.000000
210
0.000000
220
0.000000
230
1.000000
  2
_U
 70
     0
 71
     1
 91
     1
 92
    18
 72
     1
 73
     0
 93
     9
 10
53.841692
 20
195.850138
 42
0.000000
 10
174.771705
 20
126.031160
 42
0.000000
 10
176.021705
 20
128.196224
 42
0.000000
 10
54.671573
 20
198.257758
 42
0.000000
 10
41.434188
 20
200.126861
 42
0.000000
 10
-125.056065
 20
296.250078
 42
0.000000
 10
-130.056108
 20
296.250078
 42
0.000000
 10
40.604309
 20
197.719240
 42
0.000000
 10
53.841692
 20
195.850138
 42
0.000000
 97
     0
 75
     0
 76
     0
 52
0.000000
 41
1.000000
 77
     0
 78
     1
 53
90.000000
 43
-0.000000
 44
0.000000
 45
-5.000000
 46
0.000000
 79
     0
 98
     0
  0
ENDBLK
  5
2D1
100
AcDbEntity
  8
0
100
AcDbBlockEnd
  0
BLOCK
  5
2D2
100
AcDbEntity
  8
SCHRAFF
100
AcDbBlockBegin
  2
B-10
 70
    66
 10
0.000000
 20
0.000000
 30
0.000000
  0
HATCH
  5
2D3
100
AcDbEntity
  8
SCHRAFF
  6
CONTINUOUS
 62
     9
100
AcDbHatch
 10
0.000000
 20
0.000000
 30
0.000000
210
0.000000
220
0.000000
230
1.000000
  2
_U
 70
     0
 71
     1
 91
     1
 92
    18
 72
     1
 73
     0
 93
     5
 10
-212.500018
 20
37.645299
 42
0.000000
 10
-152.500018
 20
37.645299
 42
0.000000
 10
-152.500018
 20
40.145299
 42
0.000000
 10
-212.500018
 20
40.145299
 42
0.000000
 10
-212.500018
 20
37.645299
 42
0.000000
 97
     0
 75
     0
 76
     0
 52
0.000000
 41
1.000000
 77
     0
 78
     1
 53
90.000000
 43
-0.000000
 44
0.000000
 45
-5.000000
 46
0.000000
 79
     0
 98
     0
  0
ENDBLK
  5
2D4
100
AcDbEntity
  8
0
100
AcDbBlockEnd
  0
BLOCK
  5
2D5
100
AcDbEntity
  8
SCHRAFF
100
AcDbBlockBegin
  2
B-11
 70
    66
 10
0.000000
 20
0.000000
 30
0.000000
  0
HATCH
  5
2D6
100
AcDbEntity
  8
SCHRAFF
  6
CONTINUOUS
 62
     9
100
AcDbHatch
 10
0.000000
 20
0.000000
 30
0.000000
210
0.000000
220
0.000000
230
1.000000
  2
_U
 70
     0
 71
     1
 91
     1
 92
    18
 72
     1
 73
     0
 93
     5
 10
-64.897478
 20
118.911960
 42
0.000000
 10
-150.500018
 20
168.334610
 42
0.000000
 10
-150.500018
 20
145.240599
 42
0.000000
 10
-74.897478
 20
101.591452
 42
0.000000
 10
-64.897478
 20
118.911960
 42
0.000000
 97
     0
 75
     0
 76
     0
 52
0.000000
 41
1.000000
 77
     0
 78
     1
 53
45.000000
 43
-0.000000
 44
0.000000
 45
-2.209709
 46
2.209709
 79
     0
 98
     0
  0
HATCH
  5
2D7
100
AcDbEntity
  8
SCHRAFF
  6
CONTINUOUS
 62
     9
100
AcDbHatch
 10
0.000000
 20
0.000000
 30
0.000000
210
0.000000
220
0.000000
230
1.000000
  2
_U
 70
     0
 71
     1
 91
     1
 92
    18
 72
     1
 73
     0
 93
     5
 10
23.437114
 20
67.911960
 42
0.000000
 10
-63.165427
 20
117.911960
 42
0.000000
 10
-73.165427
 20
100.591452
 42
0.000000
 10
13.437114
 20
50.591452
 42
0.000000
 10
23.437114
 20
67.911960
 42
0.000000
 97
     0
 75
     0
 76
     0
 52
0.000000
 41
1.000000
 77
     0
 78
     1
 53
45.000000
 43
-0.000000
 44
0.000000
 45
-2.209709
 46
2.209709
 79
     0
 98
     0
  0
HATCH
  5
2D8
100
AcDbEntity
  8
SCHRAFF
  6
CONTINUOUS
 62
     9
100
AcDbHatch
 10
0.000000
 20
0.000000
 30
0.000000
210
0.000000
220
0.000000
230
1.000000
  2
_U
 70
     0
 71
     1
 91
     1
 92
    18
 72
     1
 73
     0
 93
     5
 10
111.771705
 20
16.911960
 42
0.000000
 10
25.169164
 20
66.911960
 42
0.000000
 10
15.169164
 20
49.591452
 42
0.000000
 10
101.771705
 20
-0.408548
 42
0.000000
 10
111.771705
 20
16.911960
 42
0.000000
 97
     0
 75
     0
 76
     0
 52
0.000000
 41
1.000000
 77
     0
 78
     1
 53
45.000000
 43
-0.000000
 44
0.000000
 45
-2.209709
 46
2.209709
 79
     0
 98
     0
  0
HATCH
  5
2D9
100
AcDbEntity
  8
SCHRAFF
  6
CONTINUOUS
 62
     9
100
AcDbHatch
 10
0.000000
 20
0.000000
 30
0.000000
210
0.000000
220
0.000000
230
1.000000
  2
_U
 70
     0
 71
     1
 91
     1
 92
    18
 72
     1
 73
     0
 93
     5
 10
160.771705
 20
101.782449
 42
0.000000
 10
143.451197
 20
111.782449
 42
0.000000
 10
95.451196
 20
28.644010
 42
0.000000
 10
112.771705
 20
18.644010
 42
0.000000
 10
160.771705
 20
101.782449
 42
0.000000
 97
     0
 75
     0
 76
     0
 52
0.000000
 41
1.000000
 77
     0
 78
     1
 53
15.000000
 43
-0.000000
 44
0.000000
 45
-0.808810
 46
3.018518
 79
     0
 98
     0
  0
ENDBLK
  5
2DA
100
AcDbEntity
  8
0
100
AcDbBlockEnd
  0
BLOCK
  5
2DB
100
AcDbEntity
  8
SCHRAFF
100
AcDbBlockBegin
  2
B-12
 70
    66
 10
0.000000
 20
0.000000
 30
0.000000
  0
HATCH
  5
2DC
100
AcDbEntity
  8
SCHRAFF
 62
   254
440
     0
100
AcDbHatch
 10
0.000000
 20
0.000000
 30
0.000000
210
0.000000
220
0.000000
230
1.000000
  2
SOLID
 70
     1
 71
     1
 91
     1
 92
    18
 72
     1
 73
     0
 93
     5
 10
-152.500018
 20
140.621797
 42
0.000000
 10
-147.500018
 20
137.735045
 42
0.000000
 10
-147.500018
 20
-196.249941
 42
0.000000
 10
-152.500018
 20
-196.249941
 42
0.000000
 10
-152.500018
 20
140.621797
 42
0.000000
 97
     0
 75
     0
 76
     1
 98
     0
  0
ENDBLK
  5
2DD
100
AcDbEntity
  8
0
100
AcDbBlockEnd
  0
BLOCK
  5
2DE
100
AcDbEntity
  8
SCHRAFF
100
AcDbBlockBegin
  2
B-13
 70
    66
 10
0.000000
 20
0.000000
 30
0.000000
  0
HATCH
  5
2DF
100
AcDbEntity
  8
SCHRAFF
 62
     9
440
     0
100
AcDbHatch
 10
0.000000
 20
0.000000
 30
0.000000
210
0.000000
220
0.000000
230
1.000000
  2
SOLID
 70
     1
 71
     1
 91
     1
 92
    18
 72
     1
 73
     0
 93
     5
 10
-63.500018
 20
-196.249941
 42
0.000000
 10
-63.500018
 20
89.237623
 42
0.000000
 10
-67.500018
 20
91.547024
 42
0.000000
 10
-67.500018
 20
-196.249941
 42
0.000000
 10
-63.500018
 20
-196.249941
 42
0.000000
 97
     0
 75
     0
 76
     1
 98
     0
  0
ENDBLK
  5
2E0
100
AcDbEntity
  8
0
100
AcDbBlockEnd
  0
BLOCK
  5
2E1
100
AcDbEntity
  8
Detail
100
AcDbBlockBegin
  2
B-14
 70
    66
 10
0.000000
 20
0.000000
 30
0.000000
  0
POLYLINE
  5
2E2
100
AcDbEntity
  8
Detail
 66
     1
  6
CONTINUOUS
 62
     3
100
AcDb2dPolyline
  0
VERTEX
  5
2E3
100
AcDbEntity
  8
Detail
100
AcDbVertex
100
AcDb2dVertex
 10
-152.500018
 20
-196.249941
 42
0.000000
  0
VERTEX
  5
2E4
100
AcDbEntity
  8
Detail
100
AcDbVertex
100
AcDb2dVertex
 10
-152.500018
 20
140.621797
 42
0.000000
  0
VERTEX
  5
2E5
100
AcDbEntity
  8
Detail
 62
     6
100
AcDbVertex
100
AcDb2dVertex
 10
-147.500018
 20
137.735045
 42
0.000000
  0
VERTEX
  5
2E6
100
AcDbEntity
  8
Detail
100
AcDbVertex
100
AcDb2dVertex
 10
-147.500018
 20
-196.249941
 42
0.000000
  0
SEQEND
  5
2E7
100
AcDbEntity
  8
Detail
  0
ENDBLK
  5
2E8
100
AcDbEntity
  8
0
100
AcDbBlockEnd
  0
BLOCK
  5
2E9
100
AcDbEntity
  8
Detail
100
AcDbBlockBegin
  2
B-15
 70
    66
 10
0.000000
 20
0.000000
 30
0.000000
  0
ENDBLK
  5
2EA
100
AcDbEntity
  8
0
100
AcDbBlockEnd
  0
BLOCK
  5
2EB
100
AcDbEntity
  8
SCHRAFF
100
AcDbBlockBegin
  2
B-16
 70
    66
 10
0.000000
 20
0.000000
 30
0.000000
  0
HATCH
  5
2EC
100
AcDbEntity
  8
SCHRAFF
 62
    51
440
     0
100
AcDbHatch
 10
0.000000
 20
0.000000
 30
0.000000
210
0.000000
220
0.000000
230
1.000000
  2
SOLID
 70
     1
 71
     1
 91
     1
 92
    18
 72
     1
 73
     0
 93
     9
 10
-67.500018
 20
-196.249941
 42
0.000000
 10
-67.500018
 20
-48.392171
 42
0.000000
 10
-87.500018
 20
-48.392171
 42
0.000000
 10
-87.500018
 20
11.607829
 42
0.000000
 10
-67.500018
 20
11.607829
 42
0.000000
 10
-67.500018
 20
91.547024
 42
0.000000
 10
-147.500018
 20
137.735045
 42
0.000000
 10
-147.500018
 20
-196.249941
 42
0.000000
 10
-67.500018
 20
-196.249941
 42
0.000000
 97
     0
 75
     0
 76
     1
 98
     0
  0
ENDBLK
  5
2ED
100
AcDbEntity
  8
0
100
AcDbBlockEnd
  0
BLOCK
  5
2EE
100
AcDbEntity
  8
SCHRAFF
100
AcDbBlockBegin
  2
B-17
 70
    66
 10
0.000000
 20
0.000000
 30
0.000000
  0
HATCH
  5
2EF
100
AcDbEntity
  8
SCHRAFF
  6
CONTINUOUS
 62
     9
100
AcDbHatch
 10
0.000000
 20
0.000000
 30
0.000000
210
0.000000
220
0.000000
230
1.000000
  2
_U
 70
     0
 71
     1
 91
     1
 92
    18
 72
     1
 73
     0
 93
     9
 10
-147.500018
 20
137.735045
 42
0.000000
 10
-147.500018
 20
-196.249941
 42
0.000000
 10
-67.500018
 20
-196.249941
 42
0.000000
 10
-67.500018
 20
-48.392171
 42
0.000000
 10
-87.500018
 20
-48.392171
 42
0.000000
 10
-87.500018
 20
11.607829
 42
0.000000
 10
-67.500018
 20
11.607829
 42
0.000000
 10
-67.500018
 20
91.547024
 42
0.000000
 10
-147.500018
 20
137.735045
 42
0.000000
 97
     0
 75
     0
 76
     0
 52
0.000000
 41
1.000000
 77
     0
 78
     1
 53
90.000000
 43
-0.000000
 44
0.000000
 45
-13.750000
 46
0.000000
 79
     0
 98
     0
  0
ENDBLK
  5
2F0
100
AcDbEntity
  8
0
100
AcDbBlockEnd
  0
BLOCK
  5
2F1
100
AcDbEntity
  8
Detail
100
AcDbBlockBegin
  2
B-18
 70
    66
 10
0.000000
 20
0.000000
 30
0.000000
  0
ENDBLK
  5
2F2
100
AcDbEntity
  8
0
100
AcDbBlockEnd
  0
BLOCK
  5
2F3
100
AcDbEntity
  8
L
100
AcDbBlockBegin
  2
B-19
 70
    66
 10
0.000000
 20
0.000000
 30
0.000000
  0
LWPOLYLINE
  5
2F4
100
AcDbEntity
  8
L
  6
CONTINUOUS
 62
     3
100
AcDbPolyline
 90
     8
 10
-147.500018
 20
-196.249941
 42
0.000000
 10
-147.500018
 20
137.735045
 42
0.000000
 10
-67.500018
 20
91.547024
 42
0.000000
 10
-67.500018
 20
11.607829
 42
0.000000
 10
-87.500018
 20
11.607829
 42
0.000000
 10
-87.500018
 20
-48.392171
 42
0.000000
 10
-67.500018
 20
-48.392171
 42
0.000000
 10
-67.500018
 20
-196.249941
 42
0.000000
  0
ENDBLK
  5
2FD
100
AcDbEntity
  8
0
100
AcDbBlockEnd
  0
BLOCK
  5
2FE
100
AcDbEntity
  8
Detail
100
AcDbBlockBegin
  2
B-20
 70
    66
 10
0.000000
 20
0.000000
 30
0.000000
  0
MTEXT
  5
300
100
AcDbEntity
  8
Detail
 62
     7
100
AcDbMText
 10
44.374978
 20
99.578108
 30
0.000000
 40
4.999990
 41
63.577347
 71
     1
 72
     5
  1
Fugendichtband 2D
  7
Arial
 50
0.000000
  0
ENDBLK
  5
301
100
AcDbEntity
  8
0
100
AcDbBlockEnd
  0
BLOCK
  5
302
100
AcDbEntity
  8
Detail
100
AcDbBlockBegin
  2
B-21
 70
    66
 10
0.000000
 20
0.000000
 30
0.000000
  0
MTEXT
  5
303
100
AcDbEntity
  8
Detail
 62
     7
100
AcDbMText
 10
44.374939
 20
-65.881829
 30
0.000000
 40
4.999982
 41
60.059784
 71
     1
 72
     5
  1
Armierungsschicht
  7
Arial
 50
0.000000
  0
ENDBLK
  5
304
100
AcDbEntity
  8
0
100
AcDbBlockEnd
  0
BLOCK
  5
305
100
AcDbEntity
  8
Detail
100
AcDbBlockBegin
  2
B-22
 70
    66
 10
0.000000
 20
0.000000
 30
0.000000
  0
MTEXT
  5
306
100
AcDbEntity
  8
Detail
 62
     7
100
AcDbMText
 10
44.374937
 20
-40.881883
 30
0.000000
 40
4.999987
 41
30.449921
 71
     1
 72
     5
  1
Deckputz
  7
Arial
 50
0.000000
  0
ENDBLK
  5
307
100
AcDbEntity
  8
0
100
AcDbBlockEnd
  0
BLOCK
  5
308
100
AcDbEntity
  8
Detail
100
AcDbBlockBegin
  2
B-23
 70
    66
 10
0.000000
 20
0.000000
 30
0.000000
  0
LWPOLYLINE
  5
309
100
AcDbEntity
  8
Detail
  6
HIDDEN
 62
     9
100
AcDbPolyline
 90
     2
 10
-64.500018
 20
89.814973
 42
0.000000
 10
-64.500018
 20
-196.249941
 42
0.000000
  0
LWPOLYLINE
  5
30C
100
AcDbEntity
  8
Detail
  6
CONTINUOUS
 62
     6
100
AcDbPolyline
 90
     4
 10
-67.500018
 20
-196.249941
 42
0.000000
 10
-67.500018
 20
91.547024
 42
0.000000
 10
-63.500018
 20
89.237623
 42
0.000000
 10
-63.500018
 20
-196.249941
 42
0.000000
  0
ENDBLK
  5
311
100
AcDbEntity
  8
0
100
AcDbBlockEnd
  0
BLOCK
  5
312
100
AcDbEntity
  8
Detail
100
AcDbBlockBegin
  2
B-24
 70
    66
 10
0.000000
 20
0.000000
 30
0.000000
  0
MTEXT
  5
313
100
AcDbEntity
  8
Detail
 62
     7
100
AcDbMText
 10
44.374939
 20
-90.881881
 30
0.000000
 40
4.999987
 41
59.482345
 71
     1
 72
     5
  1
WDVS-Dämmstoff
  7
Arial
 50
0.000000
  0
ENDBLK
  5
314
100
AcDbEntity
  8
0
100
AcDbBlockEnd
  0
BLOCK
  5
315
100
AcDbEntity
  8
SCHRAFF
100
AcDbBlockBegin
  2
B-25
 70
    66
 10
0.000000
 20
0.000000
 30
0.000000
  0
HATCH
  5
316
100
AcDbEntity
  8
SCHRAFF
 62
     7
440
     0
100
AcDbHatch
 10
0.000000
 20
0.000000
 30
0.000000
210
0.000000
220
0.000000
230
1.000000
  2
SOLID
 70
     1
 71
     1
 91
     1
 92
    18
 72
     1
 73
     0
 93
     3
 10
-65.000018
 20
-68.381878
 42
1.000000
 10
-66.000018
 20
-68.381878
 42
1.000000
 10
-65.000018
 20
-68.381878
 42
0.000000
 97
     0
 75
     0
 76
     1
 98
     0
  0
CIRCLE
  5
317
100
AcDbEntity
  8
Detail
  6
CONTINUOUS
 62
     7
100
AcDbCircle
 10
-65.500018
 20
-68.381878
 40
0.500000
  0
ENDBLK
  5
318
100
AcDbEntity
  8
0
100
AcDbBlockEnd
  0
BLOCK
  5
319
100
AcDbEntity
  8
SCHRAFF
100
AcDbBlockBegin
  2
B-26
 70
    66
 10
0.000000
 20
0.000000
 30
0.000000
  0
HATCH
  5
31A
100
AcDbEntity
  8
SCHRAFF
 62
     7
440
     0
100
AcDbHatch
 10
0.000000
 20
0.000000
 30
0.000000
210
0.000000
220
0.000000
230
1.000000
  2
SOLID
 70
     1
 71
     1
 91
     1
 92
    18
 72
     1
 73
     0
 93
     3
 10
-62.000018
 20
-43.381877
 42
1.000000
 10
-63.000018
 20
-43.381877
 42
1.000000
 10
-62.000018
 20
-43.381877
 42
0.000000
 97
     0
 75
     0
 76
     1
 98
     0
  0
CIRCLE
  5
31B
100
AcDbEntity
  8
Detail
  6
CONTINUOUS
 62
     7
100
AcDbCircle
 10
-62.500018
 20
-43.381877
 40
0.500000
  0
ENDBLK
  5
31C
100
AcDbEntity
  8
0
100
AcDbBlockEnd
  0
BLOCK
  5
31D
100
AcDbEntity
  8
Detail
100
AcDbBlockBegin
  2
B-27
 70
    66
 10
0.000000
 20
0.000000
 30
0.000000
  0
MTEXT
  5
31E
100
AcDbEntity
  8
Detail
 62
     7
100
AcDbMText
 10
-211.093768
 20
-225.937528
 30
0.000000
 40
3.749990
 41
353.428963
 71
     7
 72
     5
  1
Capatect Details sind allgemeine planerische Vorschläge. Sie stellen schematisch die Ausführung dar. Ihnen zugrunde liegen die entsprechenden 
  7
Arial
 50
0.000000
  0
MTEXT
  5
31F
100
AcDbEntity
  8
Detail
 62
     7
100
AcDbMText
 10
-211.093768
 20
-231.562513
 30
0.000000
 40
3.749990
 41
392.764473
 71
     7
 72
     5
  1
Produktdatenblätter sowie Systemzulassungen. Die Möglichkeit der Detailanwendung sowie deren Vollständigkeit sind im speziellen Anwendungsfall vom Planer / 
  7
Arial
 50
0.000000
  0
MTEXT
  5
320
100
AcDbEntity
  8
Detail
 62
     7
100
AcDbMText
 10
-211.093768
 20
-237.187498
 30
0.000000
 40
3.749990
 41
107.887184
 71
     7
 72
     5
  1
Unternehmer eigenverantwortlich zu prüfen. 
  7
Arial
 50
0.000000
  0
ENDBLK
  5
321
100
AcDbEntity
  8
0
100
AcDbBlockEnd
  0
BLOCK
  5
322
100
AcDbEntity
  8
Detail
100
AcDbBlockBegin
  2
B-28
 70
    66
 10
0.000000
 20
0.000000
 30
0.000000
  0
LWPOLYLINE
  5
323
100
AcDbEntity
  8
Detail
  6
CONTINUOUS
 62
     6
100
AcDbPolyline
 90
     2
 10
237.500023
 20
-246.249941
 42
0.000000
 10
-237.500018
 20
-246.249941
 42
0.000000
  0
ENDBLK
  5
326
100
AcDbEntity
  8
0
100
AcDbBlockEnd
  0
BLOCK
  5
327
100
AcDbEntity
  8
Detail
100
AcDbBlockBegin
  2
B-29
 70
    66
 10
0.000000
 20
0.000000
 30
0.000000
  0
MTEXT
  5
328
100
AcDbEntity
  8
Detail
 62
     7
100
AcDbMText
 10
-210.625002
 20
-252.656291
 30
0.000000
 40
5.625000
 41
106.253438
 71
     1
 72
     5
  1
System:	WDVS mit Putz 
  7
Arial
 50
0.000000
  0
ENDBLK
  5
329
100
AcDbEntity
  8
0
100
AcDbBlockEnd
  0
BLOCK
  5
32A
100
AcDbEntity
  8
Detail
100
AcDbBlockBegin
  2
B-30
 70
    66
 10
0.000000
 20
0.000000
 30
0.000000
  0
MTEXT
  5
32B
100
AcDbEntity
  8
Detail
 62
     7
100
AcDbMText
 10
-210.625002
 20
-295.781291
 30
0.000000
 40
5.625000
 41
104.068125
 71
     7
 72
     5
  1
Detail:	Anschluss Steildach - 
  7
Arial
 50
0.000000
  0
MTEXT
  5
32C
100
AcDbEntity
  8
Detail
 62
     7
100
AcDbMText
 10
-210.625002
 20
-304.218791
 30
0.000000
 40
5.625000
 41
95.740313
 71
     7
 72
     5
  1
	Traufe nicht belüftet
  7
Arial
 50
0.000000
  0
ENDBLK
  5
32D
100
AcDbEntity
  8
0
100
AcDbBlockEnd
  0
BLOCK
  5
32E
100
AcDbEntity
  8
Detail
100
AcDbBlockBegin
  2
B-31
 70
    66
 10
0.000000
 20
0.000000
 30
0.000000
  0
MTEXT
  5
32F
100
AcDbEntity
  8
Detail
 62
     7
100
AcDbMText
 10
6.314834
 20
-252.500041
 30
0.000000
 40
5.000000
 41
93.712500
 71
     1
 72
     5
  1
Plannummer:	105-0512
  7
Arial
 50
0.000000
  0
ENDBLK
  5
330
100
AcDbEntity
  8
0
100
AcDbBlockEnd
  0
BLOCK
  5
331
100
AcDbEntity
  8
Detail
100
AcDbBlockBegin
  2
B-32
 70
    66
 10
0.000000
 20
0.000000
 30
0.000000
  0
MTEXT
  5
332
100
AcDbEntity
  8
Detail
 62
     7
100
AcDbMText
 10
6.314834
 20
-277.500041
 30
0.000000
 40
5.000000
 41
91.035000
 71
     1
 72
     5
  1
Massstab:		ca. 1:2,5
  7
Arial
 50
0.000000
  0
ENDBLK
  5
333
100
AcDbEntity
  8
0
100
AcDbBlockEnd
  0
BLOCK
  5
334
100
AcDbEntity
  8
Detail
100
AcDbBlockBegin
  2
B-33
 70
    66
 10
0.000000
 20
0.000000
 30
0.000000
  0
MTEXT
  5
335
100
AcDbEntity
  8
Detail
 62
     7
100
AcDbMText
 10
6.314834
 20
-302.500041
 30
0.000000
 40
5.000000
 41
99.435000
 71
     1
 72
     5
  1
Aktualisierung:	10.08.2016
  7
Arial
 50
0.000000
  0
ENDBLK
  5
336
100
AcDbEntity
  8
0
100
AcDbBlockEnd
  0
BLOCK
  5
337
100
AcDbEntity
  8
Detail
100
AcDbBlockBegin
  2
B-34
 70
    66
 10
0.000000
 20
0.000000
 30
0.000000
  0
LWPOLYLINE
  5
338
100
AcDbEntity
  8
Detail
  6
CONTINUOUS
 62
     6
100
AcDbPolyline
 90
     2
 10
-20.560166
 20
-321.249941
 42
0.000000
 10
-20.560166
 20
-246.249941
 42
0.000000
  0
LWPOLYLINE
  5
33B
100
AcDbEntity
  8
Detail
  6
CONTINUOUS
 62
     6
100
AcDbPolyline
 90
     2
 10
-237.500018
 20
-321.249941
 42
0.000000
 10
120.969928
 20
-321.249941
 42
0.000000
  0
LWPOLYLINE
  5
33E
100
AcDbEntity
  8
Detail
  6
CONTINUOUS
 62
     6
100
AcDbPolyline
 90
     2
 10
-20.560166
 20
-271.249941
 42
0.000000
 10
120.969928
 20
-271.249941
 42
0.000000
  0
LWPOLYLINE
  5
341
100
AcDbEntity
  8
Detail
  6
CONTINUOUS
 62
     6
100
AcDbPolyline
 90
     2
 10
-20.560166
 20
-296.249941
 42
0.000000
 10
120.969928
 20
-296.249941
 42
0.000000
  0
ENDBLK
  5
344
100
AcDbEntity
  8
0
100
AcDbBlockEnd
  0
BLOCK
  5
345
100
AcDbEntity
  8
Detail
100
AcDbBlockBegin
  2
B-35
 70
    66
 10
0.000000
 20
0.000000
 30
0.000000
  0
LWPOLYLINE
  5
346
100
AcDbEntity
  8
Detail
  6
CONTINUOUS
 62
     6
100
AcDbPolyline
 90
     2
 10
-20.560166
 20
-283.749941
 42
0.000000
 10
-237.500018
 20
-283.749941
 42
0.000000
  0
ENDBLK
  5
349
100
AcDbEntity
  8
0
100
AcDbBlockEnd
  0
BLOCK
  5
34A
100
AcDbEntity
  8
Detail
100
AcDbBlockBegin
  2
B-36
 70
    66
 10
0.000000
 20
0.000000
 30
0.000000
  0
MTEXT
  5
34B
100
AcDbEntity
  8
Detail
 62
     7
100
AcDbMText
 10
-85.625009
 20
-332.500016
 30
0.000000
 40
4.999980
 41
72.134711
 71
     7
 72
     5
  1
Telefon 043 399 42 22
  7
Arial
 50
0.000000
  0
MTEXT
  5
34C
100
AcDbEntity
  8
Detail
 62
     7
100
AcDbMText
 10
-85.625009
 20
-339.999986
 30
0.000000
 40
4.999980
 41
71.767213
 71
     7
 72
     5
  1
Telefax 043 399 42 23
  7
Arial
 50
0.000000
  0
ENDBLK
  5
34D
100
AcDbEntity
  8
0
100
AcDbBlockEnd
  0
BLOCK
  5
34E
100
AcDbEntity
  8
Detail
100
AcDbBlockBegin
  2
B-37
 70
    66
 10
0.000000
 20
0.000000
 30
0.000000
  0
MTEXT
  5
34F
100
AcDbEntity
  8
Detail
 62
     7
100
AcDbMText
 10
39.374992
 20
-332.500019
 30
0.000000
 40
4.999982
 41
51.922313
 71
     7
 72
     5
  1
info@daw.swiss
  7
Arial
 50
0.000000
  0
MTEXT
  5
350
100
AcDbEntity
  8
Detail
 62
     7
100
AcDbMText
 10
39.374992
 20
-339.999993
 30
0.000000
 40
4.999982
 41
54.599803
 71
     7
 72
     5
  1
www.capatect.ch
  7
Arial
 50
0.000000
  0
ENDBLK
  5
351
100
AcDbEntity
  8
0
100
AcDbBlockEnd
  0
BLOCK
  5
352
100
AcDbEntity
  8
Detail
100
AcDbBlockBegin
  2
B-38
 70
    66
 10
0.000000
 20
0.000000
 30
0.000000
  0
LWPOLYLINE
  5
353
100
AcDbEntity
  8
Detail
  6
CONTINUOUS
 62
     6
100
AcDbPolyline
 90
     2
 10
120.969928
 20
-346.249941
 42
0.000000
 10
120.969928
 20
-246.249941
 42
0.000000
  0
ENDBLK
  5
356
100
AcDbEntity
  8
0
100
AcDbBlockEnd
  0
BLOCK
  5
357
100
AcDbEntity
  8
Detail
100
AcDbBlockBegin
  2
B-39
 70
    66
 10
0.000000
 20
0.000000
 30
0.000000
  0
LWPOLYLINE
  5
358
100
AcDbEntity
  8
Detail
  6
CONTINUOUS
 62
     6
100
AcDbPolyline
 90
     5
 10
-237.500018
 20
-346.249941
 42
0.000000
 10
237.500023
 20
-346.249941
 42
0.000000
 10
237.500023
 20
346.250078
 42
0.000000
 10
-237.500018
 20
346.250078
 42
0.000000
 10
-237.500018
 20
-346.249941
 42
0.000000
  0
ENDBLK
  5
35E
100
AcDbEntity
  8
0
100
AcDbBlockEnd
  0
BLOCK
  5
35F
100
AcDbEntity
  8
Detail
100
AcDbBlockBegin
  2
B-40
 70
    66
 10
0.000000
 20
0.000000
 30
0.000000
  0
LWPOLYLINE
  5
360
100
AcDbEntity
  8
Detail
  6
CONTINUOUS
 62
     7
100
AcDbPolyline
 90
     2
 10
42.499942
 20
-43.381876
 42
0.000000
 10
-62.500018
 20
-43.381877
 42
0.000000
  0
LWPOLYLINE
  5
363
100
AcDbEntity
  8
Detail
  6
CONTINUOUS
 62
     7
100
AcDbPolyline
 90
     2
 10
42.499942
 20
-68.381827
 42
0.000000
 10
-65.500018
 20
-68.381828
 42
0.000000
  0
ENDBLK
  5
366
100
AcDbEntity
  8
0
100
AcDbBlockEnd
  0
BLOCK
  5
367
100
AcDbEntity
  8
Detail
100
AcDbBlockBegin
  2
B-41
 70
    66
 10
0.000000
 20
0.000000
 30
0.000000
  0
LWPOLYLINE
  5
368
100
AcDbEntity
  8
Detail
  6
CONTINUOUS
 62
     7
100
AcDbPolyline
 90
     2
 10
42.499943
 20
-93.381876
 42
0.000000
 10
-107.500018
 20
-93.381878
 42
0.000000
  0
ENDBLK
  5
36B
100
AcDbEntity
  8
0
100
AcDbBlockEnd
  0
BLOCK
  5
36C
100
AcDbEntity
  8
L
100
AcDbBlockBegin
  2
B-42
 70
    66
 10
0.000000
 20
0.000000
 30
0.000000
  0
LWPOLYLINE
  5
36D
100
AcDbEntity
  8
L
  6
CONTINUOUS
 62
     2
100
AcDbPolyline
 90
     3
 10
-212.500018
 20
36.395299
 42
0.000000
 10
-152.500018
 20
36.395299
 42
0.000000
 10
-152.500018
 20
-196.249941
 42
0.000000
  0
ENDBLK
  5
371
100
AcDbEntity
  8
0
100
AcDbBlockEnd
  0
BLOCK
  5
372
100
AcDbEntity
  8
Detail
100
AcDbBlockBegin
  2
B-43
 70
    66
 10
0.000000
 20
0.000000
 30
0.000000
  0
MTEXT
  5
373
100
AcDbEntity
  8
Detail
 62
     7
100
AcDbMText
 10
-210.625009
 20
-332.500016
 30
0.000000
 40
4.999980
 41
58.117268
 71
     7
 72
     5
  1
DAW Schweiz AG
  7
Arial
 50
0.000000
  0
MTEXT
  5
374
100
AcDbEntity
  8
Detail
 62
     7
100
AcDbMText
 10
-210.625009
 20
-339.999986
 30
0.000000
 40
4.999980
 41
108.149567
 71
     7
 72
     5
  1
Gewerbestrasse 6, 8606 Nänikon
  7
Arial
 50
0.000000
  0
ENDBLK
  5
375
100
AcDbEntity
  8
0
100
AcDbBlockEnd
  0
BLOCK
  5
376
100
AcDbEntity
  8
Detail
100
AcDbBlockBegin
  2
B-44
 70
    66
 10
0.000000
 20
0.000000
 30
0.000000
  0
LWPOLYLINE
  5
377
100
AcDbEntity
  8
Detail
  6
CONTINUOUS
 62
     3
100
AcDbPolyline
 90
     5
 10
143.451197
 20
111.782449
 42
0.000000
 10
95.451196
 20
28.644010
 42
0.000000
 10
112.771705
 20
18.644010
 42
0.000000
 10
160.771705
 20
101.782449
 42
0.000000
 10
143.451197
 20
111.782449
 42
0.000000
  0
ENDBLK
  5
37D
100
AcDbEntity
  8
0
100
AcDbBlockEnd
  0
BLOCK
  5
37E
100
AcDbEntity
  8
SCHRAFF
100
AcDbBlockBegin
  2
B-45
 70
    66
 10
0.000000
 20
0.000000
 30
0.000000
  0
HATCH
  5
37F
100
AcDbEntity
  8
SCHRAFF
 62
     7
440
     0
100
AcDbHatch
 10
0.000000
 20
0.000000
 30
0.000000
210
0.000000
220
0.000000
230
1.000000
  2
SOLID
 70
     1
 71
     1
 91
     1
 92
    18
 72
     1
 73
     0
 93
     3
 10
-107.000018
 20
-93.381928
 42
1.000000
 10
-108.000018
 20
-93.381928
 42
1.000000
 10
-107.000018
 20
-93.381928
 42
0.000000
 97
     0
 75
     0
 76
     1
 98
     0
  0
CIRCLE
  5
380
100
AcDbEntity
  8
Detail
  6
CONTINUOUS
 62
     7
100
AcDbCircle
 10
-107.500018
 20
-93.381928
 40
0.500000
  0
ENDBLK
  5
381
100
AcDbEntity
  8
0
100
AcDbBlockEnd
  0
BLOCK
  5
382
100
AcDbEntity
  8
SCHRAFF
100
AcDbBlockBegin
  2
B-46
 70
    66
 10
0.000000
 20
0.000000
 30
0.000000
  0
HATCH
  5
383
100
AcDbEntity
  8
SCHRAFF
 62
     7
440
     0
100
AcDbHatch
 10
0.000000
 20
0.000000
 30
0.000000
210
0.000000
220
0.000000
230
1.000000
  2
SOLID
 70
     1
 71
     1
 91
     1
 92
    18
 72
     1
 73
     0
 93
     3
 10
-85.500018
 20
-18.381927
 42
1.000000
 10
-86.500018
 20
-18.381927
 42
1.000000
 10
-85.500018
 20
-18.381927
 42
0.000000
 97
     0
 75
     0
 76
     1
 98
     0
  0
CIRCLE
  5
384
100
AcDbEntity
  8
Detail
  6
CONTINUOUS
 62
     7
100
AcDbCircle
 10
-86.000018
 20
-18.381927
 40
0.500000
  0
ENDBLK
  5
385
100
AcDbEntity
  8
0
100
AcDbBlockEnd
  0
BLOCK
  5
386
100
AcDbEntity
  8
Detail
100
AcDbBlockBegin
  2
B-47
 70
    66
 10
0.000000
 20
0.000000
 30
0.000000
  0
MTEXT
  5
387
100
AcDbEntity
  8
Detail
 62
     7
100
AcDbMText
 10
44.374939
 20
-20.881865
 30
0.000000
 40
4.999987
 41
82.372286
 71
     7
 72
     5
  1
Verdübelung versenkt mit
  7
Arial
 50
0.000000
  0
MTEXT
  5
388
100
AcDbEntity
  8
Detail
 62
     7
100
AcDbMText
 10
44.374939
 20
-28.381846
 30
0.000000
 40
4.999987
 41
82.634785
 71
     7
 72
     5
  1
Thermorondell abgedeckt
  7
Arial
 50
0.000000
  0
ENDBLK
  5
389
100
AcDbEntity
  8
0
100
AcDbBlockEnd
  0
BLOCK
  5
38A
100
AcDbEntity
  8
Detail
100
AcDbBlockBegin
  2
B-48
 70
    66
 10
0.000000
 20
0.000000
 30
0.000000
  0
LWPOLYLINE
  5
38B
100
AcDbEntity
  8
Detail
  6
CONTINUOUS
 62
     7
100
AcDbPolyline
 90
     2
 10
42.499942
 20
-18.381876
 42
0.000000
 10
-86.000018
 20
-18.381877
 42
0.000000
  0
ENDBLK
  5
38E
100
AcDbEntity
  8
0
100
AcDbBlockEnd
  0
BLOCK
  5
38F
100
AcDbEntity
  8
Detail
100
AcDbBlockBegin
  2
B-49
 70
    66
 10
0.000000
 20
0.000000
 30
0.000000
  0
MTEXT
  5
390
100
AcDbEntity
  8
Detail
 62
     7
100
AcDbMText
 10
44.374939
 20
-115.881881
 30
0.000000
 40
4.999990
 41
38.902407
 71
     1
 72
     5
  1
Klebemörtel
  7
Arial
 50
0.000000
  0
ENDBLK
  5
391
100
AcDbEntity
  8
0
100
AcDbBlockEnd
  0
BLOCK
  5
392
100
AcDbEntity
  8
Detail
100
AcDbBlockBegin
  2
B-50
 70
    66
 10
0.000000
 20
0.000000
 30
0.000000
  0
LWPOLYLINE
  5
393
100
AcDbEntity
  8
Detail
  6
CONTINUOUS
 62
     7
100
AcDbPolyline
 90
     2
 10
42.499943
 20
-118.381876
 42
0.000000
 10
-150.000018
 20
-118.381878
 42
0.000000
  0
ENDBLK
  5
396
100
AcDbEntity
  8
0
100
AcDbBlockEnd
  0
BLOCK
  5
397
100
AcDbEntity
  8
SCHRAFF
100
AcDbBlockBegin
  2
B-51
 70
    66
 10
0.000000
 20
0.000000
 30
0.000000
  0
HATCH
  5
398
100
AcDbEntity
  8
SCHRAFF
 62
     7
440
     0
100
AcDbHatch
 10
0.000000
 20
0.000000
 30
0.000000
210
0.000000
220
0.000000
230
1.000000
  2
SOLID
 70
     1
 71
     1
 91
     1
 92
    18
 72
     1
 73
     0
 93
     3
 10
-149.500018
 20
-118.381928
 42
1.000000
 10
-150.500018
 20
-118.381928
 42
1.000000
 10
-149.500018
 20
-118.381928
 42
0.000000
 97
     0
 75
     0
 76
     1
 98
     0
  0
CIRCLE
  5
399
100
AcDbEntity
  8
Detail
  6
CONTINUOUS
 62
     7
100
AcDbCircle
 10
-150.000018
 20
-118.381928
 40
0.500000
  0
ENDBLK
  5
39A
100
AcDbEntity
  8
0
100
AcDbBlockEnd
  0
BLOCK
  5
39B
100
AcDbEntity
  8
Detail
100
AcDbBlockBegin
  2
B-52
 70
    66
 10
0.000000
 20
0.000000
 30
0.000000
  0
LWPOLYLINE
  5
39C
100
AcDbEntity
  8
Detail
  6
CONTINUOUS
 62
     9
100
AcDbPolyline
 90
     4
 10
-212.500018
 20
37.645299
 42
0.000000
 10
-152.500018
 20
37.645299
 42
0.000000
 10
-152.500018
 20
40.145299
 42
0.000000
 10
-212.500018
 20
40.145299
 42
0.000000
  0
ENDBLK
  5
3A1
100
AcDbEntity
  8
0
100
AcDbBlockEnd
  0
BLOCK
  5
3A2
100
AcDbEntity
  8
Detail
100
AcDbBlockBegin
  2
B-53
 70
    66
 10
0.000000
 20
0.000000
 30
0.000000
  0
LWPOLYLINE
  5
3A3
100
AcDbEntity
  8
Detail
  6
CONTINUOUS
 62
     3
100
AcDbPolyline
 90
     5
 10
15.169164
 20
49.591452
 42
0.000000
 10
101.771705
 20
-0.408548
 42
0.000000
 10
111.771705
 20
16.911960
 42
0.000000
 10
25.169164
 20
66.911960
 42
0.000000
 10
15.169164
 20
49.591452
 42
0.000000
  0
ENDBLK
  5
3A9
100
AcDbEntity
  8
0
100
AcDbBlockEnd
  0
BLOCK
  5
3AA
100
AcDbEntity
  8
L
100
AcDbBlockBegin
  2
B-54
 70
    66
 10
0.000000
 20
0.000000
 30
0.000000
  0
LWPOLYLINE
  5
3AB
100
AcDbEntity
  8
L
  6
CONTINUOUS
 62
     3
100
AcDbPolyline
 90
     5
 10
-167.500018
 20
201.395299
 42
0.000000
 10
-152.500018
 20
201.395299
 42
0.000000
 10
-152.500018
 20
41.395299
 42
0.000000
 10
-167.500018
 20
41.395299
 42
0.000000
 10
-167.500018
 20
201.395299
 42
0.000000
  0
ENDBLK
  5
3B1
100
AcDbEntity
  8
0
100
AcDbBlockEnd
  0
BLOCK
  5
3B2
100
AcDbEntity
  8
L
100
AcDbBlockBegin
  2
B-55
 70
    66
 10
0.000000
 20
0.000000
 30
0.000000
  0
LWPOLYLINE
  5
3B3
100
AcDbEntity
  8
L
  6
CONTINUOUS
 62
     3
100
AcDbPolyline
 90
     4
 10
-212.500018
 20
41.395299
 42
0.000000
 10
-169.500018
 20
41.395299
 42
0.000000
 10
-169.500018
 20
201.395299
 42
0.000000
 10
-212.500018
 20
201.395299
 42
0.000000
  0
ENDBLK
  5
3B8
100
AcDbEntity
  8
0
100
AcDbBlockEnd
  0
BLOCK
  5
3B9
100
AcDbEntity
  8
Detail
100
AcDbBlockBegin
  2
B-56
 70
    66
 10
0.000000
 20
0.000000
 30
0.000000
  0
LWPOLYLINE
  5
3BA
100
AcDbEntity
  8
Detail
  6
CONTINUOUS
 62
     3
100
AcDbPolyline
 90
     7
 10
-212.500018
 20
206.051779
 42
0.000000
 10
-207.888742
 20
203.395299
 42
0.000000
 10
-150.500018
 20
203.395299
 42
0.000000
 10
-150.500018
 20
170.334610
 42
0.000000
 10
93.719146
 20
29.644010
 42
0.000000
 10
141.719146
 20
112.782449
 42
0.000000
 10
-176.056108
 20
296.250078
 42
0.000000
  0
ENDBLK
  5
3C2
100
AcDbEntity
  8
0
100
AcDbBlockEnd
  0
BLOCK
  5
3C3
100
AcDbEntity
  8
Detail
100
AcDbBlockBegin
  2
B-57
 70
    66
 10
0.000000
 20
0.000000
 30
0.000000
  0
LWPOLYLINE
  5
3C4
100
AcDbEntity
  8
Detail
  6
CONTINUOUS
 62
     6
100
AcDbPolyline
 90
     2
 10
211.500023
 20
25.994144
 42
-0.237089
 10
178.026493
 20
68.205802
 42
0.000000
  0
LWPOLYLINE
  5
3C7
100
AcDbEntity
  8
Detail
  6
CONTINUOUS
 62
     4
100
AcDbPolyline
 90
     2
 10
176.771705
 20
110.412358
 42
-1.000000
 10
178.771705
 20
110.412358
 42
0.000000
  0
ENDBLK
  5
3CA
100
AcDbEntity
  8
0
100
AcDbBlockEnd
  0
BLOCK
  5
3CB
100
AcDbEntity
  8
Detail
100
AcDbBlockBegin
  2
B-58
 70
    66
 10
0.000000
 20
0.000000
 30
0.000000
  0
LWPOLYLINE
  5
3CC
100
AcDbEntity
  8
Detail
  6
CONTINUOUS
 62
     4
100
AcDbPolyline
 90
     2
 10
176.771705
 20
80.412358
 42
0.000000
 10
176.771705
 20
110.412358
 42
0.000000
  0
LWPOLYLINE
  5
3CF
100
AcDbEntity
  8
Detail
  6
CONTINUOUS
 62
     4
100
AcDbPolyline
 90
     2
 10
178.771705
 20
110.412358
 42
0.000000
 10
178.771705
 20
80.412358
 42
0.000000
  0
LWPOLYLINE
  5
3D2
100
AcDbEntity
  8
Detail
  6
CONTINUOUS
 62
     6
100
AcDbPolyline
 90
     2
 10
178.026493
 20
68.205802
 42
0.000000
 10
178.026493
 20
95.412358
 42
0.000000
  0
LWPOLYLINE
  5
3D5
100
AcDbEntity
  8
Detail
  6
CONTINUOUS
 62
     6
100
AcDbPolyline
 90
     3
 10
178.771705
 20
76.045042
 42
0.000000
 10
178.771705
 20
69.951231
 42
1.000000
 10
180.771705
 20
69.951231
 42
0.000000
  0
LWPOLYLINE
  5
3D9
100
AcDbEntity
  8
Detail
  6
CONTINUOUS
 62
     4
100
AcDbPolyline
 90
     7
 10
211.500023
 20
24.893514
 42
-0.293962
 10
175.771705
 20
80.412358
 42
0.000000
 10
175.771705
 20
123.144409
 42
0.000000
 10
106.489673
 20
163.144409
 42
0.000000
 10
104.489673
 20
159.680307
 42
0.000000
 10
171.771705
 20
120.835008
 42
0.000000
 10
171.771705
 20
80.412358
 42
0.000000
  0
LWPOLYLINE
  5
3E1
100
AcDbEntity
  8
Detail
  6
CONTINUOUS
 62
     4
100
AcDbPolyline
 90
     2
 10
211.500023
 20
20.526282
 42
-0.301539
 10
171.771705
 20
80.412358
 42
0.000000
  0
LWPOLYLINE
  5
3E4
100
AcDbEntity
  8
Detail
  6
CONTINUOUS
 62
     4
100
AcDbPolyline
 90
     6
 10
66.688402
 20
183.814282
 42
0.000000
 10
81.410837
 20
175.314282
 42
1.000001
 10
82.410837
 20
177.046332
 42
0.000000
 10
67.688402
 20
185.546332
 42
0.000000
 10
59.745982
 20
186.667792
 42
0.000000
 10
44.899272
 20
195.239547
 42
0.000000
  0
LWPOLYLINE
  5
3EB
100
AcDbEntity
  8
Detail
  6
CONTINUOUS
 62
     6
100
AcDbPolyline
 90
     7
 10
180.771705
 20
69.951231
 42
0.000000
 10
180.771705
 20
121.412358
 42
0.000000
 10
106.123647
 20
164.510434
 42
0.000000
 10
100.659546
 20
163.046333
 42
0.000000
 10
66.188403
 20
182.948257
 42
-1.000000
 10
67.188402
 20
184.680308
 42
0.000000
 10
80.178783
 20
177.180308
 42
0.000000
  0
ENDBLK
  5
3F3
100
AcDbEntity
  8
0
100
AcDbBlockEnd
  0
BLOCK
  5
3F4
100
AcDbEntity
  8
Detail
100
AcDbBlockBegin
  2
B-60
 70
    66
 10
0.000000
 20
0.000000
 30
0.000000
  0
LWPOLYLINE
  5
3F5
100
AcDbEntity
  8
Detail
  6
CONTINUOUS
 62
     9
100
AcDbPolyline
 90
     8
 10
-130.056108
 20
296.250078
 42
0.000000
 10
40.604309
 20
197.719240
 42
0.000000
 10
53.841692
 20
195.850138
 42
0.000000
 10
174.771705
 20
126.031160
 42
0.000000
 10
176.021705
 20
128.196224
 42
0.000000
 10
54.671573
 20
198.257758
 42
0.000000
 10
41.434188
 20
200.126861
 42
0.000000
 10
-125.056065
 20
296.250078
 42
0.000000
  0
ENDBLK
  5
3FE
100
AcDbEntity
  8
0
100
AcDbBlockEnd
  0
BLOCK
  5
3FF
100
AcDbEntity
  8
Detail
100
AcDbBlockBegin
  2
B-61
 70
    66
 10
0.000000
 20
0.000000
 30
0.000000
  0
LWPOLYLINE
  5
400
100
AcDbEntity
  8
Detail
  6
CONTINUOUS
 62
     3
100
AcDbPolyline
 90
     4
 10
-172.056108
 20
296.250078
 42
0.000000
 10
161.771705
 20
103.514500
 42
0.000000
 10
171.771705
 20
120.835008
 42
0.000000
 10
-132.056110
 20
296.250078
 42
0.000000
  0
ENDBLK
  5
405
100
AcDbEntity
  8
0
100
AcDbBlockEnd
  0
BLOCK
  5
406
100
AcDbEntity
  8
SCHRAFF
100
AcDbBlockBegin
  2
B-62
 70
    66
 10
0.000000
 20
0.000000
 30
0.000000
  0
HATCH
  5
407
100
AcDbEntity
  8
SCHRAFF
  6
CONTINUOUS
 62
     9
100
AcDbHatch
 10
0.000000
 20
0.000000
 30
0.000000
210
0.000000
220
0.000000
230
1.000000
  2
_U
 70
     0
 71
     1
 91
     1
 92
    18
 72
     1
 73
     0
 93
     5
 10
171.771705
 20
120.835008
 42
0.000000
 10
-132.056110
 20
296.250078
 42
0.000000
 10
-172.056108
 20
296.250078
 42
0.000000
 10
161.771705
 20
103.514500
 42
0.000000
 10
171.771705
 20
120.835008
 42
0.000000
 97
     0
 75
     0
 76
     0
 52
0.000000
 41
1.000000
 77
     0
 78
     1
 53
45.000000
 43
-0.000000
 44
0.000000
 45
-2.209709
 46
2.209709
 79
     0
 98
     0
  0
ENDBLK
  5
408
100
AcDbEntity
  8
0
100
AcDbBlockEnd
  0
BLOCK
  5
409
100
AcDbEntity
  8
Detail
100
AcDbBlockBegin
  2
B-63
 70
    66
 10
0.000000
 20
0.000000
 30
0.000000
  0
LWPOLYLINE
  5
40A
100
AcDbEntity
  8
Detail
  6
CONTINUOUS
 62
     3
100
AcDbPolyline
 90
     5
 10
143.470435
 20
171.815770
 42
0.000000
 10
163.470435
 20
206.456787
 42
0.000000
 10
54.547386
 20
257.796532
 42
0.000000
 10
39.547386
 20
231.815770
 42
0.000000
 10
143.470435
 20
171.815770
 42
0.000000
  0
LWPOLYLINE
  5
410
100
AcDbEntity
  8
Detail
  6
CONTINUOUS
 62
     3
100
AcDbPolyline
 90
     5
 10
-1.233024
 20
284.089565
 42
0.000000
 10
-9.760092
 20
265.998432
 42
0.000000
 10
44.512724
 20
240.415988
 42
0.000000
 10
53.039792
 20
258.507121
 42
0.000000
 10
-1.233024
 20
284.089565
 42
0.000000
  0
ENDBLK
  5
416
100
AcDbEntity
  8
0
100
AcDbBlockEnd
  0
BLOCK
  5
417
100
AcDbEntity
  8
Detail
100
AcDbBlockBegin
  2
B-64
 70
    66
 10
0.000000
 20
0.000000
 30
0.000000
  0
LWPOLYLINE
  5
418
100
AcDbEntity
  8
Detail
  6
CONTINUOUS
 62
     3
100
AcDbPolyline
 90
     4
 10
71.476761
 20
296.250078
 42
0.000000
 10
197.584656
 20
236.811480
 42
0.000000
 10
189.057212
 20
218.719547
 42
0.000000
 10
24.567467
 20
296.250078
 42
0.000000
  0
ENDBLK
  5
41D
100
AcDbEntity
  8
0
100
AcDbBlockEnd
  0
BLOCK
  5
41E
100
AcDbEntity
  8
Detail
100
AcDbBlockBegin
  2
B-65
 70
    66
 10
0.000000
 20
0.000000
 30
0.000000
  0
LWPOLYLINE
  5
41F
100
AcDbEntity
  8
Detail
  6
CONTINUOUS
 62
     9
100
AcDbPolyline
 90
     2
 10
54.547386
 20
257.796532
 42
0.000000
 10
143.470435
 20
171.815770
 42
0.000000
  0
LWPOLYLINE
  5
422
100
AcDbEntity
  8
Detail
  6
CONTINUOUS
 62
     9
100
AcDbPolyline
 90
     2
 10
39.547386
 20
231.815770
 42
0.000000
 10
163.470435
 20
206.456787
 42
0.000000
  0
LWPOLYLINE
  5
425
100
AcDbEntity
  8
Detail
  6
CONTINUOUS
 62
     3
100
AcDbPolyline
 90
     5
 10
4.498707
 20
296.250078
 42
0.000000
 10
-1.233024
 20
284.089565
 42
0.000000
 10
179.678312
 20
198.818889
 42
0.000000
 10
188.204726
 20
216.908636
 42
0.000000
 10
19.876273
 20
296.250078
 42
0.000000
  0
LWPOLYLINE
  5
42B
100
AcDbEntity
  8
Detail
  6
CONTINUOUS
 62
     9
100
AcDbPolyline
 90
     5
 10
160.452486
 20
197.229546
 42
0.000000
 10
135.451931
 20
153.927315
 42
0.000000
 10
137.183982
 20
152.927315
 42
0.000000
 10
162.184536
 20
196.229546
 42
0.000000
 10
160.452486
 20
197.229546
 42
0.000000
  0
LWPOLYLINE
  5
431
100
AcDbEntity
  8
Detail
  6
DOT
 62
     9
100
AcDbPolyline
 90
     2
 10
130.953774
 20
202.136278
 42
0.000000
 10
156.934536
 20
187.136278
 42
0.000000
  0
LWPOLYLINE
  5
434
100
AcDbEntity
  8
Detail
  6
CONTINUOUS
 62
     6
100
AcDbPolyline
 90
     5
 10
140.451931
 20
162.587570
 42
0.000000
 10
137.951931
 20
158.257442
 42
0.000000
 10
139.683982
 20
157.257443
 42
0.000000
 10
142.183982
 20
161.587570
 42
0.000000
 10
140.451931
 20
162.587570
 42
0.000000
  0
ENDBLK
  5
43A
100
AcDbEntity
  8
0
100
AcDbBlockEnd
  0
BLOCK
  5
43B
100
AcDbEntity
  8
Detail
100
AcDbBlockBegin
  2
B-66
 70
    66
 10
0.000000
 20
0.000000
 30
0.000000
  0
LWPOLYLINE
  5
43C
100
AcDbEntity
  8
Detail
  6
CONTINUOUS
 62
     6
100
AcDbPolyline
 90
     5
 10
145.451931
 20
171.247824
 42
0.000000
 10
142.951931
 20
166.917697
 42
0.000000
 10
144.683982
 20
165.917697
 42
0.000000
 10
147.183982
 20
170.247824
 42
0.000000
 10
145.451931
 20
171.247824
 42
0.000000
  0
ENDBLK
  5
442
100
AcDbEntity
  8
0
100
AcDbBlockEnd
  0
BLOCK
  5
443
100
AcDbEntity
  8
Detail
100
AcDbBlockBegin
  2
B-67
 70
    66
 10
0.000000
 20
0.000000
 30
0.000000
  0
LWPOLYLINE
  5
444
100
AcDbEntity
  8
Detail
  6
CONTINUOUS
 62
     6
100
AcDbPolyline
 90
     5
 10
150.451931
 20
179.908078
 42
0.000000
 10
147.951931
 20
175.577951
 42
0.000000
 10
149.683982
 20
174.577951
 42
0.000000
 10
152.183982
 20
178.908078
 42
0.000000
 10
150.451931
 20
179.908078
 42
0.000000
  0
ENDBLK
  5
44A
100
AcDbEntity
  8
0
100
AcDbBlockEnd
  0
BLOCK
  5
44B
100
AcDbEntity
  8
Detail
100
AcDbBlockBegin
  2
B-68
 70
    66
 10
0.000000
 20
0.000000
 30
0.000000
  0
LWPOLYLINE
  5
44C
100
AcDbEntity
  8
Detail
  6
CONTINUOUS
 62
     6
100
AcDbPolyline
 90
     5
 10
155.451931
 20
188.568332
 42
0.000000
 10
152.951931
 20
184.238205
 42
0.000000
 10
154.683982
 20
183.238205
 42
0.000000
 10
157.183982
 20
187.568332
 42
0.000000
 10
155.451931
 20
188.568332
 42
0.000000
  0
ENDBLK
  5
452
100
AcDbEntity
  8
0
100
AcDbBlockEnd
  0
BLOCK
  5
453
100
AcDbEntity
  8
Detail
100
AcDbBlockBegin
  2
B-69
 70
    66
 10
0.000000
 20
0.000000
 30
0.000000
  0
LWPOLYLINE
  5
454
100
AcDbEntity
  8
Detail
  6
CONTINUOUS
 62
     6
100
AcDbPolyline
 90
     5
 10
160.451931
 20
197.228586
 42
0.000000
 10
157.951931
 20
192.898459
 42
0.000000
 10
159.683982
 20
191.898459
 42
0.000000
 10
162.183982
 20
196.228586
 42
0.000000
 10
160.451931
 20
197.228586
 42
0.000000
  0
ENDBLK
  5
45A
100
AcDbEntity
  8
0
100
AcDbBlockEnd
  0
BLOCK
  5
45B
100
AcDbEntity
  8
Detail
100
AcDbBlockBegin
  2
B-70
 70
    66
 10
0.000000
 20
0.000000
 30
0.000000
  0
LWPOLYLINE
  5
45C
100
AcDbEntity
  8
Detail
  6
CONTINUOUS
 62
     9
100
AcDbPolyline
 90
     2
 10
-116.000018
 20
-11.392171
 42
0.000000
 10
-116.000018
 20
-25.371584
 42
0.000000
  0
LWPOLYLINE
  5
45F
100
AcDbEntity
  8
Detail
  6
CONTINUOUS
 62
     9
100
AcDbPolyline
 90
    83
 10
-87.500018
 20
-48.392171
 42
0.000000
 10
-87.000018
 20
-48.392171
 42
0.000000
 10
-86.000018
 20
-43.392171
 42
0.000000
 10
-86.000018
 20
6.607829
 42
0.000000
 10
-87.000018
 20
11.607829
 42
0.000000
 10
-87.500018
 20
11.607829
 42
0.000000
 10
-87.500018
 20
-5.392171
 42
0.000000
 10
-88.750018
 20
-9.142171
 42
0.000000
 10
-92.500018
 20
-10.392171
 42
0.000000
 10
-116.000018
 20
-11.392171
 42
0.000000
 10
-122.000018
 20
-13.892171
 42
0.000000
 10
-164.462215
 20
-14.432171
 42
0.000000
 10
-165.828158
 20
-14.679180
 42
0.000000
 10
-165.903911
 20
-14.432171
 42
0.000000
 10
-168.686215
 20
-14.432171
 42
0.000000
 10
-170.052158
 20
-14.679180
 42
0.000000
 10
-170.127911
 20
-14.432171
 42
0.000000
 10
-172.910215
 20
-14.432171
 42
0.000000
 10
-174.276158
 20
-14.679180
 42
0.000000
 10
-174.351827
 20
-14.436971
 42
0.000000
 10
-177.134215
 20
-14.432171
 42
0.000000
 10
-178.500158
 20
-14.679180
 42
0.000000
 10
-178.575911
 20
-14.432171
 42
0.000000
 10
-181.358215
 20
-14.432171
 42
0.000000
 10
-182.724158
 20
-14.679180
 42
0.000000
 10
-182.799911
 20
-14.432171
 42
0.000000
 10
-185.582215
 20
-14.432171
 42
0.000000
 10
-186.948158
 20
-14.679180
 42
0.000000
 10
-187.023911
 20
-14.432171
 42
0.000000
 10
-189.806215
 20
-14.432171
 42
0.000000
 10
-191.172158
 20
-14.679180
 42
0.000000
 10
-191.247911
 20
-14.432171
 42
0.000000
 10
-194.030215
 20
-14.432171
 42
0.000000
 10
-195.396158
 20
-14.679180
 42
0.000000
 10
-195.471911
 20
-14.432171
 42
0.000000
 10
-198.254215
 20
-14.432171
 42
0.000000
 10
-199.458372
 20
-14.714603
 42
0.000000
 10
-199.917355
 20
-14.552171
 42
0.000000
 10
-200.894215
 20
-14.986427
 42
0.000000
 10
-201.134215
 20
-15.512171
 42
0.000000
 10
-201.902215
 20
-15.512171
 42
0.000000
 10
-203.420108
 20
-16.053139
 42
0.000000
 10
-204.253725
 20
-17.432171
 42
0.000000
 10
-206.000018
 20
-18.392171
 42
0.000000
 10
-204.253725
 20
-19.352171
 42
0.000000
 10
-203.420108
 20
-20.731203
 42
0.000000
 10
-202.157414
 20
-21.258564
 42
0.000000
 10
-201.134215
 20
-21.272171
 42
0.000000
 10
-200.894215
 20
-21.797915
 42
0.000000
 10
-200.142059
 20
-22.232171
 42
0.000000
 10
-199.692646
 20
-22.232171
 42
0.000000
 10
-199.458372
 20
-22.069738
 42
0.000000
 10
-198.254215
 20
-22.352171
 42
0.000000
 10
-195.471911
 20
-22.352171
 42
0.000000
 10
-195.396158
 20
-22.105161
 42
0.000000
 10
-194.030215
 20
-22.352171
 42
0.000000
 10
-191.247911
 20
-22.352171
 42
0.000000
 10
-191.172158
 20
-22.105161
 42
0.000000
 10
-189.806215
 20
-22.352171
 42
0.000000
 10
-187.023911
 20
-22.352171
 42
0.000000
 10
-186.948158
 20
-22.105161
 42
0.000000
 10
-185.582215
 20
-22.352171
 42
0.000000
 10
-182.799911
 20
-22.352171
 42
0.000000
 10
-182.724158
 20
-22.105161
 42
0.000000
 10
-181.358215
 20
-22.352171
 42
0.000000
 10
-178.575911
 20
-22.352171
 42
0.000000
 10
-178.500158
 20
-22.105161
 42
0.000000
 10
-177.134215
 20
-22.352171
 42
0.000000
 10
-174.351827
 20
-22.347371
 42
0.000000
 10
-174.276158
 20
-22.105161
 42
0.000000
 10
-172.910215
 20
-22.352171
 42
0.000000
 10
-170.127911
 20
-22.352171
 42
0.000000
 10
-170.052158
 20
-22.105161
 42
0.000000
 10
-168.686215
 20
-22.352171
 42
0.000000
 10
-165.903911
 20
-22.352171
 42
0.000000
 10
-165.828158
 20
-22.105161
 42
0.000000
 10
-164.462215
 20
-22.352171
 42
0.000000
 10
-122.000018
 20
-22.892171
 42
0.000000
 10
-116.000018
 20
-25.392171
 42
0.000000
 10
-92.500018
 20
-26.392171
 42
0.000000
 10
-88.750018
 20
-27.642171
 42
0.000000
 10
-87.500018
 20
-31.392171
 42
0.000000
 10
-87.500018
 20
-48.392171
 42
0.000000
  0
LWPOLYLINE
  5
4B3
100
AcDbEntity
  8
Detail
  6
CONTINUOUS
 62
     9
100
AcDbPolyline
 90
   203
 10
-206.000018
 20
-18.392171
 42
0.000000
 10
-203.886942
 20
-17.516906
 42
0.000000
 10
-203.385367
 20
-16.648152
 42
0.000000
 10
-202.996692
 20
-17.148152
 42
0.000000
 10
-201.916355
 20
-16.700662
 42
0.000000
 10
-201.414780
 20
-15.831908
 42
0.000000
 10
-201.026105
 20
-16.331908
 42
0.000000
 10
-200.447328
 20
-16.092171
 42
0.000000
 10
-199.846289
 20
-16.092171
 42
0.000000
 10
-199.557614
 20
-15.592171
 42
0.000000
 10
-199.168939
 20
-16.092171
 42
0.000000
 10
-198.036289
 20
-16.092171
 42
0.000000
 10
-197.747614
 20
-15.592171
 42
0.000000
 10
-197.358939
 20
-16.092171
 42
0.000000
 10
-196.226289
 20
-16.092171
 42
0.000000
 10
-195.937614
 20
-15.592171
 42
0.000000
 10
-195.548939
 20
-16.092171
 42
0.000000
 10
-194.416289
 20
-16.092171
 42
0.000000
 10
-194.127614
 20
-15.592171
 42
0.000000
 10
-193.738939
 20
-16.092171
 42
0.000000
 10
-192.606289
 20
-16.092171
 42
0.000000
 10
-192.317614
 20
-15.592171
 42
0.000000
 10
-191.928939
 20
-16.092171
 42
0.000000
 10
-190.796289
 20
-16.092171
 42
0.000000
 10
-190.507614
 20
-15.592171
 42
0.000000
 10
-190.118939
 20
-16.092171
 42
0.000000
 10
-188.986289
 20
-16.092171
 42
0.000000
 10
-188.697614
 20
-15.592171
 42
0.000000
 10
-188.308939
 20
-16.092171
 42
0.000000
 10
-187.176289
 20
-16.092171
 42
0.000000
 10
-186.887614
 20
-15.592171
 42
0.000000
 10
-186.498939
 20
-16.092171
 42
0.000000
 10
-185.366289
 20
-16.092171
 42
0.000000
 10
-185.077614
 20
-15.592171
 42
0.000000
 10
-184.688939
 20
-16.092171
 42
0.000000
 10
-183.556289
 20
-16.092171
 42
0.000000
 10
-183.267614
 20
-15.592171
 42
0.000000
 10
-182.878939
 20
-16.092171
 42
0.000000
 10
-181.746289
 20
-16.092171
 42
0.000000
 10
-181.457614
 20
-15.592171
 42
0.000000
 10
-181.068939
 20
-16.092171
 42
0.000000
 10
-179.936289
 20
-16.092171
 42
0.000000
 10
-179.647614
 20
-15.592171
 42
0.000000
 10
-179.258939
 20
-16.092171
 42
0.000000
 10
-178.126289
 20
-16.092171
 42
0.000000
 10
-177.837614
 20
-15.592171
 42
0.000000
 10
-177.448939
 20
-16.092171
 42
0.000000
 10
-176.316289
 20
-16.092171
 42
0.000000
 10
-176.027614
 20
-15.592171
 42
0.000000
 10
-175.638939
 20
-16.092171
 42
0.000000
 10
-174.506289
 20
-16.092171
 42
0.000000
 10
-174.217614
 20
-15.592171
 42
0.000000
 10
-173.828939
 20
-16.092171
 42
0.000000
 10
-172.696289
 20
-16.092171
 42
0.000000
 10
-172.407614
 20
-15.592171
 42
0.000000
 10
-172.018939
 20
-16.092171
 42
0.000000
 10
-170.886289
 20
-16.092171
 42
0.000000
 10
-170.597614
 20
-15.592171
 42
0.000000
 10
-170.186425
 20
-16.092171
 42
0.000000
 10
-169.076289
 20
-16.092171
 42
0.000000
 10
-168.787614
 20
-15.592171
 42
0.000000
 10
-168.398939
 20
-16.092171
 42
0.000000
 10
-167.266289
 20
-16.092171
 42
0.000000
 10
-166.977614
 20
-15.592171
 42
0.000000
 10
-166.588939
 20
-16.092171
 42
0.000000
 10
-165.456289
 20
-16.092171
 42
0.000000
 10
-165.167614
 20
-15.592171
 42
0.000000
 10
-164.778939
 20
-16.092171
 42
0.000000
 10
-163.646289
 20
-16.092171
 42
0.000000
 10
-163.357614
 20
-15.592171
 42
0.000000
 10
-162.968939
 20
-16.092171
 42
0.000000
 10
-161.836289
 20
-16.092171
 42
0.000000
 10
-161.547614
 20
-15.592171
 42
0.000000
 10
-161.158939
 20
-16.092171
 42
0.000000
 10
-160.026289
 20
-16.092171
 42
0.000000
 10
-159.737614
 20
-15.592171
 42
0.000000
 10
-159.348939
 20
-16.092171
 42
0.000000
 10
-158.216289
 20
-16.092171
 42
0.000000
 10
-157.927614
 20
-15.592171
 42
0.000000
 10
-157.538939
 20
-16.092171
 42
0.000000
 10
-156.406289
 20
-16.092171
 42
0.000000
 10
-156.117614
 20
-15.592171
 42
0.000000
 10
-155.728939
 20
-16.092171
 42
0.000000
 10
-154.596289
 20
-16.092171
 42
0.000000
 10
-154.307614
 20
-15.592171
 42
0.000000
 10
-153.918939
 20
-16.092171
 42
0.000000
 10
-152.786289
 20
-16.092171
 42
0.000000
 10
-152.497614
 20
-15.592171
 42
0.000000
 10
-152.108939
 20
-16.092171
 42
0.000000
 10
-150.976289
 20
-16.092171
 42
0.000000
 10
-150.687614
 20
-15.592171
 42
0.000000
 10
-150.298939
 20
-16.092171
 42
0.000000
 10
-149.166289
 20
-16.092171
 42
0.000000
 10
-148.877614
 20
-15.592171
 42
0.000000
 10
-148.488939
 20
-16.092171
 42
0.000000
 10
-147.356289
 20
-16.092171
 42
0.000000
 10
-147.067614
 20
-15.592171
 42
0.000000
 10
-146.678939
 20
-16.092171
 42
0.000000
 10
-146.000018
 20
-16.092171
 42
0.000000
 10
-145.826813
 20
-15.992171
 42
0.000000
 10
-122.000018
 20
-13.892171
 42
0.000000
 10
-122.000018
 20
-22.892171
 42
0.000000
 10
-145.826813
 20
-20.792171
 42
0.000000
 10
-146.000018
 20
-20.692171
 42
0.000000
 10
-146.162614
 20
-21.192171
 42
0.000000
 10
-146.451289
 20
-20.692171
 42
0.000000
 10
-147.583939
 20
-20.692171
 42
0.000000
 10
-147.972614
 20
-21.192171
 42
0.000000
 10
-148.261289
 20
-20.692171
 42
0.000000
 10
-149.393939
 20
-20.692171
 42
0.000000
 10
-149.782614
 20
-21.192171
 42
0.000000
 10
-150.071289
 20
-20.692171
 42
0.000000
 10
-151.203939
 20
-20.692171
 42
0.000000
 10
-151.592614
 20
-21.192171
 42
0.000000
 10
-151.881289
 20
-20.692171
 42
0.000000
 10
-153.013939
 20
-20.692171
 42
0.000000
 10
-153.402614
 20
-21.192171
 42
0.000000
 10
-153.691289
 20
-20.692171
 42
0.000000
 10
-154.823939
 20
-20.692171
 42
0.000000
 10
-155.212614
 20
-21.192171
 42
0.000000
 10
-155.501289
 20
-20.692171
 42
0.000000
 10
-156.633939
 20
-20.692171
 42
0.000000
 10
-157.022614
 20
-21.192171
 42
0.000000
 10
-157.311289
 20
-20.692171
 42
0.000000
 10
-158.443939
 20
-20.692171
 42
0.000000
 10
-158.832614
 20
-21.192171
 42
0.000000
 10
-159.121289
 20
-20.692171
 42
0.000000
 10
-160.253939
 20
-20.692171
 42
0.000000
 10
-160.642614
 20
-21.192171
 42
0.000000
 10
-160.931289
 20
-20.692171
 42
0.000000
 10
-162.063939
 20
-20.692171
 42
0.000000
 10
-162.452614
 20
-21.192171
 42
0.000000
 10
-162.741289
 20
-20.692171
 42
0.000000
 10
-163.873939
 20
-20.692171
 42
0.000000
 10
-164.262614
 20
-21.192171
 42
0.000000
 10
-164.551289
 20
-20.692171
 42
0.000000
 10
-165.683939
 20
-20.692171
 42
0.000000
 10
-166.072614
 20
-21.192171
 42
0.000000
 10
-166.361289
 20
-20.692171
 42
0.000000
 10
-167.493939
 20
-20.692171
 42
0.000000
 10
-167.882614
 20
-21.192171
 42
0.000000
 10
-168.171289
 20
-20.692171
 42
0.000000
 10
-169.303939
 20
-20.692171
 42
0.000000
 10
-169.692614
 20
-21.192171
 42
0.000000
 10
-169.981289
 20
-20.692171
 42
0.000000
 10
-171.113939
 20
-20.692171
 42
0.000000
 10
-171.502614
 20
-21.192171
 42
0.000000
 10
-171.791289
 20
-20.692171
 42
0.000000
 10
-172.923939
 20
-20.692171
 42
0.000000
 10
-173.312614
 20
-21.192171
 42
0.000000
 10
-173.601289
 20
-20.692171
 42
0.000000
 10
-174.733939
 20
-20.692171
 42
0.000000
 10
-175.122614
 20
-21.192171
 42
0.000000
 10
-175.411289
 20
-20.692171
 42
0.000000
 10
-176.543939
 20
-20.692171
 42
0.000000
 10
-176.932614
 20
-21.192171
 42
0.000000
 10
-177.221289
 20
-20.692171
 42
0.000000
 10
-178.353939
 20
-20.692171
 42
0.000000
 10
-178.742614
 20
-21.192171
 42
0.000000
 10
-179.031289
 20
-20.692171
 42
0.000000
 10
-180.163939
 20
-20.692171
 42
0.000000
 10
-180.552614
 20
-21.192171
 42
0.000000
 10
-180.841289
 20
-20.692171
 42
0.000000
 10
-181.973939
 20
-20.692171
 42
0.000000
 10
-182.362614
 20
-21.192171
 42
0.000000
 10
-182.651289
 20
-20.692171
 42
0.000000
 10
-183.783939
 20
-20.692171
 42
0.000000
 10
-184.172614
 20
-21.192171
 42
0.000000
 10
-184.461289
 20
-20.692171
 42
0.000000
 10
-185.593939
 20
-20.692171
 42
0.000000
 10
-185.982614
 20
-21.192171
 42
0.000000
 10
-186.271289
 20
-20.692171
 42
0.000000
 10
-187.403939
 20
-20.692171
 42
0.000000
 10
-187.792614
 20
-21.192171
 42
0.000000
 10
-188.081289
 20
-20.692171
 42
0.000000
 10
-189.213939
 20
-20.692171
 42
0.000000
 10
-189.602614
 20
-21.192171
 42
0.000000
 10
-189.891289
 20
-20.692171
 42
0.000000
 10
-191.023939
 20
-20.692171
 42
0.000000
 10
-191.412614
 20
-21.192171
 42
0.000000
 10
-191.701289
 20
-20.692171
 42
0.000000
 10
-192.833939
 20
-20.692171
 42
0.000000
 10
-193.222614
 20
-21.192171
 42
0.000000
 10
-193.511289
 20
-20.692171
 42
0.000000
 10
-194.643939
 20
-20.692171
 42
0.000000
 10
-195.032614
 20
-21.192171
 42
0.000000
 10
-195.321289
 20
-20.692171
 42
0.000000
 10
-196.453939
 20
-20.692171
 42
0.000000
 10
-196.842614
 20
-21.192171
 42
0.000000
 10
-197.131289
 20
-20.692171
 42
0.000000
 10
-198.263939
 20
-20.692171
 42
0.000000
 10
-198.652614
 20
-21.192171
 42
0.000000
 10
-198.941289
 20
-20.692171
 42
0.000000
 10
-200.073939
 20
-20.692171
 42
0.000000
 10
-200.462614
 20
-21.192171
 42
0.000000
 10
-200.846829
 20
-20.526692
 42
0.000000
 10
-201.775689
 20
-20.141945
 42
0.000000
 10
-202.164364
 20
-20.641945
 42
0.000000
 10
-202.665938
 20
-19.773192
 42
0.000000
 10
-203.449302
 20
-19.448712
 42
0.000000
 10
-203.837977
 20
-19.948712
 42
0.000000
 10
-204.339552
 20
-19.079958
 42
0.000000
 10
-206.000018
 20
-18.392171
 42
0.000000
  0
ENDBLK
  5
57F
100
AcDbEntity
  8
0
100
AcDbBlockEnd
  0
BLOCK
  5
580
100
AcDbEntity
  8
Detail
100
AcDbBlockBegin
  2
B-72
 70
    66
 10
0.000000
 20
0.000000
 30
0.000000
  0
LWPOLYLINE
  5
581
100
AcDbEntity
  8
Detail
  6
CONTINUOUS
 62
     3
100
AcDbPolyline
 90
     5
 10
-67.500018
 20
11.607829
 42
0.000000
 10
-87.500018
 20
11.607829
 42
0.000000
 10
-87.500018
 20
-48.392171
 42
0.000000
 10
-67.500018
 20
-48.392171
 42
0.000000
 10
-67.500018
 20
11.607829
 42
0.000000
  0
ENDBLK
  5
587
100
AcDbEntity
  8
0
100
AcDbBlockEnd
  0
BLOCK
  5
588
100
AcDbEntity
  8
Detail
100
AcDbBlockBegin
  2
B-73
 70
    66
 10
0.000000
 20
0.000000
 30
0.000000
  0
LWPOLYLINE
  5
589
100
AcDbEntity
  8
Detail
  6
CONTINUOUS
 62
     6
100
AcDbPolyline
 90
   287
 10
-61.166449
 20
-196.249941
 42
0.000000
 10
-61.000018
 20
-195.917078
 42
0.000000
 10
-61.500018
 20
-194.917078
 42
0.000000
 10
-61.500018
 20
-193.917078
 42
0.000000
 10
-62.000018
 20
-192.917078
 42
0.000000
 10
-61.500018
 20
-191.917078
 42
0.000000
 10
-61.500018
 20
-190.917078
 42
0.000000
 10
-61.000018
 20
-189.917078
 42
0.000000
 10
-61.500018
 20
-188.917078
 42
0.000000
 10
-61.500018
 20
-187.917078
 42
0.000000
 10
-62.000018
 20
-186.917078
 42
0.000000
 10
-61.500018
 20
-185.917078
 42
0.000000
 10
-61.500018
 20
-184.917078
 42
0.000000
 10
-61.000018
 20
-183.917078
 42
0.000000
 10
-61.500018
 20
-182.917078
 42
0.000000
 10
-61.500018
 20
-181.917078
 42
0.000000
 10
-62.000018
 20
-180.917078
 42
0.000000
 10
-61.500018
 20
-179.917078
 42
0.000000
 10
-61.500018
 20
-178.917078
 42
0.000000
 10
-61.000018
 20
-177.917078
 42
0.000000
 10
-61.500018
 20
-176.917078
 42
0.000000
 10
-61.500018
 20
-175.917078
 42
0.000000
 10
-62.000018
 20
-174.917078
 42
0.000000
 10
-61.500018
 20
-173.917078
 42
0.000000
 10
-61.495620
 20
-172.908282
 42
0.000000
 10
-61.000018
 20
-171.917078
 42
0.000000
 10
-61.500018
 20
-170.917078
 42
0.000000
 10
-61.500018
 20
-169.917078
 42
0.000000
 10
-62.000018
 20
-168.917078
 42
0.000000
 10
-61.500018
 20
-167.917078
 42
0.000000
 10
-61.500018
 20
-166.917078
 42
0.000000
 10
-61.000018
 20
-165.917078
 42
0.000000
 10
-61.500018
 20
-164.917078
 42
0.000000
 10
-61.500018
 20
-163.917078
 42
0.000000
 10
-62.000018
 20
-162.917078
 42
0.000000
 10
-61.500018
 20
-161.917078
 42
0.000000
 10
-61.500018
 20
-160.917078
 42
0.000000
 10
-61.000018
 20
-159.917078
 42
0.000000
 10
-61.500018
 20
-158.917078
 42
0.000000
 10
-61.500018
 20
-157.917078
 42
0.000000
 10
-62.000018
 20
-156.917078
 42
0.000000
 10
-61.500018
 20
-155.917078
 42
0.000000
 10
-61.500018
 20
-154.917078
 42
0.000000
 10
-61.000018
 20
-153.917078
 42
0.000000
 10
-61.500018
 20
-152.917078
 42
0.000000
 10
-61.500018
 20
-151.917078
 42
0.000000
 10
-62.000018
 20
-150.917078
 42
0.000000
 10
-61.500018
 20
-149.917078
 42
0.000000
 10
-61.500018
 20
-148.917078
 42
0.000000
 10
-61.000018
 20
-147.917078
 42
0.000000
 10
-61.500018
 20
-146.917078
 42
0.000000
 10
-61.500018
 20
-145.917078
 42
0.000000
 10
-62.000018
 20
-144.917078
 42
0.000000
 10
-61.500018
 20
-143.917078
 42
0.000000
 10
-61.500018
 20
-142.917078
 42
0.000000
 10
-61.000018
 20
-141.917078
 42
0.000000
 10
-61.500018
 20
-140.917078
 42
0.000000
 10
-61.500018
 20
-139.917078
 42
0.000000
 10
-62.000018
 20
-138.917078
 42
0.000000
 10
-61.500018
 20
-137.917078
 42
0.000000
 10
-61.500018
 20
-136.917078
 42
0.000000
 10
-61.000018
 20
-135.917078
 42
0.000000
 10
-61.500018
 20
-134.917078
 42
0.000000
 10
-61.500018
 20
-133.917078
 42
0.000000
 10
-62.000018
 20
-132.917078
 42
0.000000
 10
-61.500018
 20
-131.917078
 42
0.000000
 10
-61.500018
 20
-130.908282
 42
0.000000
 10
-61.000018
 20
-129.917078
 42
0.000000
 10
-61.500018
 20
-128.917078
 42
0.000000
 10
-61.500018
 20
-127.917078
 42
0.000000
 10
-62.000018
 20
-126.917078
 42
0.000000
 10
-61.500018
 20
-125.917078
 42
0.000000
 10
-61.500018
 20
-124.917078
 42
0.000000
 10
-61.000018
 20
-123.917078
 42
0.000000
 10
-61.500018
 20
-122.917078
 42
0.000000
 10
-61.500018
 20
-121.917078
 42
0.000000
 10
-62.000018
 20
-120.917078
 42
0.000000
 10
-61.500018
 20
-119.917078
 42
0.000000
 10
-61.500018
 20
-118.917078
 42
0.000000
 10
-61.000018
 20
-117.917078
 42
0.000000
 10
-61.500018
 20
-116.917078
 42
0.000000
 10
-61.500018
 20
-115.917078
 42
0.000000
 10
-62.000018
 20
-114.917078
 42
0.000000
 10
-61.500018
 20
-113.917078
 42
0.000000
 10
-61.500018
 20
-112.917078
 42
0.000000
 10
-61.000018
 20
-111.917078
 42
0.000000
 10
-61.500018
 20
-110.917078
 42
0.000000
 10
-61.500018
 20
-109.917078
 42
0.000000
 10
-62.000018
 20
-108.917078
 42
0.000000
 10
-61.500018
 20
-107.917078
 42
0.000000
 10
-61.500018
 20
-106.917078
 42
0.000000
 10
-61.000018
 20
-105.917078
 42
0.000000
 10
-61.500018
 20
-104.917078
 42
0.000000
 10
-61.500018
 20
-103.917078
 42
0.000000
 10
-62.000018
 20
-102.917078
 42
0.000000
 10
-61.500018
 20
-101.917078
 42
0.000000
 10
-61.500018
 20
-100.917078
 42
0.000000
 10
-61.000018
 20
-99.917078
 42
0.000000
 10
-61.500018
 20
-98.909411
 42
0.000000
 10
-61.500018
 20
-97.917078
 42
0.000000
 10
-62.000018
 20
-96.917078
 42
0.000000
 10
-61.500018
 20
-95.917078
 42
0.000000
 10
-61.500018
 20
-94.917078
 42
0.000000
 10
-61.000018
 20
-93.917078
 42
0.000000
 10
-61.500018
 20
-92.917078
 42
0.000000
 10
-61.500018
 20
-91.917078
 42
0.000000
 10
-62.000018
 20
-90.917078
 42
0.000000
 10
-61.500018
 20
-89.917078
 42
0.000000
 10
-61.500018
 20
-88.917078
 42
0.000000
 10
-61.000018
 20
-87.917078
 42
0.000000
 10
-61.500018
 20
-86.917078
 42
0.000000
 10
-61.500018
 20
-85.917078
 42
0.000000
 10
-62.000018
 20
-84.917078
 42
0.000000
 10
-61.500018
 20
-83.917078
 42
0.000000
 10
-61.500018
 20
-82.917078
 42
0.000000
 10
-61.000018
 20
-81.917078
 42
0.000000
 10
-61.500018
 20
-80.917078
 42
0.000000
 10
-61.500018
 20
-79.917078
 42
0.000000
 10
-62.000018
 20
-78.917078
 42
0.000000
 10
-61.500018
 20
-77.917078
 42
0.000000
 10
-61.500018
 20
-76.917078
 42
0.000000
 10
-61.000018
 20
-75.917078
 42
0.000000
 10
-61.500018
 20
-74.917078
 42
0.000000
 10
-61.500018
 20
-73.917078
 42
0.000000
 10
-62.000018
 20
-72.917078
 42
0.000000
 10
-61.500018
 20
-71.917078
 42
0.000000
 10
-61.500018
 20
-70.917078
 42
0.000000
 10
-61.000018
 20
-69.917078
 42
0.000000
 10
-61.500018
 20
-68.917078
 42
0.000000
 10
-61.500018
 20
-67.917078
 42
0.000000
 10
-62.000018
 20
-66.917078
 42
0.000000
 10
-61.500018
 20
-65.917078
 42
0.000000
 10
-61.500018
 20
-64.917078
 42
0.000000
 10
-61.000018
 20
-63.917078
 42
0.000000
 10
-61.500018
 20
-62.917078
 42
0.000000
 10
-61.500018
 20
-61.917078
 42
0.000000
 10
-62.000018
 20
-60.917078
 42
0.000000
 10
-61.500018
 20
-59.917078
 42
0.000000
 10
-61.500018
 20
-58.917078
 42
0.000000
 10
-61.000018
 20
-57.917078
 42
0.000000
 10
-61.500018
 20
-56.917078
 42
0.000000
 10
-61.500018
 20
-55.917078
 42
0.000000
 10
-62.000018
 20
-54.917078
 42
0.000000
 10
-61.500018
 20
-53.917078
 42
0.000000
 10
-61.500018
 20
-52.917078
 42
0.000000
 10
-61.000018
 20
-51.917078
 42
0.000000
 10
-61.500018
 20
-50.917078
 42
0.000000
 10
-61.500018
 20
-49.917078
 42
0.000000
 10
-62.000018
 20
-48.917078
 42
0.000000
 10
-61.500018
 20
-47.917078
 42
0.000000
 10
-61.500018
 20
-46.917078
 42
0.000000
 10
-61.000018
 20
-45.917078
 42
0.000000
 10
-61.500018
 20
-44.917078
 42
0.000000
 10
-61.500018
 20
-43.917078
 42
0.000000
 10
-62.000018
 20
-42.917078
 42
0.000000
 10
-61.500018
 20
-41.917078
 42
0.000000
 10
-61.500018
 20
-40.917078
 42
0.000000
 10
-61.000018
 20
-39.917078
 42
0.000000
 10
-61.500018
 20
-38.917078
 42
0.000000
 10
-61.500018
 20
-37.917078
 42
0.000000
 10
-62.000018
 20
-36.917078
 42
0.000000
 10
-61.500018
 20
-35.917078
 42
0.000000
 10
-61.500018
 20
-34.917078
 42
0.000000
 10
-61.000018
 20
-33.917078
 42
0.000000
 10
-61.500018
 20
-32.917078
 42
0.000000
 10
-61.500018
 20
-31.917078
 42
0.000000
 10
-62.000018
 20
-30.917078
 42
0.000000
 10
-61.500018
 20
-29.917078
 42
0.000000
 10
-61.500018
 20
-28.917078
 42
0.000000
 10
-61.000018
 20
-27.917078
 42
0.000000
 10
-61.500018
 20
-26.917078
 42
0.000000
 10
-61.500018
 20
-25.917078
 42
0.000000
 10
-62.000018
 20
-24.917078
 42
0.000000
 10
-61.500018
 20
-23.917078
 42
0.000000
 10
-61.500018
 20
-22.917078
 42
0.000000
 10
-61.000018
 20
-21.917078
 42
0.000000
 10
-61.500018
 20
-20.917078
 42
0.000000
 10
-61.500018
 20
-19.917078
 42
0.000000
 10
-62.000018
 20
-18.917078
 42
0.000000
 10
-61.500018
 20
-17.917078
 42
0.000000
 10
-61.500018
 20
-16.917078
 42
0.000000
 10
-61.000018
 20
-15.917078
 42
0.000000
 10
-61.500018
 20
-14.917078
 42
0.000000
 10
-61.500018
 20
-13.917078
 42
0.000000
 10
-62.000018
 20
-12.917078
 42
0.000000
 10
-61.500018
 20
-11.917078
 42
0.000000
 10
-61.500018
 20
-10.917078
 42
0.000000
 10
-61.000018
 20
-9.917078
 42
0.000000
 10
-61.500018
 20
-8.917078
 42
0.000000
 10
-61.500018
 20
-7.917078
 42
0.000000
 10
-62.000018
 20
-6.917078
 42
0.000000
 10
-61.500018
 20
-5.917078
 42
0.000000
 10
-61.500018
 20
-4.917078
 42
0.000000
 10
-61.000018
 20
-3.917078
 42
0.000000
 10
-61.500018
 20
-2.917078
 42
0.000000
 10
-61.500018
 20
-1.917078
 42
0.000000
 10
-62.000018
 20
-0.917078
 42
0.000000
 10
-61.500018
 20
0.082922
 42
0.000000
 10
-61.500018
 20
1.082922
 42
0.000000
 10
-61.000018
 20
2.082922
 42
0.000000
 10
-61.500018
 20
3.082922
 42
0.000000
 10
-61.500018
 20
4.082922
 42
0.000000
 10
-62.000018
 20
5.082922
 42
0.000000
 10
-61.500018
 20
6.082922
 42
0.000000
 10
-61.500018
 20
7.082922
 42
0.000000
 10
-61.000018
 20
8.082922
 42
0.000000
 10
-61.500018
 20
9.082922
 42
0.000000
 10
-61.500018
 20
10.082922
 42
0.000000
 10
-62.000018
 20
11.082922
 42
0.000000
 10
-61.500018
 20
12.082922
 42
0.000000
 10
-61.500018
 20
13.082922
 42
0.000000
 10
-61.000018
 20
14.082922
 42
0.000000
 10
-61.500018
 20
15.082922
 42
0.000000
 10
-61.500018
 20
16.082922
 42
0.000000
 10
-62.000018
 20
17.082922
 42
0.000000
 10
-61.500018
 20
18.082922
 42
0.000000
 10
-61.500018
 20
19.082922
 42
0.000000
 10
-61.000018
 20
20.082922
 42
0.000000
 10
-61.500018
 20
21.082922
 42
0.000000
 10
-61.500018
 20
22.082922
 42
0.000000
 10
-62.000018
 20
23.082922
 42
0.000000
 10
-61.500018
 20
24.082922
 42
0.000000
 10
-61.500018
 20
25.082922
 42
0.000000
 10
-61.000018
 20
26.082922
 42
0.000000
 10
-61.500018
 20
27.082922
 42
0.000000
 10
-61.500018
 20
28.082922
 42
0.000000
 10
-62.000018
 20
29.082922
 42
0.000000
 10
-61.500018
 20
30.082922
 42
0.000000
 10
-61.500018
 20
31.082922
 42
0.000000
 10
-61.000018
 20
32.082922
 42
0.000000
 10
-61.500018
 20
33.082922
 42
0.000000
 10
-61.500018
 20
34.082922
 42
0.000000
 10
-62.000018
 20
35.082922
 42
0.000000
 10
-61.500018
 20
36.082922
 42
0.000000
 10
-61.500018
 20
37.082922
 42
0.000000
 10
-61.000018
 20
38.082922
 42
0.000000
 10
-61.500018
 20
39.090589
 42
0.000000
 10
-61.500018
 20
40.082922
 42
0.000000
 10
-62.000018
 20
41.082922
 42
0.000000
 10
-61.500018
 20
42.082922
 42
0.000000
 10
-61.500018
 20
43.082922
 42
0.000000
 10
-61.000018
 20
44.082922
 42
0.000000
 10
-61.500018
 20
45.082922
 42
0.000000
 10
-61.500018
 20
46.082922
 42
0.000000
 10
-62.000018
 20
47.082922
 42
0.000000
 10
-61.500018
 20
48.082922
 42
0.000000
 10
-61.500018
 20
49.082922
 42
0.000000
 10
-61.000018
 20
50.082922
 42
0.000000
 10
-61.500018
 20
51.082922
 42
0.000000
 10
-61.500018
 20
52.082922
 42
0.000000
 10
-62.000018
 20
53.082922
 42
0.000000
 10
-61.500018
 20
54.082922
 42
0.000000
 10
-61.500018
 20
55.082922
 42
0.000000
 10
-61.000018
 20
56.082922
 42
0.000000
 10
-61.500018
 20
57.082922
 42
0.000000
 10
-61.500018
 20
58.082922
 42
0.000000
 10
-62.000018
 20
59.082922
 42
0.000000
 10
-61.500018
 20
60.082922
 42
0.000000
 10
-61.500018
 20
61.082922
 42
0.000000
 10
-61.007096
 20
62.097079
 42
0.000000
 10
-61.500018
 20
63.082922
 42
0.000000
 10
-61.500018
 20
64.082922
 42
0.000000
 10
-62.000018
 20
65.082922
 42
0.000000
 10
-61.500018
 20
66.082922
 42
0.000000
 10
-61.500018
 20
67.082922
 42
0.000000
 10
-61.000018
 20
68.082922
 42
0.000000
 10
-61.500018
 20
69.082922
 42
0.000000
 10
-61.500018
 20
70.082922
 42
0.000000
 10
-62.000018
 20
71.082922
 42
0.000000
 10
-61.500018
 20
72.093118
 42
0.000000
 10
-61.500018
 20
73.082922
 42
0.000000
 10
-61.007096
 20
74.097079
 42
0.000000
 10
-61.500018
 20
75.082922
 42
0.000000
 10
-61.500018
 20
76.082922
 42
0.000000
 10
-62.000018
 20
77.082922
 42
0.000000
 10
-61.500018
 20
78.082922
 42
0.000000
 10
-61.500018
 20
79.082922
 42
0.000000
 10
-61.000018
 20
80.082922
 42
0.000000
 10
-61.500018
 20
81.082922
 42
0.000000
 10
-61.500018
 20
82.082922
 42
0.000000
 10
-62.000018
 20
83.082922
 42
0.000000
 10
-61.500018
 20
84.093118
 42
0.000000
 10
-61.500018
 20
85.082922
 42
0.000000
 10
-61.007096
 20
86.097079
 42
0.000000
 10
-61.500018
 20
87.082922
 42
0.000000
 10
-61.500018
 20
88.082922
 42
0.000000
 10
-63.500018
 20
89.237623
 42
0.000000
  0
ENDBLK
  5
6A9
100
AcDbEntity
  8
0
100
AcDbBlockEnd
  0
BLOCK
  5
6AA
100
AcDbEntity
  8
Detail
100
AcDbBlockBegin
  2
B-74
 70
    66
 10
0.000000
 20
0.000000
 30
0.000000
  0
LWPOLYLINE
  5
6AB
100
AcDbEntity
  8
Detail
  6
CONTINUOUS
 62
     3
100
AcDbPolyline
 90
     5
 10
-73.165427
 20
100.591452
 42
0.000000
 10
13.437114
 20
50.591452
 42
0.000000
 10
23.437114
 20
67.911960
 42
0.000000
 10
-63.165427
 20
117.911960
 42
0.000000
 10
-73.165427
 20
100.591452
 42
0.000000
  0
LWPOLYLINE
  5
6B1
100
AcDbEntity
  8
Detail
  6
CONTINUOUS
 62
     3
100
AcDbPolyline
 90
     5
 10
-150.500018
 20
145.240599
 42
0.000000
 10
-74.897478
 20
101.591452
 42
0.000000
 10
-64.897478
 20
118.911960
 42
0.000000
 10
-150.500018
 20
168.334610
 42
0.000000
 10
-150.500018
 20
145.240599
 42
0.000000
  0
ENDBLK
  5
6B7
100
AcDbEntity
  8
0
100
AcDbBlockEnd
  0
BLOCK
  5
6B8
100
AcDbEntity
  8
SCHRAFF
100
AcDbBlockBegin
  2
B-75
 70
    66
 10
0.000000
 20
0.000000
 30
0.000000
  0
HATCH
  5
6B9
100
AcDbEntity
  8
SCHRAFF
 62
     8
440
     0
100
AcDbHatch
 10
0.000000
 20
0.000000
 30
0.000000
210
0.000000
220
0.000000
230
1.000000
  2
SOLID
 70
     1
 71
     1
 91
     1
 92
    18
 72
     1
 73
     0
 93
     5
 10
-77.660272
 20
97.413049
 42
0.000000
 10
-69.000018
 20
92.413049
 42
0.000000
 10
-66.500018
 20
96.743176
 42
0.000000
 10
-75.160272
 20
101.743176
 42
0.000000
 10
-77.660272
 20
97.413049
 42
0.000000
 97
     0
 75
     0
 76
     1
 98
     0
  0
ENDBLK
  5
6BA
100
AcDbEntity
  8
0
100
AcDbBlockEnd
  0
BLOCK
  5
6BB
100
AcDbEntity
  8
Detail
100
AcDbBlockBegin
  2
B-76
 70
    66
 10
0.000000
 20
0.000000
 30
0.000000
  0
LWPOLYLINE
  5
6BC
100
AcDbEntity
  8
Detail
  6
CONTINUOUS
 62
     4
100
AcDbPolyline
 90
     5
 10
-75.160272
 20
101.743176
 42
0.000000
 10
-66.500018
 20
96.743176
 42
0.000000
 10
-69.000018
 20
92.413049
 42
0.000000
 10
-77.660272
 20
97.413049
 42
0.000000
 10
-75.160272
 20
101.743176
 42
0.000000
  0
ENDBLK
  5
6C2
100
AcDbEntity
  8
0
100
AcDbBlockEnd
  0
BLOCK
  5
6C3
100
AcDbEntity
  8
Detail
100
AcDbBlockBegin
  2
B-77
 70
    66
 10
0.000000
 20
0.000000
 30
0.000000
  0
LWPOLYLINE
  5
6C4
100
AcDbEntity
  8
Detail
  6
CONTINUOUS
 62
     7
100
AcDbPolyline
 90
     2
 10
42.499982
 20
97.078113
 42
0.000000
 10
-72.080139
 20
97.078112
 42
0.000000
  0
ENDBLK
  5
6C7
100
AcDbEntity
  8
0
100
AcDbBlockEnd
  0
BLOCK
  5
6C8
100
AcDbEntity
  8
Detail
100
AcDbBlockBegin
  2
B-78
 70
    66
 10
0.000000
 20
0.000000
 30
0.000000
  0
CIRCLE
  5
6C9
100
AcDbEntity
  8
Detail
  6
CONTINUOUS
 62
     7
100
AcDbCircle
 10
-72.080139
 20
97.078112
 40
0.500000
  0
ENDBLK
  5
6CA
100
AcDbEntity
  8
0
100
AcDbBlockEnd
  0
BLOCK
  5
6CB
100
AcDbEntity
  8
SCHRAFF
100
AcDbBlockBegin
  2
B-79
 70
    66
 10
0.000000
 20
0.000000
 30
0.000000
  0
HATCH
  5
6CC
100
AcDbEntity
  8
SCHRAFF
 62
     7
440
     0
100
AcDbHatch
 10
0.000000
 20
0.000000
 30
0.000000
210
0.000000
220
0.000000
230
1.000000
  2
SOLID
 70
     1
 71
     1
 91
     1
 92
    18
 72
     1
 73
     0
 93
     3
 10
-71.580139
 20
97.078112
 42
1.000000
 10
-72.580139
 20
97.078112
 42
1.000000
 10
-71.580139
 20
97.078112
 42
0.000000
 97
     0
 75
     0
 76
     1
 98
     0
  0
ENDBLK
  5
6CD
100
AcDbEntity
  8
0
100
AcDbBlockEnd
  0
ENDSEC
  0
SECTION
  2
ENTITIES
  0
INSERT
  5
6CE
100
AcDbEntity
  8
0
100
AcDbBlockReference
  2
B
 10
0.000000
 20
0.000000
 30
0.000000
 41
1.000000
 42
1.000000
 43
1.000000
 50
0.000000
  0
INSERT
  5
6CF
100
AcDbEntity
  8
Detail
100
AcDbBlockReference
  2
B-2
 10
0.000000
 20
0.000000
 30
0.000000
 41
1.000000
 42
1.000000
 43
1.000000
 50
0.000000
  0
INSERT
  5
6D0
100
AcDbEntity
  8
0
100
AcDbBlockReference
  2
B-3
 10
0.000000
 20
0.000000
 30
0.000000
 41
1.000000
 42
1.000000
 43
1.000000
 50
0.000000
  0
INSERT
  5
6D1
100
AcDbEntity
  8
0
100
AcDbBlockReference
  2
B-4
 10
0.000000
 20
0.000000
 30
0.000000
 41
1.000000
 42
1.000000
 43
1.000000
 50
0.000000
  0
INSERT
  5
6D2
100
AcDbEntity
  8
0
100
AcDbBlockReference
  2
B-5
 10
0.000000
 20
0.000000
 30
0.000000
 41
1.000000
 42
1.000000
 43
1.000000
 50
0.000000
  0
INSERT
  5
6D3
100
AcDbEntity
  8
0
100
AcDbBlockReference
  2
B-6
 10
0.000000
 20
0.000000
 30
0.000000
 41
1.000000
 42
1.000000
 43
1.000000
 50
0.000000
  0
INSERT
  5
6D4
100
AcDbEntity
  8
0
100
AcDbBlockReference
  2
B-7
 10
0.000000
 20
0.000000
 30
0.000000
 41
1.000000
 42
1.000000
 43
1.000000
 50
0.000000
  0
INSERT
  5
6D5
100
AcDbEntity
  8
Detail
100
AcDbBlockReference
  2
B-8
 10
0.000000
 20
0.000000
 30
0.000000
 41
1.000000
 42
1.000000
 43
1.000000
 50
0.000000
  0
INSERT
  5
6D6
100
AcDbEntity
  8
0
100
AcDbBlockReference
  2
B-9
 10
0.000000
 20
0.000000
 30
0.000000
 41
1.000000
 42
1.000000
 43
1.000000
 50
0.000000
  0
INSERT
  5
6D7
100
AcDbEntity
  8
0
100
AcDbBlockReference
  2
B-10
 10
0.000000
 20
0.000000
 30
0.000000
 41
1.000000
 42
1.000000
 43
1.000000
 50
0.000000
  0
INSERT
  5
6D8
100
AcDbEntity
  8
0
100
AcDbBlockReference
  2
B-11
 10
0.000000
 20
0.000000
 30
0.000000
 41
1.000000
 42
1.000000
 43
1.000000
 50
0.000000
  0
INSERT
  5
6D9
100
AcDbEntity
  8
0
100
AcDbBlockReference
  2
B-12
 10
0.000000
 20
0.000000
 30
0.000000
 41
1.000000
 42
1.000000
 43
1.000000
 50
0.000000
  0
INSERT
  5
6DA
100
AcDbEntity
  8
0
100
AcDbBlockReference
  2
B-13
 10
0.000000
 20
0.000000
 30
0.000000
 41
1.000000
 42
1.000000
 43
1.000000
 50
0.000000
  0
INSERT
  5
6DB
100
AcDbEntity
  8
Detail
100
AcDbBlockReference
  2
B-14
 10
0.000000
 20
0.000000
 30
0.000000
 41
1.000000
 42
1.000000
 43
1.000000
 50
0.000000
  0
INSERT
  5
6DC
100
AcDbEntity
  8
Detail
100
AcDbBlockReference
  2
B-15
 10
0.000000
 20
0.000000
 30
0.000000
 41
1.000000
 42
1.000000
 43
1.000000
 50
0.000000
  0
INSERT
  5
6DD
100
AcDbEntity
  8
0
100
AcDbBlockReference
  2
B-16
 10
0.000000
 20
0.000000
 30
0.000000
 41
1.000000
 42
1.000000
 43
1.000000
 50
0.000000
  0
INSERT
  5
6DE
100
AcDbEntity
  8
0
100
AcDbBlockReference
  2
B-17
 10
0.000000
 20
0.000000
 30
0.000000
 41
1.000000
 42
1.000000
 43
1.000000
 50
0.000000
  0
INSERT
  5
6DF
100
AcDbEntity
  8
Detail
100
AcDbBlockReference
  2
B-18
 10
0.000000
 20
0.000000
 30
0.000000
 41
1.000000
 42
1.000000
 43
1.000000
 50
0.000000
  0
INSERT
  5
6E0
100
AcDbEntity
  8
L
100
AcDbBlockReference
  2
B-19
 10
0.000000
 20
0.000000
 30
0.000000
 41
1.000000
 42
1.000000
 43
1.000000
 50
0.000000
  0
INSERT
  5
6E1
100
AcDbEntity
  8
Detail
100
AcDbBlockReference
  2
B-20
 10
0.000000
 20
0.000000
 30
0.000000
 41
1.000000
 42
1.000000
 43
1.000000
 50
0.000000
  0
INSERT
  5
6E2
100
AcDbEntity
  8
Detail
100
AcDbBlockReference
  2
B-21
 10
0.000000
 20
0.000000
 30
0.000000
 41
1.000000
 42
1.000000
 43
1.000000
 50
0.000000
  0
INSERT
  5
6E3
100
AcDbEntity
  8
Detail
100
AcDbBlockReference
  2
B-22
 10
0.000000
 20
0.000000
 30
0.000000
 41
1.000000
 42
1.000000
 43
1.000000
 50
0.000000
  0
INSERT
  5
6E4
100
AcDbEntity
  8
Detail
100
AcDbBlockReference
  2
B-23
 10
0.000000
 20
0.000000
 30
0.000000
 41
1.000000
 42
1.000000
 43
1.000000
 50
0.000000
  0
INSERT
  5
6E5
100
AcDbEntity
  8
Detail
100
AcDbBlockReference
  2
B-24
 10
0.000000
 20
0.000000
 30
0.000000
 41
1.000000
 42
1.000000
 43
1.000000
 50
0.000000
  0
INSERT
  5
6E6
100
AcDbEntity
  8
0
100
AcDbBlockReference
  2
B-25
 10
0.000000
 20
0.000000
 30
0.000000
 41
1.000000
 42
1.000000
 43
1.000000
 50
0.000000
  0
INSERT
  5
6E7
100
AcDbEntity
  8
0
100
AcDbBlockReference
  2
B-26
 10
0.000000
 20
0.000000
 30
0.000000
 41
1.000000
 42
1.000000
 43
1.000000
 50
0.000000
  0
INSERT
  5
6E8
100
AcDbEntity
  8
Detail
100
AcDbBlockReference
  2
B-27
 10
0.000000
 20
0.000000
 30
0.000000
 41
1.000000
 42
1.000000
 43
1.000000
 50
0.000000
  0
INSERT
  5
6E9
100
AcDbEntity
  8
Detail
100
AcDbBlockReference
  2
B-28
 10
0.000000
 20
0.000000
 30
0.000000
 41
1.000000
 42
1.000000
 43
1.000000
 50
0.000000
  0
INSERT
  5
6EA
100
AcDbEntity
  8
Detail
100
AcDbBlockReference
  2
B-29
 10
0.000000
 20
0.000000
 30
0.000000
 41
1.000000
 42
1.000000
 43
1.000000
 50
0.000000
  0
INSERT
  5
6EB
100
AcDbEntity
  8
Detail
100
AcDbBlockReference
  2
B-30
 10
0.000000
 20
0.000000
 30
0.000000
 41
1.000000
 42
1.000000
 43
1.000000
 50
0.000000
  0
INSERT
  5
6EC
100
AcDbEntity
  8
Detail
100
AcDbBlockReference
  2
B-31
 10
0.000000
 20
0.000000
 30
0.000000
 41
1.000000
 42
1.000000
 43
1.000000
 50
0.000000
  0
INSERT
  5
6ED
100
AcDbEntity
  8
Detail
100
AcDbBlockReference
  2
B-32
 10
0.000000
 20
0.000000
 30
0.000000
 41
1.000000
 42
1.000000
 43
1.000000
 50
0.000000
  0
INSERT
  5
6EE
100
AcDbEntity
  8
Detail
100
AcDbBlockReference
  2
B-33
 10
0.000000
 20
0.000000
 30
0.000000
 41
1.000000
 42
1.000000
 43
1.000000
 50
0.000000
  0
INSERT
  5
6EF
100
AcDbEntity
  8
Detail
100
AcDbBlockReference
  2
B-34
 10
0.000000
 20
0.000000
 30
0.000000
 41
1.000000
 42
1.000000
 43
1.000000
 50
0.000000
  0
INSERT
  5
6F0
100
AcDbEntity
  8
Detail
100
AcDbBlockReference
  2
B-35
 10
0.000000
 20
0.000000
 30
0.000000
 41
1.000000
 42
1.000000
 43
1.000000
 50
0.000000
  0
INSERT
  5
6F1
100
AcDbEntity
  8
Detail
100
AcDbBlockReference
  2
B-36
 10
0.000000
 20
0.000000
 30
0.000000
 41
1.000000
 42
1.000000
 43
1.000000
 50
0.000000
  0
INSERT
  5
6F2
100
AcDbEntity
  8
Detail
100
AcDbBlockReference
  2
B-37
 10
0.000000
 20
0.000000
 30
0.000000
 41
1.000000
 42
1.000000
 43
1.000000
 50
0.000000
  0
INSERT
  5
6F3
100
AcDbEntity
  8
Detail
100
AcDbBlockReference
  2
B-38
 10
0.000000
 20
0.000000
 30
0.000000
 41
1.000000
 42
1.000000
 43
1.000000
 50
0.000000
  0
INSERT
  5
6F4
100
AcDbEntity
  8
Detail
100
AcDbBlockReference
  2
B-39
 10
0.000000
 20
0.000000
 30
0.000000
 41
1.000000
 42
1.000000
 43
1.000000
 50
0.000000
  0
INSERT
  5
6F5
100
AcDbEntity
  8
Detail
100
AcDbBlockReference
  2
B-40
 10
0.000000
 20
0.000000
 30
0.000000
 41
1.000000
 42
1.000000
 43
1.000000
 50
0.000000
  0
INSERT
  5
6F6
100
AcDbEntity
  8
Detail
100
AcDbBlockReference
  2
B-41
 10
0.000000
 20
0.000000
 30
0.000000
 41
1.000000
 42
1.000000
 43
1.000000
 50
0.000000
  0
INSERT
  5
6F7
100
AcDbEntity
  8
L
100
AcDbBlockReference
  2
B-42
 10
0.000000
 20
0.000000
 30
0.000000
 41
1.000000
 42
1.000000
 43
1.000000
 50
0.000000
  0
INSERT
  5
6F8
100
AcDbEntity
  8
Detail
100
AcDbBlockReference
  2
B-43
 10
0.000000
 20
0.000000
 30
0.000000
 41
1.000000
 42
1.000000
 43
1.000000
 50
0.000000
  0
INSERT
  5
6F9
100
AcDbEntity
  8
Detail
100
AcDbBlockReference
  2
B-44
 10
0.000000
 20
0.000000
 30
0.000000
 41
1.000000
 42
1.000000
 43
1.000000
 50
0.000000
  0
INSERT
  5
6FA
100
AcDbEntity
  8
0
100
AcDbBlockReference
  2
B-45
 10
0.000000
 20
0.000000
 30
0.000000
 41
1.000000
 42
1.000000
 43
1.000000
 50
0.000000
  0
INSERT
  5
6FB
100
AcDbEntity
  8
0
100
AcDbBlockReference
  2
B-46
 10
0.000000
 20
0.000000
 30
0.000000
 41
1.000000
 42
1.000000
 43
1.000000
 50
0.000000
  0
INSERT
  5
6FC
100
AcDbEntity
  8
Detail
100
AcDbBlockReference
  2
B-47
 10
0.000000
 20
0.000000
 30
0.000000
 41
1.000000
 42
1.000000
 43
1.000000
 50
0.000000
  0
INSERT
  5
6FD
100
AcDbEntity
  8
Detail
100
AcDbBlockReference
  2
B-48
 10
0.000000
 20
0.000000
 30
0.000000
 41
1.000000
 42
1.000000
 43
1.000000
 50
0.000000
  0
INSERT
  5
6FE
100
AcDbEntity
  8
Detail
100
AcDbBlockReference
  2
B-49
 10
0.000000
 20
0.000000
 30
0.000000
 41
1.000000
 42
1.000000
 43
1.000000
 50
0.000000
  0
INSERT
  5
6FF
100
AcDbEntity
  8
Detail
100
AcDbBlockReference
  2
B-50
 10
0.000000
 20
0.000000
 30
0.000000
 41
1.000000
 42
1.000000
 43
1.000000
 50
0.000000
  0
INSERT
  5
700
100
AcDbEntity
  8
0
100
AcDbBlockReference
  2
B-51
 10
0.000000
 20
0.000000
 30
0.000000
 41
1.000000
 42
1.000000
 43
1.000000
 50
0.000000
  0
INSERT
  5
701
100
AcDbEntity
  8
Detail
100
AcDbBlockReference
  2
B-52
 10
0.000000
 20
0.000000
 30
0.000000
 41
1.000000
 42
1.000000
 43
1.000000
 50
0.000000
  0
INSERT
  5
702
100
AcDbEntity
  8
Detail
100
AcDbBlockReference
  2
B-53
 10
0.000000
 20
0.000000
 30
0.000000
 41
1.000000
 42
1.000000
 43
1.000000
 50
0.000000
  0
INSERT
  5
703
100
AcDbEntity
  8
L
100
AcDbBlockReference
  2
B-54
 10
0.000000
 20
0.000000
 30
0.000000
 41
1.000000
 42
1.000000
 43
1.000000
 50
0.000000
  0
INSERT
  5
704
100
AcDbEntity
  8
L
100
AcDbBlockReference
  2
B-55
 10
0.000000
 20
0.000000
 30
0.000000
 41
1.000000
 42
1.000000
 43
1.000000
 50
0.000000
  0
INSERT
  5
705
100
AcDbEntity
  8
Detail
100
AcDbBlockReference
  2
B-56
 10
0.000000
 20
0.000000
 30
0.000000
 41
1.000000
 42
1.000000
 43
1.000000
 50
0.000000
  0
INSERT
  5
706
100
AcDbEntity
  8
Detail
100
AcDbBlockReference
  2
B-57
 10
0.000000
 20
0.000000
 30
0.000000
 41
1.000000
 42
1.000000
 43
1.000000
 50
0.000000
  0
INSERT
  5
707
100
AcDbEntity
  8
Detail
100
AcDbBlockReference
  2
B-58
 10
0.000000
 20
0.000000
 30
0.000000
 41
1.000000
 42
1.000000
 43
1.000000
 50
0.000000
  0
INSERT
  5
708
100
AcDbEntity
  8
Detail
100
AcDbBlockReference
  2
B-60
 10
0.000000
 20
0.000000
 30
0.000000
 41
1.000000
 42
1.000000
 43
1.000000
 50
0.000000
  0
INSERT
  5
709
100
AcDbEntity
  8
Detail
100
AcDbBlockReference
  2
B-61
 10
0.000000
 20
0.000000
 30
0.000000
 41
1.000000
 42
1.000000
 43
1.000000
 50
0.000000
  0
INSERT
  5
70A
100
AcDbEntity
  8
0
100
AcDbBlockReference
  2
B-62
 10
0.000000
 20
0.000000
 30
0.000000
 41
1.000000
 42
1.000000
 43
1.000000
 50
0.000000
  0
INSERT
  5
70B
100
AcDbEntity
  8
Detail
100
AcDbBlockReference
  2
B-63
 10
0.000000
 20
0.000000
 30
0.000000
 41
1.000000
 42
1.000000
 43
1.000000
 50
0.000000
  0
INSERT
  5
70C
100
AcDbEntity
  8
Detail
100
AcDbBlockReference
  2
B-64
 10
0.000000
 20
0.000000
 30
0.000000
 41
1.000000
 42
1.000000
 43
1.000000
 50
0.000000
  0
INSERT
  5
70D
100
AcDbEntity
  8
Detail
100
AcDbBlockReference
  2
B-65
 10
0.000000
 20
0.000000
 30
0.000000
 41
1.000000
 42
1.000000
 43
1.000000
 50
0.000000
  0
INSERT
  5
70E
100
AcDbEntity
  8
Detail
100
AcDbBlockReference
  2
B-66
 10
0.000000
 20
0.000000
 30
0.000000
 41
1.000000
 42
1.000000
 43
1.000000
 50
0.000000
  0
INSERT
  5
70F
100
AcDbEntity
  8
Detail
100
AcDbBlockReference
  2
B-67
 10
0.000000
 20
0.000000
 30
0.000000
 41
1.000000
 42
1.000000
 43
1.000000
 50
0.000000
  0
INSERT
  5
710
100
AcDbEntity
  8
Detail
100
AcDbBlockReference
  2
B-68
 10
0.000000
 20
0.000000
 30
0.000000
 41
1.000000
 42
1.000000
 43
1.000000
 50
0.000000
  0
INSERT
  5
711
100
AcDbEntity
  8
Detail
100
AcDbBlockReference
  2
B-69
 10
0.000000
 20
0.000000
 30
0.000000
 41
1.000000
 42
1.000000
 43
1.000000
 50
0.000000
  0
INSERT
  5
712
100
AcDbEntity
  8
Detail
100
AcDbBlockReference
  2
B-70
 10
0.000000
 20
0.000000
 30
0.000000
 41
1.000000
 42
1.000000
 43
1.000000
 50
0.000000
  0
INSERT
  5
713
100
AcDbEntity
  8
Detail
100
AcDbBlockReference
  2
B-72
 10
0.000000
 20
0.000000
 30
0.000000
 41
1.000000
 42
1.000000
 43
1.000000
 50
0.000000
  0
INSERT
  5
714
100
AcDbEntity
  8
Detail
100
AcDbBlockReference
  2
B-73
 10
0.000000
 20
0.000000
 30
0.000000
 41
1.000000
 42
1.000000
 43
1.000000
 50
0.000000
  0
INSERT
  5
715
100
AcDbEntity
  8
Detail
100
AcDbBlockReference
  2
B-74
 10
0.000000
 20
0.000000
 30
0.000000
 41
1.000000
 42
1.000000
 43
1.000000
 50
0.000000
  0
INSERT
  5
716
100
AcDbEntity
  8
0
100
AcDbBlockReference
  2
B-75
 10
0.000000
 20
0.000000
 30
0.000000
 41
1.000000
 42
1.000000
 43
1.000000
 50
0.000000
  0
INSERT
  5
717
100
AcDbEntity
  8
Detail
100
AcDbBlockReference
  2
B-76
 10
0.000000
 20
0.000000
 30
0.000000
 41
1.000000
 42
1.000000
 43
1.000000
 50
0.000000
  0
INSERT
  5
718
100
AcDbEntity
  8
Detail
100
AcDbBlockReference
  2
B-77
 10
0.000000
 20
0.000000
 30
0.000000
 41
1.000000
 42
1.000000
 43
1.000000
 50
0.000000
  0
INSERT
  5
719
100
AcDbEntity
  8
Detail
100
AcDbBlockReference
  2
B-78
 10
0.000000
 20
0.000000
 30
0.000000
 41
1.000000
 42
1.000000
 43
1.000000
 50
0.000000
  0
INSERT
  5
71A
100
AcDbEntity
  8
0
100
AcDbBlockReference
  2
B-79
 10
0.000000
 20
0.000000
 30
0.000000
 41
1.000000
 42
1.000000
 43
1.000000
 50
0.000000
  0
ENDSEC
  0
SECTION
  2
OBJECTS
  0
DICTIONARY
  5
C
330
0
100
AcDbDictionary
281
     1
  3
ACAD_COLOR
350
6B
  3
ACAD_GROUP
350
D
  3
ACAD_IMAGE_DICT
350
1E2
  3
ACAD_IMAGE_VARS
350
1E3
  3
ACAD_MATERIAL
350
6A
  3
ACAD_MLINESTYLE
350
17
  3
ACAD_PLOTSETTINGS
350
19
  3
ACAD_PLOTSTYLENAME
350
E
  3
ACAD_SCALELIST
350
10C
  3
ACAD_TABLESTYLE
350
7E
  3
ACAD_VISUALSTYLE
350
EF
  3
ACDB_RECOMPOSE_DATA
350
15D
  3
AcDbVariableDictionary
350
5E
  0
DICTIONARY
  5
13C
330
10
100
AcDbDictionary
280
     1
281
     1
  0
DICTIONARY
  5
203
330
202
100
AcDbDictionary
280
     1
281
     1
  0
DICTIONARY
  5
6B
102
{ACAD_REACTORS
330
C
102
}
330
C
100
AcDbDictionary
281
     1
  0
DICTIONARY
  5
D
102
{ACAD_REACTORS
330
C
102
}
330
C
100
AcDbDictionary
281
     1
  0
DICTIONARY
  5
1E2
102
{ACAD_REACTORS
330
C
102
}
330
C
100
AcDbDictionary
281
     1
  3
WDVS mit Putz_Anschluss Steildach-Traufe nicht belüftet_8_1.tif
350
2C6
  0
RASTERVARIABLES
  5
1E3
102
{ACAD_REACTORS
330
C
102
}
330
C
100
AcDbRasterVariables
 90
        0
 70
     1
 71
     1
 72
     1
  0
DICTIONARY
  5
6A
102
{ACAD_REACTORS
330
C
102
}
330
C
100
AcDbDictionary
281
     1
  3
ByBlock
350
ED
  3
ByLayer
350
EC
  3
Global
350
EE
  0
DICTIONARY
  5
12D
102
{ACAD_REACTORS
330
C
102
}
330
C
100
AcDbDictionary
281
     1
  3
Annotative
350
13B
  3
Standard
350
12E
  0
DICTIONARY
  5
17
102
{ACAD_REACTORS
330
C
102
}
330
C
100
AcDbDictionary
281
     1
  3
Standard
350
18
  0
DICTIONARY
  5
19
102
{ACAD_REACTORS
330
C
102
}
330
C
100
AcDbDictionary
281
     1
  0
ACDBDICTIONARYWDFLT
  5
E
102
{ACAD_REACTORS
330
C
102
}
330
C
100
AcDbDictionary
281
     1
  3
Normal
350
F
100
AcDbDictionaryWithDefault
340
F
  0
DICTIONARY
  5
10C
102
{ACAD_REACTORS
330
C
102
}
330
C
100
AcDbDictionary
281
     1
  3
A0
350
10D
  3
A1
350
1BE
  3
A2
350
1BF
  3
A3
350
1C0
  3
A4
350
1C1
  3
A5
350
1C2
  3
A6
350
1C3
  3
A7
350
1C4
  3
A8
350
1C5
  3
A9
350
1C6
  3
B0
350
1C7
  3
B1
350
1C8
  3
B2
350
1C9
  3
B3
350
1CA
  3
B4
350
1CB
  3
B5
350
1CC
  3
B6
350
1CD
  0
DICTIONARY
  5
7E
102
{ACAD_REACTORS
330
C
102
}
330
C
100
AcDbDictionary
281
     1
  3
Standard
350
7F
  0
DICTIONARY
  5
EF
102
{ACAD_REACTORS
330
C
102
}
330
C
100
AcDbDictionary
281
     1
  3
2dWireframe
350
F5
  3
3D Hidden
350
F7
  3
3dWireframe
350
F6
  3
Basic
350
F4
  3
Brighten
350
FB
  3
ColorChange
350
FF
  3
Conceptual
350
F8
  3
Dim
350
FA
  3
Facepattern
350
FE
  3
Flat
350
F0
  3
FlatWithEdges
350
F1
  3
Gouraud
350
F2
  3
GouraudWithEdges
350
F3
  3
Linepattern
350
FD
  3
Realistic
350
F9
  3
Thicken
350
FC
  0
XRECORD
  5
15D
102
{ACAD_REACTORS
330
C
102
}
330
C
100
AcDbXrecord
280
     1
 90
        1
330
7F
  0
DICTIONARY
  5
5E
102
{ACAD_REACTORS
330
C
102
}
330
C
100
AcDbDictionary
281
     1
  3
CANNOSCALE
350
146
  3
CMLEADERSTYLE
350
145
  3
CTABLESTYLE
350
84
  3
DIMASSOC
350
5F
  3
HIDETEXT
350
63
  3
LAYEREVAL
350
1AE
  3
LAYERNOTIFY
350
1AF
  0
MATERIAL
  5
ED
102
{ACAD_REACTORS
330
6A
102
}
330
6A
100
AcDbMaterial
  1
ByBlock
 94
       63
  0
MATERIAL
  5
EC
102
{ACAD_REACTORS
330
6A
102
}
330
6A
100
AcDbMaterial
  1
ByLayer
 94
       63
  0
MATERIAL
  5
EE
102
{ACAD_XDICTIONARY
360
173
102
}
102
{ACAD_REACTORS
330
6A
102
}
330
6A
100
AcDbMaterial
  1
Global
 43
0.0007999999797903
 43
0.0
 43
0.0
 43
0.0
 43
0.0
 43
0.0007999999797903
 43
0.0
 43
0.0
 43
0.0
 43
0.0
 43
1.0
 43
0.0
 43
0.0
 43
0.0
 43
0.0
 43
1.0
 49
0.0007999999797903
 49
0.0
 49
0.0
 49
0.0
 49
0.0
 49
0.0007999999797903
 49
0.0
 49
0.0
 49
0.0
 49
0.0
 49
1.0
 49
0.0
 49
0.0
 49
0.0
 49
0.0
 49
1.0
142
0.0007999999797903
142
0.0
142
0.0
142
0.0
142
0.0
142
0.0007999999797903
142
0.0
142
0.0
142
0.0
142
0.0
142
1.0
142
0.0
142
0.0
142
0.0
142
0.0
142
1.0
144
0.0007999999797903
144
0.0
144
0.0
144
0.0
144
0.0
144
0.0007999999797903
144
0.0
144
0.0
144
0.0
144
0.0
144
1.0
144
0.0
144
0.0
144
0.0
144
0.0
144
1.0
 94
       63
1001
ACAD
1070
    -1
1070
     3
1070
     0
1000

1071
        0
1070
     0
  0
MLINESTYLE
  5
18
102
{ACAD_REACTORS
330
17
102
}
330
17
100
AcDbMlineStyle
  2
STANDARD
 70
     0
  3

 62
   256
 51
90.0
 52
90.0
 71
     2
 49
0.5
 62
   256
  6
BYLAYER
 49
-0.5
 62
   256
  6
BYLAYER
  0
ACDBPLACEHOLDER
  5
F
102
{ACAD_REACTORS
330
E
102
}
330
E
  0
SCALE
  5
10D
102
{ACAD_REACTORS
330
10C
102
}
330
10C
100
AcDbScale
 70
     0
300
1:1
140
1.0
141
1.0
290
     1
  0
SCALE
  5
1BE
102
{ACAD_REACTORS
330
10C
102
}
330
10C
100
AcDbScale
 70
     0
300
1:2
140
1.0
141
2.0
290
     0
  0
SCALE
  5
1BF
102
{ACAD_REACTORS
330
10C
102
}
330
10C
100
AcDbScale
 70
     0
300
1:4
140
1.0
141
4.0
290
     0
  0
SCALE
  5
1C0
102
{ACAD_REACTORS
330
10C
102
}
330
10C
100
AcDbScale
 70
     0
300
1:5
140
1.0
141
5.0
290
     0
  0
SCALE
  5
1C1
102
{ACAD_REACTORS
330
10C
102
}
330
10C
100
AcDbScale
 70
     0
300
1:8
140
1.0
141
8.0
290
     0
  0
SCALE
  5
1C2
102
{ACAD_REACTORS
330
10C
102
}
330
10C
100
AcDbScale
 70
     0
300
1:10
140
1.0
141
10.0
290
     0
  0
SCALE
  5
1C3
102
{ACAD_REACTORS
330
10C
102
}
330
10C
100
AcDbScale
 70
     0
300
1:16
140
1.0
141
16.0
290
     0
  0
SCALE
  5
1C4
102
{ACAD_REACTORS
330
10C
102
}
330
10C
100
AcDbScale
 70
     0
300
1:20
140
1.0
141
20.0
290
     0
  0
SCALE
  5
1C5
102
{ACAD_REACTORS
330
10C
102
}
330
10C
100
AcDbScale
 70
     0
300
1:30
140
1.0
141
30.0
290
     0
  0
SCALE
  5
1C6
102
{ACAD_REACTORS
330
10C
102
}
330
10C
100
AcDbScale
 70
     0
300
1:40
140
1.0
141
40.0
290
     0
  0
SCALE
  5
1C7
102
{ACAD_REACTORS
330
10C
102
}
330
10C
100
AcDbScale
 70
     0
300
1:50
140
1.0
141
50.0
290
     0
  0
SCALE
  5
1C8
102
{ACAD_REACTORS
330
10C
102
}
330
10C
100
AcDbScale
 70
     0
300
1:100
140
1.0
141
100.0
290
     0
  0
SCALE
  5
1C9
102
{ACAD_REACTORS
330
10C
102
}
330
10C
100
AcDbScale
 70
     0
300
2:1
140
2.0
141
1.0
290
     0
  0
SCALE
  5
1CA
102
{ACAD_REACTORS
330
10C
102
}
330
10C
100
AcDbScale
 70
     0
300
4:1
140
4.0
141
1.0
290
     0
  0
SCALE
  5
1CB
102
{ACAD_REACTORS
330
10C
102
}
330
10C
100
AcDbScale
 70
     0
300
8:1
140
8.0
141
1.0
290
     0
  0
SCALE
  5
1CC
102
{ACAD_REACTORS
330
10C
102
}
330
10C
100
AcDbScale
 70
     0
300
10:1
140
10.0
141
1.0
290
     0
  0
SCALE
  5
1CD
102
{ACAD_REACTORS
330
10C
102
}
330
10C
100
AcDbScale
 70
     0
300
100:1
140
100.0
141
1.0
290
     0
  0
TABLESTYLE
  5
7F
102
{ACAD_XDICTIONARY
360
162
102
}
102
{ACAD_REACTORS
330
7E
102
}
330
7E
100
AcDbTableStyle
  3
Standard
 70
     0
 71
     0
 40
1.5
 41
1.5
280
     0
281
     0
  7
Standard
140
4.5
170
     2
 62
     0
 63
     7
283
     0
 90
      512
 91
        0
  1

274
    -2
284
     1
 64
     0
275
    -2
285
     1
 65
     0
276
    -2
286
     1
 66
     0
277
    -2
287
     1
 67
     0
278
    -2
288
     1
 68
     0
279
    -2
289
     1
 69
     0
  7
Standard
140
6.0
170
     5
 62
     0
 63
     7
283
     0
 90
      512
 91
        0
  1

274
    -2
284
     1
 64
     0
275
    -2
285
     1
 65
     0
276
    -2
286
     1
 66
     0
277
    -2
287
     1
 67
     0
278
    -2
288
     1
 68
     0
279
    -2
289
     1
 69
     0
  7
Standard
140
4.5
170
     5
 62
     0
 63
     7
283
     0
 90
      512
 91
        0
  1

274
    -2
284
     1
 64
     0
275
    -2
285
     1
 65
     0
276
    -2
286
     1
 66
     0
277
    -2
287
     1
 67
     0
278
    -2
288
     1
 68
     0
279
    -2
289
     1
 69
     0
  0
VISUALSTYLE
  5
F5
102
{ACAD_REACTORS
330
EF
102
}
330
EF
100
AcDbVisualStyle
  2
2dWireframe
 70
     4
 71
     0
 72
     2
 73
     1
 90
        0
 40
-0.6
 41
-30.0
 62
     5
 63
     7
421
 16777215
 74
     1
 91
        4
 64
     7
 65
   257
 75
     1
175
     1
 42
1.0
 92
        0
 66
   257
 43
1.0
 76
     1
 77
     6
 78
     2
 67
     7
 79
     5
170
     0
171
     0
290
     0
174
     0
 93
        1
 44
0.0
173
     0
291
     0
 45
0.0
  0
VISUALSTYLE
  5
F7
102
{ACAD_REACTORS
330
EF
102
}
330
EF
100
AcDbVisualStyle
  2
3D Hidden
 70
     6
 71
     1
 72
     2
 73
     2
 90
        0
 40
-0.6
 41
-30.0
 62
     5
 63
     7
421
 16777215
 74
     2
 91
        2
 64
     7
 65
   257
 75
     2
175
     1
 42
40.0
 92
        0
 66
   257
 43
1.0
 76
     1
 77
     6
 78
     2
 67
     7
 79
     3
170
     0
171
     0
290
     0
174
     0
 93
        1
 44
0.0
173
     0
291
     0
 45
0.0
  0
VISUALSTYLE
  5
F6
102
{ACAD_REACTORS
330
EF
102
}
330
EF
100
AcDbVisualStyle
  2
3dWireframe
 70
     5
 71
     0
 72
     2
 73
     1
 90
        0
 40
-0.6
 41
-30.0
 62
     5
 63
     7
421
 16777215
 74
     1
 91
        4
 64
     7
 65
   257
 75
     1
175
     1
 42
1.0
 92
        0
 66
   257
 43
1.0
 76
     1
 77
     6
 78
     2
 67
     7
 79
     5
170
     0
171
     0
290
     0
174
     0
 93
        1
 44
0.0
173
     0
291
     0
 45
0.0
  0
VISUALSTYLE
  5
F4
102
{ACAD_REACTORS
330
EF
102
}
330
EF
100
AcDbVisualStyle
  2
Basic
 70
     7
 71
     1
 72
     0
 73
     1
 90
        0
 40
-0.6
 41
-30.0
 62
     5
 63
     7
421
 16777215
 74
     0
 91
        4
 64
     7
 65
   257
 75
     1
175
     1
 42
1.0
 92
        8
 66
     7
 43
1.0
 76
     1
 77
     6
 78
     2
 67
     7
 79
     5
170
     0
171
     0
290
     0
174
     0
 93
        1
 44
0.0
173
     0
291
     1
 45
0.0
  0
VISUALSTYLE
  5
FB
102
{ACAD_REACTORS
330
EF
102
}
330
EF
100
AcDbVisualStyle
  2
Brighten
 70
    12
 71
     2
 72
     2
 73
     1
 90
        0
 40
-0.6
 41
-30.0
 62
     5
 63
     7
421
 16777215
 74
     1
 91
        4
 64
     7
 65
   257
 75
     1
175
     1
 42
1.0
 92
        8
 66
     7
 43
1.0
 76
     1
 77
     6
 78
     2
 67
     7
 79
     5
170
     0
171
     0
290
     0
174
     0
 93
        1
 44
50.0
173
     0
291
     1
 45
0.0
  0
VISUALSTYLE
  5
FF
102
{ACAD_REACTORS
330
EF
102
}
330
EF
100
AcDbVisualStyle
  2
ColorChange
 70
    16
 71
     2
 72
     2
 73
     3
 90
        0
 40
-0.6
 41
-30.0
 62
     5
 63
     8
421
  8421504
 74
     1
 91
        4
 64
     7
 65
   257
 75
     1
175
     1
 42
1.0
 92
        8
 66
     8
424
  8421504
 43
1.0
 76
     1
 77
     6
 78
     2
 67
     7
 79
     5
170
     0
171
     0
290
     0
174
     0
 93
        1
 44
0.0
173
     0
291
     1
 45
0.0
  0
VISUALSTYLE
  5
F8
102
{ACAD_REACTORS
330
EF
102
}
330
EF
100
AcDbVisualStyle
  2
Conceptual
 70
     9
 71
     3
 72
     2
 73
     1
 90
        0
 40
-0.6
 41
-30.0
 62
     5
 63
     7
421
 16777215
 74
     2
 91
        2
 64
     7
 65
   257
 75
     1
175
     1
 42
40.0
 92
        8
 66
     7
 43
1.0
 76
     1
 77
     6
 78
     2
 67
     7
 79
     3
170
     0
171
     0
290
     0
174
     0
 93
        1
 44
0.0
173
     0
291
     0
 45
0.0
  0
VISUALSTYLE
  5
FA
102
{ACAD_REACTORS
330
EF
102
}
330
EF
100
AcDbVisualStyle
  2
Dim
 70
    11
 71
     2
 72
     2
 73
     1
 90
        0
 40
-0.6
 41
-30.0
 62
     5
 63
     7
421
 16777215
 74
     1
 91
        4
 64
     7
 65
   257
 75
     1
175
     1
 42
1.0
 92
        8
 66
     7
 43
1.0
 76
     1
 77
     6
 78
     2
 67
     7
 79
     5
170
     0
171
     0
290
     0
174
     0
 93
        1
 44
-50.0
173
     0
291
     1
 45
0.0
  0
VISUALSTYLE
  5
FE
102
{ACAD_REACTORS
330
EF
102
}
330
EF
100
AcDbVisualStyle
  2
Facepattern
 70
    15
 71
     2
 72
     2
 73
     1
 90
        0
 40
-0.6
 41
-30.0
 62
     5
 63
     7
421
 16777215
 74
     1
 91
        4
 64
     7
 65
   257
 75
     1
175
     1
 42
1.0
 92
        8
 66
     7
 43
1.0
 76
     1
 77
     6
 78
     2
 67
     7
 79
     5
170
     0
171
     0
290
     0
174
     0
 93
        1
 44
0.0
173
     0
291
     1
 45
0.0
  0
VISUALSTYLE
  5
F0
102
{ACAD_REACTORS
330
EF
102
}
330
EF
100
AcDbVisualStyle
  2
Flat
 70
     0
 71
     2
 72
     1
 73
     1
 90
        2
 40
-0.6
 41
30.0
 62
     5
 63
     7
421
 16777215
 74
     0
 91
        4
 64
     7
 65
   257
 75
     1
175
     1
 42
1.0
 92
        8
 66
     7
 43
1.0
 76
     1
 77
     6
 78
     2
 67
     7
 79
     5
170
     0
171
     0
290
     0
174
     0
 93
        1
 44
0.0
173
     0
291
     1
 45
0.0
  0
VISUALSTYLE
  5
F1
102
{ACAD_REACTORS
330
EF
102
}
330
EF
100
AcDbVisualStyle
  2
FlatWithEdges
 70
     1
 71
     2
 72
     1
 73
     1
 90
        2
 40
-0.6
 41
30.0
 62
     5
 63
     7
421
 16777215
 74
     1
 91
        4
 64
     7
 65
   257
 75
     1
175
     1
 42
1.0
 92
        0
 66
   257
 43
1.0
 76
     1
 77
     6
 78
     2
 67
     7
 79
     5
170
     0
171
     0
290
     0
174
     0
 93
        1
 44
0.0
173
     0
291
     1
 45
0.0
  0
VISUALSTYLE
  5
F2
102
{ACAD_REACTORS
330
EF
102
}
330
EF
100
AcDbVisualStyle
  2
Gouraud
 70
     2
 71
     2
 72
     2
 73
     1
 90
        2
 40
-0.6
 41
30.0
 62
     5
 63
     7
421
 16777215
 74
     0
 91
        4
 64
     7
 65
   257
 75
     1
175
     1
 42
1.0
 92
        0
 66
     7
 43
1.0
 76
     1
 77
     6
 78
     2
 67
     7
 79
     5
170
     0
171
     0
290
     0
174
     0
 93
        1
 44
0.0
173
     0
291
     1
 45
0.0
  0
VISUALSTYLE
  5
F3
102
{ACAD_REACTORS
330
EF
102
}
330
EF
100
AcDbVisualStyle
  2
GouraudWithEdges
 70
     3
 71
     2
 72
     2
 73
     1
 90
        2
 40
-0.6
 41
30.0
 62
     5
 63
     7
421
 16777215
 74
     1
 91
        4
 64
     7
 65
   257
 75
     1
175
     1
 42
1.0
 92
        0
 66
   257
 43
1.0
 76
     1
 77
     6
 78
     2
 67
     7
 79
     5
170
     0
171
     0
290
     0
174
     0
 93
        1
 44
0.0
173
     0
291
     1
 45
0.0
  0
VISUALSTYLE
  5
FD
102
{ACAD_REACTORS
330
EF
102
}
330
EF
100
AcDbVisualStyle
  2
Linepattern
 70
    14
 71
     2
 72
     2
 73
     1
 90
        0
 40
-0.6
 41
-30.0
 62
     5
 63
     7
421
 16777215
 74
     1
 91
        4
 64
     7
 65
   257
 75
     7
175
     7
 42
1.0
 92
        8
 66
     7
 43
1.0
 76
     1
 77
     6
 78
     2
 67
     7
 79
     5
170
     0
171
     0
290
     0
174
     0
 93
        1
 44
0.0
173
     0
291
     1
 45
0.0
  0
VISUALSTYLE
  5
F9
102
{ACAD_REACTORS
330
EF
102
}
330
EF
100
AcDbVisualStyle
  2
Realistic
 70
     8
 71
     2
 72
     2
 73
     1
 90
        0
 40
-0.6
 41
-30.0
 62
     5
 63
     7
421
 16777215
 74
     1
 91
        0
 64
     7
 65
   257
 75
     1
175
     1
 42
1.0
 92
        8
 66
     8
424
  7895160
 43
1.0
 76
     1
 77
     6
 78
     2
 67
     7
 79
     5
170
     0
171
     0
290
     0
174
     0
 93
       13
 44
0.0
173
     0
291
     0
 45
0.0
  0
VISUALSTYLE
  5
FC
102
{ACAD_REACTORS
330
EF
102
}
330
EF
100
AcDbVisualStyle
  2
Thicken
 70
    13
 71
     2
 72
     2
 73
     1
 90
        0
 40
-0.6
 41
-30.0
 62
     5
 63
     7
421
 16777215
 74
     1
 91
        4
 64
     7
 65
   257
 75
     1
175
     1
 42
1.0
 92
       12
 66
     7
 43
1.0
 76
     1
 77
     6
 78
     2
 67
     7
 79
     5
170
     0
171
     0
290
     0
174
     0
 93
        1
 44
0.0
173
     0
291
     1
 45
0.0
  0
DICTIONARYVAR
  5
146
102
{ACAD_REACTORS
330
5E
102
}
330
5E
100
DictionaryVariables
280
     0
  1
1:1
  0
DICTIONARYVAR
  5
145
102
{ACAD_REACTORS
330
5E
102
}
330
5E
100
DictionaryVariables
280
     0
  1
STANDARD
  0
DICTIONARYVAR
  5
84
102
{ACAD_REACTORS
330
5E
102
}
330
5E
100
DictionaryVariables
280
     0
  1
STANDARD
  0
DICTIONARYVAR
  5
5F
102
{ACAD_REACTORS
330
5E
102
}
330
5E
100
DictionaryVariables
280
     0
  1
2
  0
DICTIONARYVAR
  5
63
102
{ACAD_REACTORS
330
5E
102
}
330
5E
100
DictionaryVariables
280
     0
  1
1
  0
DICTIONARYVAR
  5
1AE
102
{ACAD_REACTORS
330
5E
102
}
330
5E
100
DictionaryVariables
280
     0
  1
0
  0
DICTIONARYVAR
  5
1AF
102
{ACAD_REACTORS
330
5E
102
}
330
5E
100
DictionaryVariables
280
     0
  1
0
  0
DICTIONARY
  5
173
330
EE
100
AcDbDictionary
280
     1
281
     1
  3
BUMPTILE
360
175
  3
DIFFUSETILE
360
174
  3
OPACITYTILE
360
176
  3
REFLECTIONTILE
360
177
  0
DICTIONARY
  5
162
330
7F
100
AcDbDictionary
280
     1
281
     1
  3
ACAD_ROUNDTRIP_2008_TABLESTYLE_CELLSTYLEMAP
360
1E7
  0
XRECORD
  5
175
102
{ACAD_REACTORS
330
173
102
}
330
173
100
AcDbXrecord
280
     1
270
     1
271
     1
  0
XRECORD
  5
174
102
{ACAD_REACTORS
330
173
102
}
330
173
100
AcDbXrecord
280
     1
270
     1
271
     1
  0
XRECORD
  5
176
102
{ACAD_REACTORS
330
173
102
}
330
173
100
AcDbXrecord
280
     1
270
     1
271
     1
  0
XRECORD
  5
177
102
{ACAD_REACTORS
330
173
102
}
330
173
100
AcDbXrecord
280
     1
270
     1
271
     1
  0
CELLSTYLEMAP
  5
1E7
102
{ACAD_REACTORS
330
162
102
}
330
162
100
AcDbCellStyleMap
 90
        3
300
CELLSTYLE
  1
TABLEFORMAT_BEGIN
 90
        5
170
     1
 91
        0
 92
    32768
 62
   257
 93
        1
300
CONTENTFORMAT
  1
CONTENTFORMAT_BEGIN
 90
        0
 91
        0
 92
      512
 93
        0
300

 40
0.0
140
1.0
 94
        5
 62
     0
340
11
144
6.0
309
CONTENTFORMAT_END
171
     1
301
MARGIN
  1
CELLMARGIN_BEGIN
 40
1.5
 40
1.5
 40
1.5
 40
1.5
 40
4.5
 40
4.5
309
CELLMARGIN_END
 94
        6
 95
        1
302
GRIDFORMAT
  1
GRIDFORMAT_BEGIN
 90
        0
 91
        1
 62
     0
 92
       -2
340
0
 93
        0
 40
1.125
309
GRIDFORMAT_END
 95
        2
302
GRIDFORMAT
  1
GRIDFORMAT_BEGIN
 90
        0
 91
        1
 62
     0
 92
       -2
340
0
 93
        0
 40
1.125
309
GRIDFORMAT_END
 95
        4
302
GRIDFORMAT
  1
GRIDFORMAT_BEGIN
 90
        0
 91
        1
 62
     0
 92
       -2
340
0
 93
        0
 40
1.125
309
GRIDFORMAT_END
 95
        8
302
GRIDFORMAT
  1
GRIDFORMAT_BEGIN
 90
        0
 91
        1
 62
     0
 92
       -2
340
0
 93
        0
 40
1.125
309
GRIDFORMAT_END
 95
       16
302
GRIDFORMAT
  1
GRIDFORMAT_BEGIN
 90
        0
 91
        1
 62
     0
 92
       -2
340
0
 93
        0
 40
1.125
309
GRIDFORMAT_END
 95
       32
302
GRIDFORMAT
  1
GRIDFORMAT_BEGIN
 90
        0
 91
        1
 62
     0
 92
       -2
340
0
 93
        0
 40
1.125
309
GRIDFORMAT_END
309
TABLEFORMAT_END
  1
CELLSTYLE_BEGIN
 90
        1
 91
        1
300
_TITLE
309
CELLSTYLE_END
300
CELLSTYLE
  1
TABLEFORMAT_BEGIN
 90
        5
170
     1
 91
        0
 92
        0
 62
   257
 93
        1
300
CONTENTFORMAT
  1
CONTENTFORMAT_BEGIN
 90
        0
 91
        0
 92
      512
 93
        0
300

 40
0.0
140
1.0
 94
        5
 62
     0
340
11
144
4.5
309
CONTENTFORMAT_END
171
     1
301
MARGIN
  1
CELLMARGIN_BEGIN
 40
1.5
 40
1.5
 40
1.5
 40
1.5
 40
4.5
 40
4.5
309
CELLMARGIN_END
 94
        6
 95
        1
302
GRIDFORMAT
  1
GRIDFORMAT_BEGIN
 90
        0
 91
        1
 62
     0
 92
       -2
340
0
 93
        0
 40
1.125
309
GRIDFORMAT_END
 95
        2
302
GRIDFORMAT
  1
GRIDFORMAT_BEGIN
 90
        0
 91
        1
 62
     0
 92
       -2
340
0
 93
        0
 40
1.125
309
GRIDFORMAT_END
 95
        4
302
GRIDFORMAT
  1
GRIDFORMAT_BEGIN
 90
        0
 91
        1
 62
     0
 92
       -2
340
0
 93
        0
 40
1.125
309
GRIDFORMAT_END
 95
        8
302
GRIDFORMAT
  1
GRIDFORMAT_BEGIN
 90
        0
 91
        1
 62
     0
 92
       -2
340
0
 93
        0
 40
1.125
309
GRIDFORMAT_END
 95
       16
302
GRIDFORMAT
  1
GRIDFORMAT_BEGIN
 90
        0
 91
        1
 62
     0
 92
       -2
340
0
 93
        0
 40
1.125
309
GRIDFORMAT_END
 95
       32
302
GRIDFORMAT
  1
GRIDFORMAT_BEGIN
 90
        0
 91
        1
 62
     0
 92
       -2
340
0
 93
        0
 40
1.125
309
GRIDFORMAT_END
309
TABLEFORMAT_END
  1
CELLSTYLE_BEGIN
 90
        2
 91
        1
300
_HEADER
309
CELLSTYLE_END
300
CELLSTYLE
  1
TABLEFORMAT_BEGIN
 90
        5
170
     1
 91
        0
 92
        0
 62
   257
 93
        1
300
CONTENTFORMAT
  1
CONTENTFORMAT_BEGIN
 90
        0
 91
        0
 92
      512
 93
        0
300

 40
0.0
140
1.0
 94
        2
 62
     0
340
11
144
4.5
309
CONTENTFORMAT_END
171
     1
301
MARGIN
  1
CELLMARGIN_BEGIN
 40
1.5
 40
1.5
 40
1.5
 40
1.5
 40
4.5
 40
4.5
309
CELLMARGIN_END
 94
        6
 95
        1
302
GRIDFORMAT
  1
GRIDFORMAT_BEGIN
 90
        0
 91
        1
 62
     0
 92
       -2
340
0
 93
        0
 40
1.125
309
GRIDFORMAT_END
 95
        2
302
GRIDFORMAT
  1
GRIDFORMAT_BEGIN
 90
        0
 91
        1
 62
     0
 92
       -2
340
0
 93
        0
 40
1.125
309
GRIDFORMAT_END
 95
        4
302
GRIDFORMAT
  1
GRIDFORMAT_BEGIN
 90
        0
 91
        1
 62
     0
 92
       -2
340
0
 93
        0
 40
1.125
309
GRIDFORMAT_END
 95
        8
302
GRIDFORMAT
  1
GRIDFORMAT_BEGIN
 90
        0
 91
        1
 62
     0
 92
       -2
340
0
 93
        0
 40
1.125
309
GRIDFORMAT_END
 95
       16
302
GRIDFORMAT
  1
GRIDFORMAT_BEGIN
 90
        0
 91
        1
 62
     0
 92
       -2
340
0
 93
        0
 40
1.125
309
GRIDFORMAT_END
 95
       32
302
GRIDFORMAT
  1
GRIDFORMAT_BEGIN
 90
        0
 91
        1
 62
     0
 92
       -2
340
0
 93
        0
 40
1.125
309
GRIDFORMAT_END
309
TABLEFORMAT_END
  1
CELLSTYLE_BEGIN
 90
        3
 91
        2
300
_DATA
309
CELLSTYLE_END
  0
IMAGEDEF_REACTOR
  5
2C7
330
2C5
100
AcDbRasterImageDefReactor
 90
     2
330
2C5
  0
IMAGEDEF
  5
2C6
102
{ACAD_REACTORS
330
5E
330
2C7
102
}
330
5E
100
AcDbRasterImageDef
 90
     0
  1
WDVS mit Putz_Anschluss Steildach-Traufe nicht belüftet_8_1.tif
 10
395.000000
 20
405.000000
 11
0.002532
 21
0.002469
280
     1
281
     0
  0
ENDSEC
  0
EOF
