  0
SECTION
  2
HEADER
  9
$ACADVER
  1
AC1024
  9
$ACADMAINTVER
 70
     6
  9
$DWGCODEPAGE
  3
ANSI_1252
  9
$INSBASE
 10
0.0
 20
0.0
 30
0.0
  9
$EXTMIN
 10
-262.500018
 20
-371.249941
 30
0.000000
  9
$EXTMAX
 10
237.500023
 20
346.250078
 30
0.000000
  9
$LIMMIN
 10
0.0
 20
0.0
  9
$LIMMAX
 10
420.0
 20
297.0
  9
$ORTHOMODE
 70
     0
  9
$REGENMODE
 70
     1
  9
$FILLMODE
 70
     1
  9
$QTEXTMODE
 70
     0
  9
$MIRRTEXT
 70
     0
  9
$LTSCALE
 40
25.000000
  9
$ATTMODE
 70
     1
  9
$TEXTSIZE
 40
2.5
  9
$TRACEWID
 40
1.0
  9
$TEXTSTYLE
  7
Standard
  9
$CLAYER
  8
0
  9
$CELTYPE
  6
ByLayer
  9
$CECOLOR
 62
   256
  9
$CELTSCALE
 40
1.0
  9
$DISPSILH
 70
     0
  9
$DIMSCALE
 40
1.0
  9
$DIMASZ
 40
2.5
  9
$DIMEXO
 40
0.625
  9
$DIMDLI
 40
3.75
  9
$DIMRND
 40
0.0
  9
$DIMDLE
 40
0.0
  9
$DIMEXE
 40
1.25
  9
$DIMTP
 40
0.0
  9
$DIMTM
 40
0.0
  9
$DIMTXT
 40
2.5
  9
$DIMCEN
 40
2.5
  9
$DIMTSZ
 40
0.0
  9
$DIMTOL
 70
     0
  9
$DIMLIM
 70
     0
  9
$DIMTIH
 70
     0
  9
$DIMTOH
 70
     0
  9
$DIMSE1
 70
     0
  9
$DIMSE2
 70
     0
  9
$DIMTAD
 70
     1
  9
$DIMZIN
 70
     8
  9
$DIMBLK
  1

  9
$DIMASO
 70
     1
  9
$DIMSHO
 70
     1
  9
$DIMPOST
  1

  9
$DIMAPOST
  1

  9
$DIMALT
 70
     0
  9
$DIMALTD
 70
     3
  9
$DIMALTF
 40
0.03937007874016
  9
$DIMLFAC
 40
1.0
  9
$DIMTOFL
 70
     1
  9
$DIMTVP
 40
0.0
  9
$DIMTIX
 70
     0
  9
$DIMSOXD
 70
     0
  9
$DIMSAH
 70
     0
  9
$DIMBLK1
  1

  9
$DIMBLK2
  1

  9
$DIMSTYLE
  2
ISO-25
  9
$DIMCLRD
 70
     0
  9
$DIMCLRE
 70
     0
  9
$DIMCLRT
 70
     0
  9
$DIMTFAC
 40
1.0
  9
$DIMGAP
 40
0.625
  9
$DIMJUST
 70
     0
  9
$DIMSD1
 70
     0
  9
$DIMSD2
 70
     0
  9
$DIMTOLJ
 70
     0
  9
$DIMTZIN
 70
     8
  9
$DIMALTZ
 70
     0
  9
$DIMALTTZ
 70
     0
  9
$DIMUPT
 70
     0
  9
$DIMDEC
 70
     2
  9
$DIMTDEC
 70
     2
  9
$DIMALTU
 70
     2
  9
$DIMALTTD
 70
     3
  9
$DIMTXSTY
  7
Standard
  9
$DIMAUNIT
 70
     0
  9
$DIMADEC
 70
     0
  9
$DIMALTRND
 40
0.0
  9
$DIMAZIN
 70
     0
  9
$DIMDSEP
 70
    44
  9
$DIMATFIT
 70
     3
  9
$DIMFRAC
 70
     0
  9
$DIMLDRBLK
  1

  9
$DIMLUNIT
 70
     2
  9
$DIMLWD
 70
    -2
  9
$DIMLWE
 70
    -2
  9
$DIMTMOVE
 70
     0
  9
$DIMFXL
 40
1.0
  9
$DIMFXLON
 70
     0
  9
$DIMJOGANG
 40
0.7853981633974483
  9
$DIMTFILL
 70
     0
  9
$DIMTFILLCLR
 70
     0
  9
$DIMARCSYM
 70
     0
  9
$DIMLTYPE
  6

  9
$DIMLTEX1
  6

  9
$DIMLTEX2
  6

  9
$DIMTXTDIRECTION
 70
     0
  9
$LUNITS
 70
     2
  9
$LUPREC
 70
     4
  9
$SKETCHINC
 40
1.0
  9
$FILLETRAD
 40
10.0
  9
$AUNITS
 70
     0
  9
$AUPREC
 70
     0
  9
$MENU
  1
.
  9
$ELEVATION
 40
0.0
  9
$PELEVATION
 40
0.0
  9
$THICKNESS
 40
0.0
  9
$LIMCHECK
 70
     0
  9
$CHAMFERA
 40
10.0
  9
$CHAMFERB
 40
10.0
  9
$CHAMFERC
 40
20.0
  9
$CHAMFERD
 40
0.0
  9
$SKPOLY
 70
     0
  9
$TDCREATE
 40
2452006.439837951
  9
$TDUCREATE
 40
2452006.356504618
  9
$TDUPDATE
 40
2452006.439963946
  9
$TDUUPDATE
 40
2452006.356630613
  9
$TDINDWG
 40
0.0001273843
  9
$TDUSRTIMER
 40
0.0001272685
  9
$USRTIMER
 70
     1
  9
$ANGBASE
 50
0.0
  9
$ANGDIR
 70
     0
  9
$PDMODE
 70
     0
  9
$PDSIZE
 40
0.0
  9
$PLINEWID
 40
0.0
  9
$SPLFRAME
 70
     0
  9
$SPLINETYPE
 70
     6
  9
$SPLINESEGS
 70
     8
  9
$HANDSEED
  5
A23
  9
$SURFTAB1
 70
     6
  9
$SURFTAB2
 70
     6
  9
$SURFTYPE
 70
     6
  9
$SURFU
 70
     6
  9
$SURFV
 70
     6
  9
$UCSBASE
  2

  9
$UCSNAME
  2

  9
$UCSORG
 10
0.0
 20
0.0
 30
0.0
  9
$UCSXDIR
 10
1.0
 20
0.0
 30
0.0
  9
$UCSYDIR
 10
0.0
 20
1.0
 30
0.0
  9
$UCSORTHOREF
  2

  9
$UCSORTHOVIEW
 70
     0
  9
$UCSORGTOP
 10
0.0
 20
0.0
 30
0.0
  9
$UCSORGBOTTOM
 10
0.0
 20
0.0
 30
0.0
  9
$UCSORGLEFT
 10
0.0
 20
0.0
 30
0.0
  9
$UCSORGRIGHT
 10
0.0
 20
0.0
 30
0.0
  9
$UCSORGFRONT
 10
0.0
 20
0.0
 30
0.0
  9
$UCSORGBACK
 10
0.0
 20
0.0
 30
0.0
  9
$PUCSBASE
  2

  9
$PUCSNAME
  2

  9
$PUCSORG
 10
0.0
 20
0.0
 30
0.0
  9
$PUCSXDIR
 10
1.0
 20
0.0
 30
0.0
  9
$PUCSYDIR
 10
0.0
 20
1.0
 30
0.0
  9
$PUCSORTHOREF
  2

  9
$PUCSORTHOVIEW
 70
     0
  9
$PUCSORGTOP
 10
0.0
 20
0.0
 30
0.0
  9
$PUCSORGBOTTOM
 10
0.0
 20
0.0
 30
0.0
  9
$PUCSORGLEFT
 10
0.0
 20
0.0
 30
0.0
  9
$PUCSORGRIGHT
 10
0.0
 20
0.0
 30
0.0
  9
$PUCSORGFRONT
 10
0.0
 20
0.0
 30
0.0
  9
$PUCSORGBACK
 10
0.0
 20
0.0
 30
0.0
  9
$USERI1
 70
     0
  9
$USERI2
 70
     0
  9
$USERI3
 70
     0
  9
$USERI4
 70
     0
  9
$USERI5
 70
     0
  9
$USERR1
 40
0.0
  9
$USERR2
 40
0.0
  9
$USERR3
 40
0.0
  9
$USERR4
 40
0.0
  9
$USERR5
 40
0.0
  9
$WORLDVIEW
 70
     1
  9
$SHADEDGE
 70
     3
  9
$SHADEDIF
 70
    70
  9
$TILEMODE
 70
     1
  9
$MAXACTVP
 70
    64
  9
$PINSBASE
 10
0.0
 20
0.0
 30
0.0
  9
$PLIMCHECK
 70
     0
  9
$PEXTMIN
 10
1.000000000000000E+20
 20
1.000000000000000E+20
 30
1.000000000000000E+20
  9
$PEXTMAX
 10
-1.000000000000000E+20
 20
-1.000000000000000E+20
 30
-1.000000000000000E+20
  9
$PLIMMIN
 10
0.0
 20
0.0
  9
$PLIMMAX
 10
420.0
 20
297.0
  9
$UNITMODE
 70
     0
  9
$VISRETAIN
 70
     1
  9
$PLINEGEN
 70
     0
  9
$PSLTSCALE
 70
     1
  9
$TREEDEPTH
 70
  3020
  9
$CMLSTYLE
  2
Standard
  9
$CMLJUST
 70
     0
  9
$CMLSCALE
 40
20.0
  9
$PROXYGRAPHICS
 70
     1
  9
$MEASUREMENT
 70
     1
  9
$CELWEIGHT
370
    -1
  9
$ENDCAPS
280
     0
  9
$JOINSTYLE
280
     0
  9
$LWDISPLAY
290
     0
  9
$INSUNITS
 70
     4
  9
$HYPERLINKBASE
  1

  9
$STYLESHEET
  1

  9
$XEDIT
290
     1
  9
$CEPSNTYPE
380
     0
  9
$PSTYLEMODE
290
     1
  9
$FINGERPRINTGUID
  2

  9
$VERSIONGUID
  2

  9
$EXTNAMES
290
     1
  9
$PSVPSCALE
 40
0.0
  9
$OLESTARTUP
290
     0
  9
$SORTENTS
280
   127
  9
$INDEXCTL
280
     0
  9
$HIDETEXT
280
     1
  9
$XCLIPFRAME
280
     2
  9
$HALOGAP
280
     0
  9
$OBSCOLOR
 70
   257
  9
$OBSLTYPE
280
     0
  9
$INTERSECTIONDISPLAY
280
     0
  9
$INTERSECTIONCOLOR
 70
   257
  9
$DIMASSOC
280
     2
  9
$PROJECTNAME
  1

  9
$CAMERADISPLAY
290
     0
  9
$LENSLENGTH
 40
50.0
  9
$CAMERAHEIGHT
 40
0.0
  9
$STEPSPERSEC
 40
2.0
  9
$STEPSIZE
 40
6.0
  9
$3DDWFPREC
 40
2.0
  9
$PSOLWIDTH
 40
5.0
  9
$PSOLHEIGHT
 40
80.0
  9
$LOFTANG1
 40
1.570796326794896
  9
$LOFTANG2
 40
1.570796326794896
  9
$LOFTMAG1
 40
0.0
  9
$LOFTMAG2
 40
0.0
  9
$LOFTPARAM
 70
     7
  9
$LOFTNORMALS
280
     1
  9
$LATITUDE
 40
37.795
  9
$LONGITUDE
 40
-122.394
  9
$NORTHDIRECTION
 40
0.0
  9
$TIMEZONE
 70
 -8000
  9
$LIGHTGLYPHDISPLAY
280
     1
  9
$TILEMODELIGHTSYNCH
280
     1
  9
$CMATERIAL
347
EC
  9
$SOLIDHIST
280
     1
  9
$SHOWHIST
280
     1
  9
$DWFFRAME
280
     2
  9
$DGNFRAME
280
     0
  9
$REALWORLDSCALE
290
     1
  9
$INTERFERECOLOR
 62
     1
  9
$INTERFEREOBJVS
345
F9
  9
$INTERFEREVPVS
346
F6
  9
$CSHADOW
280
     0
  9
$SHADOWPLANELOCATION
 40
0.0
  0
ENDSEC
  0
SECTION
  2
CLASSES
  0
CLASS
  1
ACDBDICTIONARYWDFLT
  2
AcDbDictionaryWithDefault
  3
ObjectDBX Classes
 90
        0
 91
        1
280
     0
281
     0
  0
CLASS
  1
ACDBPLACEHOLDER
  2
AcDbPlaceHolder
  3
ObjectDBX Classes
 90
        0
 91
        1
280
     0
281
     0
  0
CLASS
  1
LAYOUT
  2
AcDbLayout
  3
ObjectDBX Classes
 90
        0
 91
        2
280
     0
281
     0
  0
CLASS
  1
DICTIONARYVAR
  2
AcDbDictionaryVar
  3
ObjectDBX Classes
 90
        0
 91
        7
280
     0
281
     0
  0
CLASS
  1
TABLESTYLE
  2
AcDbTableStyle
  3
ObjectDBX Classes
 90
     4095
 91
        1
280
     0
281
     0
  0
CLASS
  1
MATERIAL
  2
AcDbMaterial
  3
ObjectDBX Classes
 90
     1153
 91
        3
280
     0
281
     0
  0
CLASS
  1
VISUALSTYLE
  2
AcDbVisualStyle
  3
ObjectDBX Classes
 90
     4095
 91
       16
280
     0
281
     0
  0
CLASS
  1
SCALE
  2
AcDbScale
  3
ObjectDBX Classes
 90
     1153
 91
       17
280
     0
281
     0
  0
CLASS
  1
MLEADERSTYLE
  2
AcDbMLeaderStyle
  3
ACDB_MLEADERSTYLE_CLASS
 90
     4095
 91
        1
280
     0
281
     0
  0
CLASS
  1
CELLSTYLEMAP
  2
AcDbCellStyleMap
  3
ObjectDBX Classes
 90
     1152
 91
        2
280
     0
281
     0
  0
CLASS
  1
EXACXREFPANELOBJECT
  2
ExAcXREFPanelObject
  3
EXAC_ESW
 90
    33793
 91
        0
280
     0
281
     0
  0
CLASS
  1
NPOCOLLECTION
  2
AcDbImpNonPersistentObjectsCollection
  3
ObjectDBX Classes
 90
     1153
 91
        0
280
     0
281
     0
  0
CLASS
  1
LAYER_INDEX
  2
AcDbLayerIndex
  3
ObjectDBX Classes
 90
        0
 91
        0
280
     0
281
     0
  0
CLASS
  1
SPATIAL_INDEX
  2
AcDbSpatialIndex
  3
ObjectDBX Classes
 90
        0
 91
        0
280
     0
281
     0
  0
CLASS
  1
IDBUFFER
  2
AcDbIdBuffer
  3
ObjectDBX Classes
 90
        0
 91
        0
280
     0
281
     0
  0
CLASS
  1
RASTERVARIABLES
  2
AcDbRasterVariables
  3
ISM
 90
        0
 91
        2
280
     0
281
     0
  0
CLASS
  1
IMAGEDEF
  2
AcDbRasterImageDef
  3
ISM
 90
        0
 91
        5
280
     0
281
     0
  0
CLASS
  1
IMAGEDEF_REACTOR
  2
AcDbRasterImageDefReactor
  3
ISM
 90
        1
 91
        5
280
     0
281
     0
  0
CLASS
  1
IMAGE
  2
AcDbRasterImage
  3
ISM
 90
     2175
 91
        5
280
     0
281
     1
  0
CLASS
  1
LWPOLYLINE
  2
AcDbPolyline
  3
ObjectDBX Classes
 90
        0
 91
        0
280
     0
281
     1
  0
CLASS
  1
OLE2FRAME
  2
AcDbOle2Frame
  3
ObjectDBX Classes
 90
        0
 91
        0
280
     0
281
     1
  0
CLASS
  1
HATCH
  2
AcDbHatch
  3
ObjectDBX Classes
 90
        0
 91
        0
280
     0
281
     1
  0
CLASS
  1
XRECORD
  2
AcDbXrecord
  3
ObjectDBX Classes
 90
        0
 91
        9
280
     0
281
     0
  0
CLASS
  1
SORTENTSTABLE
  2
AcDbSortentsTable
  3
ObjectDBX Classes
 90
        0
 91
        0
280
     0
281
     0
  0
CLASS
  1
OBJECT_PTR
  2
CAseDLPNTableRecord
  3
"ASE-LPNTableRecord"
 90
    32769
 91
        0
280
     0
281
     0
  0
CLASS
  1
PLOTSETTINGS
  2
AcDbPlotSettings
  3
ObjectDBX Classes
 90
        0
 91
        0
280
     0
281
     0
  0
CLASS
  1
VBA_PROJECT
  2
AcDbVbaProject
  3
acad
 90
        0
 91
        0
280
     0
281
     0
  0
CLASS
  1
WIPEOUT
  2
AcDbWipeout
  3
WipeOut|AutoCAD Express Tool|expresstools@autodesk.com
 90
    32895
 91
        0
280
     0
281
     1
  0
CLASS
  1
WIPEOUTVARIABLES
  2
AcDbWipeoutVariables
  3
WipeOut|AutoCAD Express Tool|expresstools@autodesk.com
 90
    32768
 91
        0
280
     0
281
     0
  0
CLASS
  1
RTEXT
  2
RText
  3
RText|AutoCAD Express Tool|expresstools@autodesk.com
 90
    32768
 91
        0
280
     0
281
     1
  0
CLASS
  1
ARCALIGNEDTEXT
  2
AcDbArcAlignedText
  3
ATEXT|AutoCAD Express Tool|expresstools@autodesk.com
 90
    32768
 91
        0
280
     0
281
     1
  0
ENDSEC
  0
SECTION
  2
TABLES
  0
TABLE
  2
VPORT
  5
990
100
AcDbSymbolTable
 70
     1
  0
VPORT
  5
991
100
AcDbSymbolTableRecord
100
AcDbViewportTableRecord
  2
*ACTIVE
 70
     0
 10
0.000000
 20
0.000000
 11
1.000000
 21
1.000000
 12
50.000000
 22
50.000000
 13
0.000000
 23
0.000000
 14
1.000000
 24
1.000000
 15
10.000000
 25
10.000000
 16
0.000000
 26
0.000000
 36
1.000000
 17
0.000000
 27
0.000000
 37
0.000000
 40
100.000000
 41
1.387409
 42
50.000000
 43
0.000000
 44
0.000000
 50
0.000000
 51
0.000000
 71
     0
 72
   100
 73
     1
 74
     1
 75
     0
 76
     0
 77
     0
 78
     0
  0
ENDTAB
  0
TABLE
  2
LTYPE
  5
992
330
0
100
AcDbSymbolTable
 70
     9
  0
LTYPE
  5
993
330
992
100
AcDbSymbolTableRecord
100
AcDbLinetypeTableRecord
  2
ByBlock
 70
     0
  3

 72
    65
 73
     0
 40
0.000000
  0
LTYPE
  5
994
330
992
100
AcDbSymbolTableRecord
100
AcDbLinetypeTableRecord
  2
ByLayer
 70
     0
  3

 72
    65
 73
     0
 40
0.000000
  0
LTYPE
  5
995
330
992
100
AcDbSymbolTableRecord
100
AcDbLinetypeTableRecord
  2
CONTINUOUS
 70
     0
  3
Solid line
 72
    65
 73
     0
 40
0.000000
  0
LTYPE
  5
996
330
992
100
AcDbSymbolTableRecord
100
AcDbLinetypeTableRecord
  2
HIDDEN
 70
     0
  3
_ _ _ _ _ _ _ _ _ _ _ _ _ _ _ _ _ _ _ _ _ _ _
 72
    65
 73
     2
 40
0.375000
 49
0.250000
 74
     0
 49
-0.125000
 74
     0
  0
LTYPE
  5
997
330
992
100
AcDbSymbolTableRecord
100
AcDbLinetypeTableRecord
  2
DOT
 70
     0
  3
...............................................
 72
    65
 73
     2
 40
0.250000
 49
0.000000
 74
     0
 49
-0.250000
 74
     0
  0
LTYPE
  5
998
330
992
100
AcDbSymbolTableRecord
100
AcDbLinetypeTableRecord
  2
DASHED
 70
     0
  3
__ __ __ __ __ __ __ __ __ __ __ __ __ __ __ 
 72
    65
 73
     2
 40
0.750000
 49
0.500000
 74
     0
 49
-0.250000
 74
     0
  0
LTYPE
  5
999
330
992
100
AcDbSymbolTableRecord
100
AcDbLinetypeTableRecord
  2
DIVIDE
 70
     0
  3
__ . . __ . . __ . . __ . . __ . . __ . . __
 72
    65
 73
     6
 40
1.250000
 49
0.500000
 74
     0
 49
-0.250000
 74
     0
 49
0.000000
 74
     0
 49
-0.250000
 74
     0
 49
0.000000
 74
     0
 49
-0.250000
 74
     0
  0
LTYPE
  5
99A
330
992
100
AcDbSymbolTableRecord
100
AcDbLinetypeTableRecord
  2
DASHDOT
 70
     0
  3
__ . __ . __ . __ . __ . __ . __ . __ . __ . __
 72
    65
 73
     4
 40
1.000000
 49
0.500000
 74
     0
 49
-0.250000
 74
     0
 49
0.000000
 74
     0
 49
-0.250000
 74
     0
  0
LTYPE
  5
99B
330
992
100
AcDbSymbolTableRecord
100
AcDbLinetypeTableRecord
  2
BORDER
 70
     0
  3
__ __ . __ __ . __ __ . __ __ . __ __ . __ __
 72
    65
 73
     6
 40
1.750000
 49
0.500000
 74
     0
 49
-0.250000
 74
     0
 49
0.500000
 74
     0
 49
-0.250000
 74
     0
 49
0.000000
 74
     0
 49
-0.250000
 74
     0
  0
LTYPE
  5
99C
330
992
100
AcDbSymbolTableRecord
100
AcDbLinetypeTableRecord
  2
CENTER
 70
     0
  3
____ _ ____ _ ____ _ ____ _ ____ _ ____ _ ____
 72
    65
 73
     4
 40
2.000000
 49
1.250000
 74
     0
 49
-0.250000
 74
     0
 49
0.250000
 74
     0
 49
-0.250000
 74
     0
  0
LTYPE
  5
99D
330
992
100
AcDbSymbolTableRecord
100
AcDbLinetypeTableRecord
  2
PHANTOM
 70
     0
  3
_____ _ _ _____ _ _ _____ _ _ _____ _ _ ____
 72
    65
 73
     6
 40
2.500000
 49
1.250000
 74
     0
 49
-0.250000
 74
     0
 49
0.250000
 74
     0
 49
-0.250000
 74
     0
 49
0.250000
 74
     0
 49
-0.250000
 74
     0
  0
ENDTAB
  0
TABLE
  2
LAYER
  5
99E
100
AcDbSymbolTable
 70
     4
  0
LAYER
  5
99F
100
AcDbSymbolTableRecord
100
AcDbLayerTableRecord
  2
0
 70
     0
 62
     7
  6
CONTINUOUS
370
    -3
390
     0
  0
LAYER
  5
9A0
100
AcDbSymbolTableRecord
100
AcDbLayerTableRecord
  2
SCHRAFF
 70
     0
 62
     7
  6
CONTINUOUS
370
    -3
390
     0
  0
LAYER
  5
9A1
100
AcDbSymbolTableRecord
100
AcDbLayerTableRecord
  2
Detail
 70
     0
 62
     7
  6
CONTINUOUS
370
    -3
390
     0
  0
LAYER
  5
9A2
100
AcDbSymbolTableRecord
100
AcDbLayerTableRecord
  2
L
 70
     0
 62
     7
  6
CONTINUOUS
370
    -3
390
     0
  0
ENDTAB
  0
TABLE
  2
STYLE
  5
9A3
100
AcDbSymbolTable
 70
     2
  0
STYLE
  5
201
100
AcDbSymbolTableRecord
100
AcDbTextStyleTableRecord
  2
STANDARD
 70
     0
 40
0.000000
 41
1.000000
 50
0.000000
 71
     0
 42
3.500000
  3
txt
  4

  0
STYLE
  5
482
100
AcDbSymbolTableRecord
100
AcDbTextStyleTableRecord
  2
Arial
 70
     0
 40
0.000000
 41
1.000000
 50
0.000000
 71
     0
 42
3.500000
  3
Arial.ttf
  4

1001
ACAD
1000
Arial
1071
     0
  0
ENDTAB
  0
TABLE
  2
DIMSTYLE
  5
9A4
100
AcDbSymbolTable
 70
     0
100
AcDbDimStyleTable
  0
ENDTAB
  0
TABLE
  2
VIEW
  5
9A5
100
AcDbSymbolTable
 70
     0
  0
ENDTAB
  0
TABLE
  2
UCS
  5
9A6
100
AcDbSymbolTable
 70
     0
  0
ENDTAB
  0
TABLE
  2
APPID
  5
9A7
100
AcDbSymbolTable
 70
     1
  0
APPID
  5
9A8
100
AcDbSymbolTableRecord
100
AcDbRegAppTableRecord
  2
ACAD
 70
     0
  0
ENDTAB
  0
TABLE
  2
BLOCK_RECORD
  5
9A9
100
AcDbSymbolTable
 70
   122
  0
BLOCK_RECORD
  5
202
102
{ACAD_XDICTIONARY
360
203
102
}
100
AcDbSymbolTableRecord
100
AcDbBlockTableRecord
  2
*Model_Space
  0
BLOCK_RECORD
  5
9AA
100
AcDbSymbolTableRecord
100
AcDbBlockTableRecord
  2
*Paper_Space
  0
BLOCK_RECORD
  5
9AB
100
AcDbSymbolTableRecord
100
AcDbBlockTableRecord
  2
*Paper_Space0
  0
BLOCK_RECORD
  5
9AC
100
AcDbSymbolTableRecord
100
AcDbBlockTableRecord
  2
B
  0
BLOCK_RECORD
  5
9AD
100
AcDbSymbolTableRecord
100
AcDbBlockTableRecord
  2
B-2
  0
BLOCK_RECORD
  5
9AE
100
AcDbSymbolTableRecord
100
AcDbBlockTableRecord
  2
B-3
  0
BLOCK_RECORD
  5
9AF
100
AcDbSymbolTableRecord
100
AcDbBlockTableRecord
  2
B-4
  0
BLOCK_RECORD
  5
9B0
100
AcDbSymbolTableRecord
100
AcDbBlockTableRecord
  2
B-5
  0
BLOCK_RECORD
  5
9B1
100
AcDbSymbolTableRecord
100
AcDbBlockTableRecord
  2
B-6
  0
BLOCK_RECORD
  5
9B2
100
AcDbSymbolTableRecord
100
AcDbBlockTableRecord
  2
B-7
  0
BLOCK_RECORD
  5
9B3
100
AcDbSymbolTableRecord
100
AcDbBlockTableRecord
  2
B-8
  0
BLOCK_RECORD
  5
9B4
100
AcDbSymbolTableRecord
100
AcDbBlockTableRecord
  2
B-9
  0
BLOCK_RECORD
  5
9B5
100
AcDbSymbolTableRecord
100
AcDbBlockTableRecord
  2
B-10
  0
BLOCK_RECORD
  5
9B6
100
AcDbSymbolTableRecord
100
AcDbBlockTableRecord
  2
B-11
  0
BLOCK_RECORD
  5
9B7
100
AcDbSymbolTableRecord
100
AcDbBlockTableRecord
  2
B-12
  0
BLOCK_RECORD
  5
9B8
100
AcDbSymbolTableRecord
100
AcDbBlockTableRecord
  2
B-13
  0
BLOCK_RECORD
  5
9B9
100
AcDbSymbolTableRecord
100
AcDbBlockTableRecord
  2
B-14
  0
BLOCK_RECORD
  5
9BA
100
AcDbSymbolTableRecord
100
AcDbBlockTableRecord
  2
B-15
  0
BLOCK_RECORD
  5
9BB
100
AcDbSymbolTableRecord
100
AcDbBlockTableRecord
  2
B-16
  0
BLOCK_RECORD
  5
9BC
100
AcDbSymbolTableRecord
100
AcDbBlockTableRecord
  2
B-17
  0
BLOCK_RECORD
  5
9BD
100
AcDbSymbolTableRecord
100
AcDbBlockTableRecord
  2
B-18
  0
BLOCK_RECORD
  5
9BE
100
AcDbSymbolTableRecord
100
AcDbBlockTableRecord
  2
B-19
  0
BLOCK_RECORD
  5
9BF
100
AcDbSymbolTableRecord
100
AcDbBlockTableRecord
  2
B-20
  0
BLOCK_RECORD
  5
9C0
100
AcDbSymbolTableRecord
100
AcDbBlockTableRecord
  2
B-21
  0
BLOCK_RECORD
  5
9C1
100
AcDbSymbolTableRecord
100
AcDbBlockTableRecord
  2
B-22
  0
BLOCK_RECORD
  5
9C2
100
AcDbSymbolTableRecord
100
AcDbBlockTableRecord
  2
B-23
  0
BLOCK_RECORD
  5
9C3
100
AcDbSymbolTableRecord
100
AcDbBlockTableRecord
  2
B-24
  0
BLOCK_RECORD
  5
9C4
100
AcDbSymbolTableRecord
100
AcDbBlockTableRecord
  2
B-25
  0
BLOCK_RECORD
  5
9C5
100
AcDbSymbolTableRecord
100
AcDbBlockTableRecord
  2
B-26
  0
BLOCK_RECORD
  5
9C6
100
AcDbSymbolTableRecord
100
AcDbBlockTableRecord
  2
B-27
  0
BLOCK_RECORD
  5
9C7
100
AcDbSymbolTableRecord
100
AcDbBlockTableRecord
  2
B-28
  0
BLOCK_RECORD
  5
9C8
100
AcDbSymbolTableRecord
100
AcDbBlockTableRecord
  2
B-29
  0
BLOCK_RECORD
  5
9C9
100
AcDbSymbolTableRecord
100
AcDbBlockTableRecord
  2
B-30
  0
BLOCK_RECORD
  5
9CA
100
AcDbSymbolTableRecord
100
AcDbBlockTableRecord
  2
B-31
  0
BLOCK_RECORD
  5
9CB
100
AcDbSymbolTableRecord
100
AcDbBlockTableRecord
  2
B-32
  0
BLOCK_RECORD
  5
9CC
100
AcDbSymbolTableRecord
100
AcDbBlockTableRecord
  2
B-33
  0
BLOCK_RECORD
  5
9CD
100
AcDbSymbolTableRecord
100
AcDbBlockTableRecord
  2
B-34
  0
BLOCK_RECORD
  5
9CE
100
AcDbSymbolTableRecord
100
AcDbBlockTableRecord
  2
B-35
  0
BLOCK_RECORD
  5
9CF
100
AcDbSymbolTableRecord
100
AcDbBlockTableRecord
  2
B-36
  0
BLOCK_RECORD
  5
9D0
100
AcDbSymbolTableRecord
100
AcDbBlockTableRecord
  2
B-37
  0
BLOCK_RECORD
  5
9D1
100
AcDbSymbolTableRecord
100
AcDbBlockTableRecord
  2
B-38
  0
BLOCK_RECORD
  5
9D2
100
AcDbSymbolTableRecord
100
AcDbBlockTableRecord
  2
B-39
  0
BLOCK_RECORD
  5
9D3
100
AcDbSymbolTableRecord
100
AcDbBlockTableRecord
  2
B-40
  0
BLOCK_RECORD
  5
9D4
100
AcDbSymbolTableRecord
100
AcDbBlockTableRecord
  2
B-41
  0
BLOCK_RECORD
  5
9D5
100
AcDbSymbolTableRecord
100
AcDbBlockTableRecord
  2
B-42
  0
BLOCK_RECORD
  5
9D6
100
AcDbSymbolTableRecord
100
AcDbBlockTableRecord
  2
B-43
  0
BLOCK_RECORD
  5
9D7
100
AcDbSymbolTableRecord
100
AcDbBlockTableRecord
  2
B-44
  0
BLOCK_RECORD
  5
9D8
100
AcDbSymbolTableRecord
100
AcDbBlockTableRecord
  2
B-45
  0
BLOCK_RECORD
  5
9D9
100
AcDbSymbolTableRecord
100
AcDbBlockTableRecord
  2
B-46
  0
BLOCK_RECORD
  5
9DA
100
AcDbSymbolTableRecord
100
AcDbBlockTableRecord
  2
B-47
  0
BLOCK_RECORD
  5
9DB
100
AcDbSymbolTableRecord
100
AcDbBlockTableRecord
  2
B-48
  0
BLOCK_RECORD
  5
9DC
100
AcDbSymbolTableRecord
100
AcDbBlockTableRecord
  2
B-49
  0
BLOCK_RECORD
  5
9DD
100
AcDbSymbolTableRecord
100
AcDbBlockTableRecord
  2
B-50
  0
BLOCK_RECORD
  5
9DE
100
AcDbSymbolTableRecord
100
AcDbBlockTableRecord
  2
B-51
  0
BLOCK_RECORD
  5
9DF
100
AcDbSymbolTableRecord
100
AcDbBlockTableRecord
  2
B-52
  0
BLOCK_RECORD
  5
9E0
100
AcDbSymbolTableRecord
100
AcDbBlockTableRecord
  2
B-53
  0
BLOCK_RECORD
  5
9E1
100
AcDbSymbolTableRecord
100
AcDbBlockTableRecord
  2
B-54
  0
BLOCK_RECORD
  5
9E2
100
AcDbSymbolTableRecord
100
AcDbBlockTableRecord
  2
B-55
  0
BLOCK_RECORD
  5
9E3
100
AcDbSymbolTableRecord
100
AcDbBlockTableRecord
  2
B-57
  0
BLOCK_RECORD
  5
9E4
100
AcDbSymbolTableRecord
100
AcDbBlockTableRecord
  2
B-58
  0
BLOCK_RECORD
  5
9E5
100
AcDbSymbolTableRecord
100
AcDbBlockTableRecord
  2
B-59
  0
BLOCK_RECORD
  5
9E6
100
AcDbSymbolTableRecord
100
AcDbBlockTableRecord
  2
B-60
  0
BLOCK_RECORD
  5
9E7
100
AcDbSymbolTableRecord
100
AcDbBlockTableRecord
  2
B-61
  0
BLOCK_RECORD
  5
9E8
100
AcDbSymbolTableRecord
100
AcDbBlockTableRecord
  2
B-62
  0
BLOCK_RECORD
  5
9E9
100
AcDbSymbolTableRecord
100
AcDbBlockTableRecord
  2
B-63
  0
BLOCK_RECORD
  5
9EA
100
AcDbSymbolTableRecord
100
AcDbBlockTableRecord
  2
B-64
  0
BLOCK_RECORD
  5
9EB
100
AcDbSymbolTableRecord
100
AcDbBlockTableRecord
  2
B-65
  0
BLOCK_RECORD
  5
9EC
100
AcDbSymbolTableRecord
100
AcDbBlockTableRecord
  2
B-66
  0
BLOCK_RECORD
  5
9ED
100
AcDbSymbolTableRecord
100
AcDbBlockTableRecord
  2
B-67
  0
BLOCK_RECORD
  5
9EE
100
AcDbSymbolTableRecord
100
AcDbBlockTableRecord
  2
B-68
  0
BLOCK_RECORD
  5
9EF
100
AcDbSymbolTableRecord
100
AcDbBlockTableRecord
  2
B-69
  0
BLOCK_RECORD
  5
9F0
100
AcDbSymbolTableRecord
100
AcDbBlockTableRecord
  2
B-70
  0
BLOCK_RECORD
  5
9F1
100
AcDbSymbolTableRecord
100
AcDbBlockTableRecord
  2
B-71
  0
BLOCK_RECORD
  5
9F2
100
AcDbSymbolTableRecord
100
AcDbBlockTableRecord
  2
B-72
  0
BLOCK_RECORD
  5
9F3
100
AcDbSymbolTableRecord
100
AcDbBlockTableRecord
  2
B-73
  0
BLOCK_RECORD
  5
9F4
100
AcDbSymbolTableRecord
100
AcDbBlockTableRecord
  2
B-74
  0
BLOCK_RECORD
  5
9F5
100
AcDbSymbolTableRecord
100
AcDbBlockTableRecord
  2
B-75
  0
BLOCK_RECORD
  5
9F6
100
AcDbSymbolTableRecord
100
AcDbBlockTableRecord
  2
B-76
  0
BLOCK_RECORD
  5
9F7
100
AcDbSymbolTableRecord
100
AcDbBlockTableRecord
  2
B-77
  0
BLOCK_RECORD
  5
9F8
100
AcDbSymbolTableRecord
100
AcDbBlockTableRecord
  2
B-78
  0
BLOCK_RECORD
  5
9F9
100
AcDbSymbolTableRecord
100
AcDbBlockTableRecord
  2
B-79
  0
BLOCK_RECORD
  5
9FA
100
AcDbSymbolTableRecord
100
AcDbBlockTableRecord
  2
B-80
  0
BLOCK_RECORD
  5
9FB
100
AcDbSymbolTableRecord
100
AcDbBlockTableRecord
  2
B-81
  0
BLOCK_RECORD
  5
9FC
100
AcDbSymbolTableRecord
100
AcDbBlockTableRecord
  2
B-82
  0
BLOCK_RECORD
  5
9FD
100
AcDbSymbolTableRecord
100
AcDbBlockTableRecord
  2
B-83
  0
BLOCK_RECORD
  5
9FE
100
AcDbSymbolTableRecord
100
AcDbBlockTableRecord
  2
B-84
  0
BLOCK_RECORD
  5
9FF
100
AcDbSymbolTableRecord
100
AcDbBlockTableRecord
  2
B-85
  0
BLOCK_RECORD
  5
A00
100
AcDbSymbolTableRecord
100
AcDbBlockTableRecord
  2
B-86
  0
BLOCK_RECORD
  5
A01
100
AcDbSymbolTableRecord
100
AcDbBlockTableRecord
  2
B-87
  0
BLOCK_RECORD
  5
A02
100
AcDbSymbolTableRecord
100
AcDbBlockTableRecord
  2
B-88
  0
BLOCK_RECORD
  5
A03
100
AcDbSymbolTableRecord
100
AcDbBlockTableRecord
  2
B-90
  0
BLOCK_RECORD
  5
A04
100
AcDbSymbolTableRecord
100
AcDbBlockTableRecord
  2
B-91
  0
BLOCK_RECORD
  5
A05
100
AcDbSymbolTableRecord
100
AcDbBlockTableRecord
  2
B-92
  0
BLOCK_RECORD
  5
A06
100
AcDbSymbolTableRecord
100
AcDbBlockTableRecord
  2
B-93
  0
BLOCK_RECORD
  5
A07
100
AcDbSymbolTableRecord
100
AcDbBlockTableRecord
  2
B-94
  0
BLOCK_RECORD
  5
A08
100
AcDbSymbolTableRecord
100
AcDbBlockTableRecord
  2
B-95
  0
BLOCK_RECORD
  5
A09
100
AcDbSymbolTableRecord
100
AcDbBlockTableRecord
  2
B-96
  0
BLOCK_RECORD
  5
A0A
100
AcDbSymbolTableRecord
100
AcDbBlockTableRecord
  2
B-97
  0
BLOCK_RECORD
  5
A0B
100
AcDbSymbolTableRecord
100
AcDbBlockTableRecord
  2
B-98
  0
BLOCK_RECORD
  5
A0C
100
AcDbSymbolTableRecord
100
AcDbBlockTableRecord
  2
B-99
  0
BLOCK_RECORD
  5
A0D
100
AcDbSymbolTableRecord
100
AcDbBlockTableRecord
  2
B-100
  0
BLOCK_RECORD
  5
A0E
100
AcDbSymbolTableRecord
100
AcDbBlockTableRecord
  2
B-101
  0
BLOCK_RECORD
  5
A0F
100
AcDbSymbolTableRecord
100
AcDbBlockTableRecord
  2
B-102
  0
BLOCK_RECORD
  5
A10
100
AcDbSymbolTableRecord
100
AcDbBlockTableRecord
  2
B-103
  0
BLOCK_RECORD
  5
A11
100
AcDbSymbolTableRecord
100
AcDbBlockTableRecord
  2
B-104
  0
BLOCK_RECORD
  5
A12
100
AcDbSymbolTableRecord
100
AcDbBlockTableRecord
  2
B-105
  0
BLOCK_RECORD
  5
A13
100
AcDbSymbolTableRecord
100
AcDbBlockTableRecord
  2
B-106
  0
BLOCK_RECORD
  5
A14
100
AcDbSymbolTableRecord
100
AcDbBlockTableRecord
  2
B-107
  0
BLOCK_RECORD
  5
A15
100
AcDbSymbolTableRecord
100
AcDbBlockTableRecord
  2
B-108
  0
BLOCK_RECORD
  5
A16
100
AcDbSymbolTableRecord
100
AcDbBlockTableRecord
  2
B-109
  0
BLOCK_RECORD
  5
A17
100
AcDbSymbolTableRecord
100
AcDbBlockTableRecord
  2
B-110
  0
BLOCK_RECORD
  5
A18
100
AcDbSymbolTableRecord
100
AcDbBlockTableRecord
  2
B-111
  0
BLOCK_RECORD
  5
A19
100
AcDbSymbolTableRecord
100
AcDbBlockTableRecord
  2
B-112
  0
BLOCK_RECORD
  5
A1A
100
AcDbSymbolTableRecord
100
AcDbBlockTableRecord
  2
B-113
  0
BLOCK_RECORD
  5
A1B
100
AcDbSymbolTableRecord
100
AcDbBlockTableRecord
  2
B-114
  0
BLOCK_RECORD
  5
A1C
100
AcDbSymbolTableRecord
100
AcDbBlockTableRecord
  2
B-115
  0
BLOCK_RECORD
  5
A1D
100
AcDbSymbolTableRecord
100
AcDbBlockTableRecord
  2
B-116
  0
BLOCK_RECORD
  5
A1E
100
AcDbSymbolTableRecord
100
AcDbBlockTableRecord
  2
B-117
  0
BLOCK_RECORD
  5
A1F
100
AcDbSymbolTableRecord
100
AcDbBlockTableRecord
  2
B-118
  0
BLOCK_RECORD
  5
A20
100
AcDbSymbolTableRecord
100
AcDbBlockTableRecord
  2
B-119
  0
BLOCK_RECORD
  5
A21
100
AcDbSymbolTableRecord
100
AcDbBlockTableRecord
  2
B-120
  0
BLOCK_RECORD
  5
A22
100
AcDbSymbolTableRecord
100
AcDbBlockTableRecord
  2
B-121
  0
ENDTAB
  0
ENDSEC
  0
SECTION
  2
BLOCKS
  0
BLOCK
  5
204
100
AcDbEntity
  8
0
100
AcDbBlockBegin
  2
*Model_Space
 70
     0
 10
0.000000
 20
0.000000
 30
0.000000
  3
*Model_Space
  1

  0
ENDBLK
  5
205
100
AcDbEntity
  8
0
100
AcDbBlockEnd
  0
BLOCK
  5
206
100
AcDbEntity
 67
     1
  8
0
100
AcDbBlockBegin
  2
*Paper_Space
 70
     0
 10
0.000000
 20
0.000000
 30
0.000000
  3
*Paper_Space
  1

  0
ENDBLK
  5
207
100
AcDbEntity
 67
     1
  8
0
100
AcDbBlockEnd
  0
BLOCK
  5
208
100
AcDbEntity
 67
     1
  8
0
100
AcDbBlockBegin
  2
*Paper_Space0
 70
     0
 10
0.000000
 20
0.000000
 30
0.000000
  3
*Paper_Space0
  1

  0
ENDBLK
  5
209
100
AcDbEntity
 67
     1
  8
0
100
AcDbBlockEnd
  0
BLOCK
  5
20A
100
AcDbEntity
  8
SCHRAFF
100
AcDbBlockBegin
  2
B
 70
    66
 10
0.000000
 20
0.000000
 30
0.000000
  0
HATCH
  5
20B
100
AcDbEntity
  8
SCHRAFF
 62
   161
440
     0
100
AcDbHatch
 10
0.000000
 20
0.000000
 30
0.000000
210
0.000000
220
0.000000
230
1.000000
  2
SOLID
 70
     1
 71
     1
 91
     1
 92
    18
 72
     1
 73
     0
 93
     5
 10
184.500023
 20
261.250078
 42
0.000000
 10
192.500023
 20
261.250078
 42
0.000000
 10
192.500023
 20
296.250078
 42
0.000000
 10
184.500023
 20
296.250078
 42
0.000000
 10
184.500023
 20
261.250078
 42
0.000000
 97
     0
 75
     0
 76
     1
 98
     0
  0
ENDBLK
  5
20C
100
AcDbEntity
  8
0
100
AcDbBlockEnd
  0
BLOCK
  5
20D
100
AcDbEntity
  8
SCHRAFF
100
AcDbBlockBegin
  2
B-2
 70
    66
 10
0.000000
 20
0.000000
 30
0.000000
  0
HATCH
  5
20E
100
AcDbEntity
  8
SCHRAFF
 62
     8
440
     0
100
AcDbHatch
 10
0.000000
 20
0.000000
 30
0.000000
210
0.000000
220
0.000000
230
1.000000
  2
SOLID
 70
     1
 71
     1
 91
     1
 92
    18
 72
     1
 73
     0
 93
     5
 10
-55.500018
 20
-154.999981
 42
0.000000
 10
-55.500018
 20
-164.999981
 42
0.000000
 10
-47.500018
 20
-164.999981
 42
-0.400000
 10
-47.500018
 20
-154.999981
 42
0.000000
 10
-55.500018
 20
-154.999981
 42
0.000000
 97
     0
 75
     0
 76
     1
 98
     0
  0
HATCH
  5
20F
100
AcDbEntity
  8
SCHRAFF
 62
     8
440
     0
100
AcDbHatch
 10
0.000000
 20
0.000000
 30
0.000000
210
0.000000
220
0.000000
230
1.000000
  2
SOLID
 70
     1
 71
     1
 91
     1
 92
    18
 72
     1
 73
     0
 93
     5
 10
-47.500018
 20
265.000019
 42
0.000000
 10
-55.500018
 20
265.000019
 42
0.000000
 10
-55.500018
 20
255.000019
 42
0.000000
 10
-47.500018
 20
255.000019
 42
-0.400000
 10
-47.500018
 20
265.000019
 42
0.000000
 97
     0
 75
     0
 76
     1
 98
     0
  0
ENDBLK
  5
210
100
AcDbEntity
  8
0
100
AcDbBlockEnd
  0
BLOCK
  5
211
100
AcDbEntity
  8
SCHRAFF
100
AcDbBlockBegin
  2
B-3
 70
    66
 10
0.000000
 20
0.000000
 30
0.000000
  0
HATCH
  5
212
100
AcDbEntity
  8
SCHRAFF
 62
     8
440
     0
100
AcDbHatch
 10
0.000000
 20
0.000000
 30
0.000000
210
0.000000
220
0.000000
230
1.000000
  2
SOLID
 70
     1
 71
     1
 91
     1
 92
    18
 72
     1
 73
     0
 93
    11
 10
-55.500018
 20
45.000069
 42
0.000000
 10
-47.500018
 20
45.000069
 42
-0.400000
 10
-47.500018
 20
55.000069
 42
0.000000
 10
-55.500018
 20
55.000069
 42
0.000000
 10
-57.500018
 20
55.000071
 42
0.000000
 10
-59.500018
 20
55.000071
 42
0.000000
 10
-60.500018
 20
55.000071
 42
-1.000000
 10
-60.500018
 20
45.000071
 42
0.000000
 10
-59.500018
 20
45.000071
 42
0.000000
 10
-57.500018
 20
45.000071
 42
0.000000
 10
-55.500018
 20
45.000069
 42
0.000000
 97
     0
 75
     0
 76
     1
 98
     0
  0
ENDBLK
  5
213
100
AcDbEntity
  8
0
100
AcDbBlockEnd
  0
BLOCK
  5
214
100
AcDbEntity
  8
SCHRAFF
100
AcDbBlockBegin
  2
B-4
 70
    66
 10
0.000000
 20
0.000000
 30
0.000000
  0
IMAGE
  5
215
100
AcDbEntity
  8
SCHRAFF
100
AcDbRasterImage
 10
140.969928
 20
-349.249941
 30
0.000000
 11
0.204938
 21
-0.000000
 31
0.000000
 12
-0.000000
 22
0.204938
 32
-0.000000
 13
395.000000
 23
405.000000
340
216
 70
     7
280
     0
281
    50
282
    50
283
     0
360
217
 71
     1
 91
     2
 14
-0.500000
 24
-0.500000
 14
394.500000
 24
404.500000
  0
ENDBLK
  5
218
100
AcDbEntity
  8
0
100
AcDbBlockEnd
  0
BLOCK
  5
219
100
AcDbEntity
  8
SCHRAFF
100
AcDbBlockBegin
  2
B-5
 70
    66
 10
0.000000
 20
0.000000
 30
0.000000
  0
HATCH
  5
21A
100
AcDbEntity
  8
SCHRAFF
 62
    61
440
     0
100
AcDbHatch
 10
0.000000
 20
0.000000
 30
0.000000
210
0.000000
220
0.000000
230
1.000000
  2
SOLID
 70
     1
 71
     1
 91
     1
 92
    18
 72
     1
 73
     0
 93
     5
 10
-67.500018
 20
55.000069
 42
0.000000
 10
-152.500018
 20
55.000069
 42
0.000000
 10
-152.500018
 20
45.000069
 42
0.000000
 10
-67.500018
 20
45.000069
 42
0.000000
 10
-67.500018
 20
55.000069
 42
0.000000
 97
     0
 75
     0
 76
     1
 98
     0
  0
ENDBLK
  5
21B
100
AcDbEntity
  8
0
100
AcDbBlockEnd
  0
BLOCK
  5
21C
100
AcDbEntity
  8
SCHRAFF
100
AcDbBlockBegin
  2
B-6
 70
    66
 10
0.000000
 20
0.000000
 30
0.000000
  0
LWPOLYLINE
  5
21D
100
AcDbEntity
  8
SCHRAFF
  6
CONTINUOUS
 62
     9
100
AcDbPolyline
 90
    15
 10
-67.500018
 20
45.000069
 42
-0.199186
 10
-69.081705
 20
45.653847
 42
-0.198639
 10
-69.736861
 20
47.232213
 42
-0.101227
 10
-69.556529
 20
48.110267
 42
0.000000
 10
-67.734188
 20
51.773640
 42
0.115719
 10
-67.500018
 20
52.767925
 42
0.198639
 10
-68.155175
 20
54.346290
 42
0.199186
 10
-69.736862
 20
55.000069
 42
0.199186
 10
-71.318547
 20
54.346288
 42
0.198639
 10
-71.973702
 20
52.767925
 42
0.115719
 10
-71.739532
 20
51.773640
 42
0.000000
 10
-69.971030
 20
48.226494
 42
-0.115719
 10
-69.736862
 20
47.232213
 42
-0.198639
 10
-70.392018
 20
45.653849
 42
-0.199185
 10
-71.973702
 20
45.000070
 42
0.000000
  0
LWPOLYLINE
  5
22D
100
AcDbEntity
  8
SCHRAFF
  6
CONTINUOUS
 62
     9
100
AcDbPolyline
 90
    15
 10
-71.973702
 20
45.000069
 42
-0.199186
 10
-73.555389
 20
45.653847
 42
-0.198639
 10
-74.210545
 20
47.232213
 42
-0.101227
 10
-74.030213
 20
48.110267
 42
0.000000
 10
-72.207872
 20
51.773640
 42
0.115719
 10
-71.973702
 20
52.767925
 42
0.198639
 10
-72.628859
 20
54.346290
 42
0.199186
 10
-74.210546
 20
55.000069
 42
0.199186
 10
-75.792231
 20
54.346288
 42
0.198639
 10
-76.447386
 20
52.767925
 42
0.115719
 10
-76.213216
 20
51.773640
 42
0.000000
 10
-74.444715
 20
48.226494
 42
-0.115719
 10
-74.210546
 20
47.232213
 42
-0.198639
 10
-74.865702
 20
45.653849
 42
-0.199185
 10
-76.447386
 20
45.000070
 42
0.000000
  0
LWPOLYLINE
  5
23D
100
AcDbEntity
  8
SCHRAFF
  6
CONTINUOUS
 62
     9
100
AcDbPolyline
 90
    15
 10
-76.447387
 20
45.000069
 42
-0.199186
 10
-78.029073
 20
45.653847
 42
-0.198639
 10
-78.684230
 20
47.232213
 42
-0.101227
 10
-78.503897
 20
48.110267
 42
0.000000
 10
-76.681556
 20
51.773640
 42
0.115719
 10
-76.447386
 20
52.767925
 42
0.198639
 10
-77.102543
 20
54.346290
 42
0.199186
 10
-78.684230
 20
55.000069
 42
0.199186
 10
-80.265916
 20
54.346288
 42
0.198639
 10
-80.921070
 20
52.767925
 42
0.115719
 10
-80.686900
 20
51.773640
 42
0.000000
 10
-78.918399
 20
48.226494
 42
-0.115719
 10
-78.684230
 20
47.232213
 42
-0.198639
 10
-79.339386
 20
45.653849
 42
-0.199185
 10
-80.921071
 20
45.000070
 42
0.000000
  0
LWPOLYLINE
  5
24D
100
AcDbEntity
  8
SCHRAFF
  6
CONTINUOUS
 62
     9
100
AcDbPolyline
 90
    15
 10
-80.921071
 20
45.000069
 42
-0.199186
 10
-82.502757
 20
45.653847
 42
-0.198639
 10
-83.157914
 20
47.232213
 42
-0.101227
 10
-82.977581
 20
48.110267
 42
0.000000
 10
-81.155241
 20
51.773640
 42
0.115719
 10
-80.921071
 20
52.767925
 42
0.198639
 10
-81.576228
 20
54.346290
 42
0.199186
 10
-83.157915
 20
55.000069
 42
0.199186
 10
-84.739600
 20
54.346288
 42
0.198639
 10
-85.394754
 20
52.767925
 42
0.115719
 10
-85.160584
 20
51.773640
 42
0.000000
 10
-83.392083
 20
48.226494
 42
-0.115719
 10
-83.157915
 20
47.232213
 42
-0.198639
 10
-83.813070
 20
45.653849
 42
-0.199185
 10
-85.394755
 20
45.000070
 42
0.000000
  0
LWPOLYLINE
  5
25D
100
AcDbEntity
  8
SCHRAFF
  6
CONTINUOUS
 62
     9
100
AcDbPolyline
 90
    15
 10
-85.394755
 20
45.000069
 42
-0.199186
 10
-86.976442
 20
45.653847
 42
-0.198639
 10
-87.631598
 20
47.232213
 42
-0.101227
 10
-87.451266
 20
48.110267
 42
0.000000
 10
-85.628925
 20
51.773640
 42
0.115719
 10
-85.394755
 20
52.767925
 42
0.198639
 10
-86.049912
 20
54.346290
 42
0.199186
 10
-87.631599
 20
55.000069
 42
0.199186
 10
-89.213284
 20
54.346288
 42
0.198639
 10
-89.868439
 20
52.767925
 42
0.115719
 10
-89.634269
 20
51.773640
 42
0.000000
 10
-87.865767
 20
48.226494
 42
-0.115719
 10
-87.631599
 20
47.232213
 42
-0.198639
 10
-88.286755
 20
45.653849
 42
-0.199185
 10
-89.868439
 20
45.000070
 42
0.000000
  0
LWPOLYLINE
  5
26D
100
AcDbEntity
  8
SCHRAFF
  6
CONTINUOUS
 62
     9
100
AcDbPolyline
 90
    15
 10
-89.868439
 20
45.000069
 42
-0.199186
 10
-91.450126
 20
45.653847
 42
-0.198639
 10
-92.105282
 20
47.232213
 42
-0.101227
 10
-91.924950
 20
48.110267
 42
0.000000
 10
-90.102609
 20
51.773640
 42
0.115719
 10
-89.868439
 20
52.767925
 42
0.198639
 10
-90.523596
 20
54.346290
 42
0.199186
 10
-92.105283
 20
55.000069
 42
0.199186
 10
-93.686968
 20
54.346288
 42
0.198639
 10
-94.342123
 20
52.767925
 42
0.115719
 10
-94.107953
 20
51.773640
 42
0.000000
 10
-92.339452
 20
48.226494
 42
-0.115719
 10
-92.105283
 20
47.232213
 42
-0.198639
 10
-92.760439
 20
45.653849
 42
-0.199185
 10
-94.342123
 20
45.000070
 42
0.000000
  0
LWPOLYLINE
  5
27D
100
AcDbEntity
  8
SCHRAFF
  6
CONTINUOUS
 62
     9
100
AcDbPolyline
 90
    15
 10
-94.342123
 20
45.000069
 42
-0.199186
 10
-95.923810
 20
45.653847
 42
-0.198639
 10
-96.578967
 20
47.232213
 42
-0.101227
 10
-96.398634
 20
48.110267
 42
0.000000
 10
-94.576293
 20
51.773640
 42
0.115719
 10
-94.342123
 20
52.767925
 42
0.198639
 10
-94.997280
 20
54.346290
 42
0.199186
 10
-96.578967
 20
55.000069
 42
0.199186
 10
-98.160652
 20
54.346288
 42
0.198639
 10
-98.815807
 20
52.767925
 42
0.115719
 10
-98.581637
 20
51.773640
 42
0.000000
 10
-96.813136
 20
48.226494
 42
-0.115719
 10
-96.578967
 20
47.232213
 42
-0.198639
 10
-97.234123
 20
45.653849
 42
-0.199185
 10
-98.815807
 20
45.000070
 42
0.000000
  0
LWPOLYLINE
  5
28D
100
AcDbEntity
  8
SCHRAFF
  6
CONTINUOUS
 62
     9
100
AcDbPolyline
 90
    15
 10
-98.815808
 20
45.000069
 42
-0.199186
 10
-100.397494
 20
45.653847
 42
-0.198639
 10
-101.052651
 20
47.232213
 42
-0.101227
 10
-100.872318
 20
48.110267
 42
0.000000
 10
-99.049978
 20
51.773640
 42
0.115719
 10
-98.815807
 20
52.767925
 42
0.198639
 10
-99.470964
 20
54.346290
 42
0.199186
 10
-101.052652
 20
55.000069
 42
0.199186
 10
-102.634337
 20
54.346288
 42
0.198639
 10
-103.289491
 20
52.767925
 42
0.115719
 10
-103.055321
 20
51.773640
 42
0.000000
 10
-101.286820
 20
48.226494
 42
-0.115719
 10
-101.052652
 20
47.232213
 42
-0.198639
 10
-101.707807
 20
45.653849
 42
-0.199185
 10
-103.289492
 20
45.000070
 42
0.000000
  0
LWPOLYLINE
  5
29D
100
AcDbEntity
  8
SCHRAFF
  6
CONTINUOUS
 62
     9
100
AcDbPolyline
 90
    15
 10
-103.289492
 20
45.000069
 42
-0.199186
 10
-104.871178
 20
45.653847
 42
-0.198639
 10
-105.526335
 20
47.232213
 42
-0.101227
 10
-105.346002
 20
48.110267
 42
0.000000
 10
-103.523662
 20
51.773640
 42
0.115719
 10
-103.289492
 20
52.767925
 42
0.198639
 10
-103.944649
 20
54.346290
 42
0.199186
 10
-105.526336
 20
55.000069
 42
0.199186
 10
-107.108021
 20
54.346288
 42
0.198639
 10
-107.763176
 20
52.767925
 42
0.115719
 10
-107.529005
 20
51.773640
 42
0.000000
 10
-105.760504
 20
48.226494
 42
-0.115719
 10
-105.526336
 20
47.232213
 42
-0.198639
 10
-106.181492
 20
45.653849
 42
-0.199185
 10
-107.763176
 20
45.000070
 42
0.000000
  0
LWPOLYLINE
  5
2AD
100
AcDbEntity
  8
SCHRAFF
  6
CONTINUOUS
 62
     9
100
AcDbPolyline
 90
    15
 10
-107.763176
 20
45.000069
 42
-0.199186
 10
-109.344863
 20
45.653847
 42
-0.198639
 10
-110.000019
 20
47.232213
 42
-0.101227
 10
-109.819687
 20
48.110267
 42
0.000000
 10
-107.997346
 20
51.773640
 42
0.115719
 10
-107.763176
 20
52.767925
 42
0.198639
 10
-108.418333
 20
54.346290
 42
0.199186
 10
-110.000020
 20
55.000069
 42
0.199186
 10
-111.581705
 20
54.346288
 42
0.198639
 10
-112.236860
 20
52.767925
 42
0.115719
 10
-112.002690
 20
51.773640
 42
0.000000
 10
-110.234188
 20
48.226494
 42
-0.115719
 10
-110.000020
 20
47.232213
 42
-0.198639
 10
-110.655176
 20
45.653849
 42
-0.199185
 10
-112.236860
 20
45.000070
 42
0.000000
  0
LWPOLYLINE
  5
2BD
100
AcDbEntity
  8
SCHRAFF
  6
CONTINUOUS
 62
     9
100
AcDbPolyline
 90
    15
 10
-112.236860
 20
45.000069
 42
-0.199186
 10
-113.818547
 20
45.653847
 42
-0.198639
 10
-114.473703
 20
47.232213
 42
-0.101227
 10
-114.293371
 20
48.110267
 42
0.000000
 10
-112.471030
 20
51.773640
 42
0.115719
 10
-112.236860
 20
52.767925
 42
0.198639
 10
-112.892017
 20
54.346290
 42
0.199186
 10
-114.473704
 20
55.000069
 42
0.199186
 10
-116.055389
 20
54.346288
 42
0.198639
 10
-116.710544
 20
52.767925
 42
0.115719
 10
-116.476374
 20
51.773640
 42
0.000000
 10
-114.707873
 20
48.226494
 42
-0.115719
 10
-114.473704
 20
47.232213
 42
-0.198639
 10
-115.128860
 20
45.653849
 42
-0.199185
 10
-116.710544
 20
45.000070
 42
0.000000
  0
LWPOLYLINE
  5
2CD
100
AcDbEntity
  8
SCHRAFF
  6
CONTINUOUS
 62
     9
100
AcDbPolyline
 90
    15
 10
-116.710544
 20
45.000069
 42
-0.199186
 10
-118.292231
 20
45.653847
 42
-0.198639
 10
-118.947388
 20
47.232213
 42
-0.101227
 10
-118.767055
 20
48.110267
 42
0.000000
 10
-116.944714
 20
51.773640
 42
0.115719
 10
-116.710544
 20
52.767925
 42
0.198639
 10
-117.365701
 20
54.346290
 42
0.199186
 10
-118.947388
 20
55.000069
 42
0.199186
 10
-120.529073
 20
54.346288
 42
0.198639
 10
-121.184228
 20
52.767925
 42
0.115719
 10
-120.950058
 20
51.773640
 42
0.000000
 10
-119.181557
 20
48.226494
 42
-0.115719
 10
-118.947388
 20
47.232213
 42
-0.198639
 10
-119.602544
 20
45.653849
 42
-0.199185
 10
-121.184229
 20
45.000070
 42
0.000000
  0
LWPOLYLINE
  5
2DD
100
AcDbEntity
  8
SCHRAFF
  6
CONTINUOUS
 62
     9
100
AcDbPolyline
 90
    15
 10
-121.184229
 20
45.000069
 42
-0.199186
 10
-122.765915
 20
45.653847
 42
-0.198639
 10
-123.421072
 20
47.232213
 42
-0.101227
 10
-123.240739
 20
48.110267
 42
0.000000
 10
-121.418399
 20
51.773640
 42
0.115719
 10
-121.184229
 20
52.767925
 42
0.198639
 10
-121.839385
 20
54.346290
 42
0.199186
 10
-123.421073
 20
55.000069
 42
0.199186
 10
-125.002758
 20
54.346288
 42
0.198639
 10
-125.657912
 20
52.767925
 42
0.115719
 10
-125.423742
 20
51.773640
 42
0.000000
 10
-123.655241
 20
48.226494
 42
-0.115719
 10
-123.421073
 20
47.232213
 42
-0.198639
 10
-124.076228
 20
45.653849
 42
-0.199185
 10
-125.657913
 20
45.000070
 42
0.000000
  0
LWPOLYLINE
  5
2ED
100
AcDbEntity
  8
SCHRAFF
  6
CONTINUOUS
 62
     9
100
AcDbPolyline
 90
    15
 10
-125.657913
 20
45.000069
 42
-0.199186
 10
-127.239599
 20
45.653847
 42
-0.198639
 10
-127.894756
 20
47.232213
 42
-0.101227
 10
-127.714423
 20
48.110267
 42
0.000000
 10
-125.892083
 20
51.773640
 42
0.115719
 10
-125.657913
 20
52.767925
 42
0.198639
 10
-126.313070
 20
54.346290
 42
0.199186
 10
-127.894757
 20
55.000069
 42
0.199186
 10
-129.476442
 20
54.346288
 42
0.198639
 10
-130.131597
 20
52.767925
 42
0.115719
 10
-129.897426
 20
51.773640
 42
0.000000
 10
-128.128925
 20
48.226494
 42
-0.115719
 10
-127.894757
 20
47.232213
 42
-0.198639
 10
-128.549913
 20
45.653849
 42
-0.199185
 10
-130.131597
 20
45.000070
 42
0.000000
  0
LWPOLYLINE
  5
2FD
100
AcDbEntity
  8
SCHRAFF
  6
CONTINUOUS
 62
     9
100
AcDbPolyline
 90
    15
 10
-130.131597
 20
45.000069
 42
-0.199186
 10
-131.713284
 20
45.653847
 42
-0.198639
 10
-132.368440
 20
47.232213
 42
-0.101227
 10
-132.188108
 20
48.110267
 42
0.000000
 10
-130.365767
 20
51.773640
 42
0.115719
 10
-130.131597
 20
52.767925
 42
0.198639
 10
-130.786754
 20
54.346290
 42
0.199186
 10
-132.368441
 20
55.000069
 42
0.199186
 10
-133.950126
 20
54.346288
 42
0.198639
 10
-134.605281
 20
52.767925
 42
0.115719
 10
-134.371111
 20
51.773640
 42
0.000000
 10
-132.602609
 20
48.226494
 42
-0.115719
 10
-132.368441
 20
47.232213
 42
-0.198639
 10
-133.023597
 20
45.653849
 42
-0.199185
 10
-134.605281
 20
45.000070
 42
0.000000
  0
LWPOLYLINE
  5
30D
100
AcDbEntity
  8
SCHRAFF
  6
CONTINUOUS
 62
     9
100
AcDbPolyline
 90
    15
 10
-134.605281
 20
45.000069
 42
-0.199186
 10
-136.186968
 20
45.653847
 42
-0.198639
 10
-136.842124
 20
47.232213
 42
-0.101227
 10
-136.661792
 20
48.110267
 42
0.000000
 10
-134.839451
 20
51.773640
 42
0.115719
 10
-134.605281
 20
52.767925
 42
0.198639
 10
-135.260438
 20
54.346290
 42
0.199186
 10
-136.842125
 20
55.000069
 42
0.199186
 10
-138.423810
 20
54.346288
 42
0.198639
 10
-139.078965
 20
52.767925
 42
0.115719
 10
-138.844795
 20
51.773640
 42
0.000000
 10
-137.076294
 20
48.226494
 42
-0.115719
 10
-136.842125
 20
47.232213
 42
-0.198639
 10
-137.497281
 20
45.653849
 42
-0.199185
 10
-139.078965
 20
45.000070
 42
0.000000
  0
LWPOLYLINE
  5
31D
100
AcDbEntity
  8
SCHRAFF
  6
CONTINUOUS
 62
     9
100
AcDbPolyline
 90
    15
 10
-139.078965
 20
45.000069
 42
-0.199186
 10
-140.660652
 20
45.653847
 42
-0.198639
 10
-141.315809
 20
47.232213
 42
-0.101227
 10
-141.135476
 20
48.110267
 42
0.000000
 10
-139.313135
 20
51.773640
 42
0.115719
 10
-139.078965
 20
52.767925
 42
0.198639
 10
-139.734122
 20
54.346290
 42
0.199186
 10
-141.315809
 20
55.000069
 42
0.199186
 10
-142.897494
 20
54.346288
 42
0.198639
 10
-143.552649
 20
52.767925
 42
0.115719
 10
-143.318479
 20
51.773640
 42
0.000000
 10
-141.549978
 20
48.226494
 42
-0.115719
 10
-141.315809
 20
47.232213
 42
-0.198639
 10
-141.970965
 20
45.653849
 42
-0.199185
 10
-143.552650
 20
45.000070
 42
0.000000
  0
LWPOLYLINE
  5
32D
100
AcDbEntity
  8
SCHRAFF
  6
CONTINUOUS
 62
     9
100
AcDbPolyline
 90
    15
 10
-143.552650
 20
45.000069
 42
-0.199186
 10
-145.134336
 20
45.653847
 42
-0.198639
 10
-145.789493
 20
47.232213
 42
-0.101227
 10
-145.609160
 20
48.110267
 42
0.000000
 10
-143.786820
 20
51.773640
 42
0.115719
 10
-143.552650
 20
52.767925
 42
0.198639
 10
-144.207806
 20
54.346290
 42
0.199186
 10
-145.789494
 20
55.000069
 42
0.199186
 10
-147.371179
 20
54.346288
 42
0.198639
 10
-148.026333
 20
52.767925
 42
0.115719
 10
-147.792163
 20
51.773640
 42
0.000000
 10
-146.023662
 20
48.226494
 42
-0.115719
 10
-145.789494
 20
47.232213
 42
-0.198639
 10
-146.444649
 20
45.653849
 42
-0.199185
 10
-148.026334
 20
45.000070
 42
0.000000
  0
LWPOLYLINE
  5
33D
100
AcDbEntity
  8
SCHRAFF
  6
CONTINUOUS
 62
     9
100
AcDbPolyline
 90
    15
 10
-148.026334
 20
45.000069
 42
-0.199186
 10
-149.608020
 20
45.653847
 42
-0.198639
 10
-150.263177
 20
47.232213
 42
-0.101227
 10
-150.082844
 20
48.110267
 42
0.000000
 10
-148.260504
 20
51.773640
 42
0.115719
 10
-148.026334
 20
52.767925
 42
0.198639
 10
-148.681491
 20
54.346290
 42
0.199186
 10
-150.263178
 20
55.000069
 42
0.199186
 10
-151.844863
 20
54.346288
 42
0.198639
 10
-152.500018
 20
52.767925
 42
0.115719
 10
-152.265848
 20
51.773640
 42
0.000000
 10
-150.497346
 20
48.226494
 42
-0.115719
 10
-150.263178
 20
47.232213
 42
-0.198639
 10
-150.918334
 20
45.653849
 42
-0.199185
 10
-152.500018
 20
45.000070
 42
0.000000
  0
ENDBLK
  5
34D
100
AcDbEntity
  8
0
100
AcDbBlockEnd
  0
BLOCK
  5
34E
100
AcDbEntity
  8
SCHRAFF
100
AcDbBlockBegin
  2
B-7
 70
    66
 10
0.000000
 20
0.000000
 30
0.000000
  0
LWPOLYLINE
  5
34F
100
AcDbEntity
  8
SCHRAFF
  6
CONTINUOUS
 62
     9
100
AcDbPolyline
 90
    15
 10
-152.500018
 20
45.000069
 42
-0.203241
 10
-154.131803
 20
45.653847
 42
-0.194592
 10
-154.807711
 20
47.232213
 42
-0.098414
 10
-154.621667
 20
48.110267
 42
0.000000
 10
-152.741605
 20
51.773640
 42
0.112603
 10
-152.500018
 20
52.767925
 42
0.194592
 10
-153.175926
 20
54.346290
 42
0.203241
 10
-154.807712
 20
55.000069
 42
0.203240
 10
-156.439496
 20
54.346288
 42
0.194591
 10
-157.115402
 20
52.767925
 42
0.112603
 10
-156.873815
 20
51.773640
 42
0.000000
 10
-155.049298
 20
48.226494
 42
-0.112603
 10
-154.807712
 20
47.232213
 42
-0.194591
 10
-155.483620
 20
45.653849
 42
-0.203240
 10
-157.115403
 20
45.000070
 42
0.000000
  0
LWPOLYLINE
  5
35F
100
AcDbEntity
  8
SCHRAFF
  6
CONTINUOUS
 62
     9
100
AcDbPolyline
 90
    15
 10
-157.115403
 20
45.000069
 42
-0.203241
 10
-158.747188
 20
45.653847
 42
-0.194592
 10
-159.423096
 20
47.232213
 42
-0.098414
 10
-159.237052
 20
48.110267
 42
0.000000
 10
-157.356990
 20
51.773640
 42
0.112603
 10
-157.115403
 20
52.767925
 42
0.194592
 10
-157.791311
 20
54.346290
 42
0.203241
 10
-159.423097
 20
55.000069
 42
0.203240
 10
-161.054881
 20
54.346288
 42
0.194591
 10
-161.730787
 20
52.767925
 42
0.112603
 10
-161.489200
 20
51.773640
 42
0.000000
 10
-159.664682
 20
48.226494
 42
-0.112603
 10
-159.423097
 20
47.232213
 42
-0.194591
 10
-160.099004
 20
45.653849
 42
-0.203240
 10
-161.730787
 20
45.000070
 42
0.000000
  0
LWPOLYLINE
  5
36F
100
AcDbEntity
  8
SCHRAFF
  6
CONTINUOUS
 62
     9
100
AcDbPolyline
 90
    15
 10
-161.730787
 20
45.000069
 42
-0.203241
 10
-163.362573
 20
45.653847
 42
-0.194592
 10
-164.038481
 20
47.232213
 42
-0.098414
 10
-163.852436
 20
48.110267
 42
0.000000
 10
-161.972374
 20
51.773640
 42
0.112603
 10
-161.730787
 20
52.767925
 42
0.194592
 10
-162.406696
 20
54.346290
 42
0.203241
 10
-164.038482
 20
55.000069
 42
0.203240
 10
-165.670265
 20
54.346288
 42
0.194591
 10
-166.346171
 20
52.767925
 42
0.112603
 10
-166.104584
 20
51.773640
 42
0.000000
 10
-164.280067
 20
48.226494
 42
-0.112603
 10
-164.038482
 20
47.232213
 42
-0.194591
 10
-164.714389
 20
45.653849
 42
-0.203240
 10
-166.346172
 20
45.000070
 42
0.000000
  0
LWPOLYLINE
  5
37F
100
AcDbEntity
  8
SCHRAFF
  6
CONTINUOUS
 62
     9
100
AcDbPolyline
 90
    15
 10
-166.346172
 20
45.000069
 42
-0.203241
 10
-167.977957
 20
45.653847
 42
-0.194592
 10
-168.653865
 20
47.232213
 42
-0.098414
 10
-168.467821
 20
48.110267
 42
0.000000
 10
-166.587759
 20
51.773640
 42
0.112603
 10
-166.346172
 20
52.767925
 42
0.194592
 10
-167.022080
 20
54.346290
 42
0.203241
 10
-168.653866
 20
55.000069
 42
0.203240
 10
-170.285650
 20
54.346288
 42
0.194591
 10
-170.961556
 20
52.767925
 42
0.112603
 10
-170.719969
 20
51.773640
 42
0.000000
 10
-168.895452
 20
48.226494
 42
-0.112603
 10
-168.653866
 20
47.232213
 42
-0.194591
 10
-169.329774
 20
45.653849
 42
-0.203240
 10
-170.961556
 20
45.000070
 42
0.000000
  0
LWPOLYLINE
  5
38F
100
AcDbEntity
  8
SCHRAFF
  6
CONTINUOUS
 62
     9
100
AcDbPolyline
 90
    15
 10
-170.961557
 20
45.000069
 42
-0.203241
 10
-172.593342
 20
45.653847
 42
-0.194592
 10
-173.269250
 20
47.232213
 42
-0.098414
 10
-173.083205
 20
48.110267
 42
0.000000
 10
-171.203144
 20
51.773640
 42
0.112603
 10
-170.961556
 20
52.767925
 42
0.194592
 10
-171.637465
 20
54.346290
 42
0.203241
 10
-173.269251
 20
55.000069
 42
0.203240
 10
-174.901034
 20
54.346288
 42
0.194591
 10
-175.576941
 20
52.767925
 42
0.112603
 10
-175.335353
 20
51.773640
 42
0.000000
 10
-173.510836
 20
48.226494
 42
-0.112603
 10
-173.269251
 20
47.232213
 42
-0.194591
 10
-173.945158
 20
45.653849
 42
-0.203240
 10
-175.576941
 20
45.000070
 42
0.000000
  0
LWPOLYLINE
  5
39F
100
AcDbEntity
  8
SCHRAFF
  6
CONTINUOUS
 62
     9
100
AcDbPolyline
 90
    15
 10
-175.576941
 20
45.000069
 42
-0.203241
 10
-177.208726
 20
45.653847
 42
-0.194592
 10
-177.884635
 20
47.232213
 42
-0.098414
 10
-177.698590
 20
48.110267
 42
0.000000
 10
-175.818528
 20
51.773640
 42
0.112603
 10
-175.576941
 20
52.767925
 42
0.194592
 10
-176.252850
 20
54.346290
 42
0.203241
 10
-177.884635
 20
55.000069
 42
0.203240
 10
-179.516419
 20
54.346288
 42
0.194591
 10
-180.192325
 20
52.767925
 42
0.112603
 10
-179.950738
 20
51.773640
 42
0.000000
 10
-178.126221
 20
48.226494
 42
-0.112603
 10
-177.884635
 20
47.232213
 42
-0.194591
 10
-178.560543
 20
45.653849
 42
-0.203240
 10
-180.192326
 20
45.000070
 42
0.000000
  0
LWPOLYLINE
  5
3AF
100
AcDbEntity
  8
SCHRAFF
  6
CONTINUOUS
 62
     9
100
AcDbPolyline
 90
    15
 10
-180.192326
 20
45.000069
 42
-0.203241
 10
-181.824111
 20
45.653847
 42
-0.194592
 10
-182.500019
 20
47.232213
 42
-0.098414
 10
-182.313975
 20
48.110267
 42
0.000000
 10
-180.433913
 20
51.773640
 42
0.112603
 10
-180.192326
 20
52.767925
 42
0.194592
 10
-180.868234
 20
54.346290
 42
0.203241
 10
-182.500020
 20
55.000069
 42
0.203240
 10
-184.131804
 20
54.346288
 42
0.194591
 10
-184.807710
 20
52.767925
 42
0.112603
 10
-184.566123
 20
51.773640
 42
0.000000
 10
-182.741606
 20
48.226494
 42
-0.112603
 10
-182.500020
 20
47.232213
 42
-0.194591
 10
-183.175927
 20
45.653849
 42
-0.203240
 10
-184.807710
 20
45.000070
 42
0.000000
  0
LWPOLYLINE
  5
3BF
100
AcDbEntity
  8
SCHRAFF
  6
CONTINUOUS
 62
     9
100
AcDbPolyline
 90
    15
 10
-184.807710
 20
45.000069
 42
-0.203241
 10
-186.439496
 20
45.653847
 42
-0.194592
 10
-187.115404
 20
47.232213
 42
-0.098414
 10
-186.929359
 20
48.110267
 42
0.000000
 10
-185.049298
 20
51.773640
 42
0.112603
 10
-184.807710
 20
52.767925
 42
0.194592
 10
-185.483619
 20
54.346290
 42
0.203241
 10
-187.115405
 20
55.000069
 42
0.203240
 10
-188.747188
 20
54.346288
 42
0.194591
 10
-189.423095
 20
52.767925
 42
0.112603
 10
-189.181507
 20
51.773640
 42
0.000000
 10
-187.356990
 20
48.226494
 42
-0.112603
 10
-187.115405
 20
47.232213
 42
-0.194591
 10
-187.791312
 20
45.653849
 42
-0.203240
 10
-189.423095
 20
45.000070
 42
0.000000
  0
LWPOLYLINE
  5
3CF
100
AcDbEntity
  8
SCHRAFF
  6
CONTINUOUS
 62
     9
100
AcDbPolyline
 90
    15
 10
-189.423095
 20
45.000069
 42
-0.203241
 10
-191.054880
 20
45.653847
 42
-0.194592
 10
-191.730788
 20
47.232213
 42
-0.098414
 10
-191.544744
 20
48.110267
 42
0.000000
 10
-189.664682
 20
51.773640
 42
0.112603
 10
-189.423095
 20
52.767925
 42
0.194592
 10
-190.099003
 20
54.346290
 42
0.203241
 10
-191.730789
 20
55.000069
 42
0.203240
 10
-193.362573
 20
54.346288
 42
0.194591
 10
-194.038479
 20
52.767925
 42
0.112603
 10
-193.796892
 20
51.773640
 42
0.000000
 10
-191.972375
 20
48.226494
 42
-0.112603
 10
-191.730789
 20
47.232213
 42
-0.194591
 10
-192.406697
 20
45.653849
 42
-0.203240
 10
-194.038480
 20
45.000070
 42
0.000000
  0
LWPOLYLINE
  5
3DF
100
AcDbEntity
  8
SCHRAFF
  6
CONTINUOUS
 62
     9
100
AcDbPolyline
 90
    15
 10
-194.038480
 20
45.000069
 42
-0.203241
 10
-195.670265
 20
45.653847
 42
-0.194592
 10
-196.346173
 20
47.232213
 42
-0.098414
 10
-196.160129
 20
48.110267
 42
0.000000
 10
-194.280067
 20
51.773640
 42
0.112603
 10
-194.038480
 20
52.767925
 42
0.194592
 10
-194.714388
 20
54.346290
 42
0.203241
 10
-196.346174
 20
55.000069
 42
0.203240
 10
-197.977958
 20
54.346288
 42
0.194591
 10
-198.653864
 20
52.767925
 42
0.112603
 10
-198.412277
 20
51.773640
 42
0.000000
 10
-196.587759
 20
48.226494
 42
-0.112603
 10
-196.346174
 20
47.232213
 42
-0.194591
 10
-197.022081
 20
45.653849
 42
-0.203240
 10
-198.653864
 20
45.000070
 42
0.000000
  0
LWPOLYLINE
  5
3EF
100
AcDbEntity
  8
SCHRAFF
  6
CONTINUOUS
 62
     9
100
AcDbPolyline
 90
    15
 10
-198.653864
 20
45.000069
 42
-0.203241
 10
-200.285650
 20
45.653847
 42
-0.194592
 10
-200.961558
 20
47.232213
 42
-0.098414
 10
-200.775513
 20
48.110267
 42
0.000000
 10
-198.895451
 20
51.773640
 42
0.112603
 10
-198.653864
 20
52.767925
 42
0.194592
 10
-199.329773
 20
54.346290
 42
0.203241
 10
-200.961558
 20
55.000069
 42
0.203240
 10
-202.593342
 20
54.346288
 42
0.194591
 10
-203.269248
 20
52.767925
 42
0.112603
 10
-203.027661
 20
51.773640
 42
0.000000
 10
-201.203144
 20
48.226494
 42
-0.112603
 10
-200.961558
 20
47.232213
 42
-0.194591
 10
-201.637466
 20
45.653849
 42
-0.203240
 10
-203.269249
 20
45.000070
 42
0.000000
  0
LWPOLYLINE
  5
3FF
100
AcDbEntity
  8
SCHRAFF
  6
CONTINUOUS
 62
     9
100
AcDbPolyline
 90
    15
 10
-203.269249
 20
45.000069
 42
-0.203241
 10
-204.901034
 20
45.653847
 42
-0.194592
 10
-205.576942
 20
47.232213
 42
-0.098414
 10
-205.390898
 20
48.110267
 42
0.000000
 10
-203.510836
 20
51.773640
 42
0.112603
 10
-203.269249
 20
52.767925
 42
0.194592
 10
-203.945157
 20
54.346290
 42
0.203241
 10
-205.576943
 20
55.000069
 42
0.203240
 10
-207.208727
 20
54.346288
 42
0.194591
 10
-207.884633
 20
52.767925
 42
0.112603
 10
-207.643046
 20
51.773640
 42
0.000000
 10
-205.818529
 20
48.226494
 42
-0.112603
 10
-205.576943
 20
47.232213
 42
-0.194591
 10
-206.252850
 20
45.653849
 42
-0.203240
 10
-207.884633
 20
45.000070
 42
0.000000
  0
LWPOLYLINE
  5
40F
100
AcDbEntity
  8
SCHRAFF
  6
CONTINUOUS
 62
     9
100
AcDbPolyline
 90
    15
 10
-207.884634
 20
45.000069
 42
-0.203241
 10
-209.516419
 20
45.653847
 42
-0.194592
 10
-210.192327
 20
47.232213
 42
-0.098414
 10
-210.006282
 20
48.110267
 42
0.000000
 10
-208.126221
 20
51.773640
 42
0.112603
 10
-207.884633
 20
52.767925
 42
0.194592
 10
-208.560542
 20
54.346290
 42
0.203241
 10
-210.192328
 20
55.000069
 42
0.203240
 10
-211.824111
 20
54.346288
 42
0.194591
 10
-212.500018
 20
52.767925
 42
0.112603
 10
-212.258430
 20
51.773640
 42
0.000000
 10
-210.433913
 20
48.226494
 42
-0.112603
 10
-210.192328
 20
47.232213
 42
-0.194591
 10
-210.868235
 20
45.653849
 42
-0.203240
 10
-212.500018
 20
45.000070
 42
0.000000
  0
ENDBLK
  5
41F
100
AcDbEntity
  8
0
100
AcDbBlockEnd
  0
BLOCK
  5
420
100
AcDbEntity
  8
SCHRAFF
100
AcDbBlockBegin
  2
B-8
 70
    66
 10
0.000000
 20
0.000000
 30
0.000000
  0
HATCH
  5
421
100
AcDbEntity
  8
SCHRAFF
 62
     8
440
     0
100
AcDbHatch
 10
0.000000
 20
0.000000
 30
0.000000
210
0.000000
220
0.000000
230
1.000000
  2
SOLID
 70
     1
 71
     1
 91
     1
 92
    18
 72
     1
 73
     0
 93
     5
 10
192.500023
 20
261.250078
 42
0.000000
 10
172.500023
 20
261.250078
 42
0.000000
 10
172.500023
 20
251.250078
 42
0.000000
 10
192.500023
 20
251.250078
 42
0.000000
 10
192.500023
 20
261.250078
 42
0.000000
 97
     0
 75
     0
 76
     1
 98
     0
  0
ENDBLK
  5
422
100
AcDbEntity
  8
0
100
AcDbBlockEnd
  0
BLOCK
  5
423
100
AcDbEntity
  8
SCHRAFF
100
AcDbBlockBegin
  2
B-9
 70
    66
 10
0.000000
 20
0.000000
 30
0.000000
  0
HATCH
  5
424
100
AcDbEntity
  8
SCHRAFF
 62
   254
440
     0
100
AcDbHatch
 10
0.000000
 20
0.000000
 30
0.000000
210
0.000000
220
0.000000
230
1.000000
  2
SOLID
 70
     1
 71
     1
 91
     1
 92
    18
 72
     1
 73
     0
 93
     5
 10
172.500023
 20
251.250078
 42
0.000000
 10
152.500023
 20
251.250078
 42
0.000000
 10
152.500023
 20
249.250078
 42
0.000000
 10
172.500023
 20
249.250078
 42
0.000000
 10
172.500023
 20
251.250078
 42
0.000000
 97
     0
 75
     0
 76
     1
 98
     0
  0
HATCH
  5
425
100
AcDbEntity
  8
SCHRAFF
 62
   254
440
     0
100
AcDbHatch
 10
0.000000
 20
0.000000
 30
0.000000
210
0.000000
220
0.000000
230
1.000000
  2
SOLID
 70
     1
 71
     1
 91
     1
 92
    18
 72
     1
 73
     0
 93
     5
 10
172.500023
 20
263.250078
 42
0.000000
 10
152.500023
 20
263.250078
 42
0.000000
 10
152.500023
 20
261.250078
 42
0.000000
 10
172.500023
 20
261.250078
 42
0.000000
 10
172.500023
 20
263.250078
 42
0.000000
 97
     0
 75
     0
 76
     1
 98
     0
  0
ENDBLK
  5
426
100
AcDbEntity
  8
0
100
AcDbBlockEnd
  0
BLOCK
  5
427
100
AcDbEntity
  8
Detail
100
AcDbBlockBegin
  2
B-10
 70
    66
 10
0.000000
 20
0.000000
 30
0.000000
  0
LWPOLYLINE
  5
428
100
AcDbEntity
  8
Detail
  6
CONTINUOUS
 62
     6
100
AcDbPolyline
 90
     4
 10
152.500023
 20
251.250078
 42
0.000000
 10
172.500023
 20
251.250078
 42
0.000000
 10
172.500023
 20
249.250078
 42
0.000000
 10
152.500023
 20
249.250078
 42
0.000000
  0
LWPOLYLINE
  5
42D
100
AcDbEntity
  8
Detail
  6
CONTINUOUS
 62
     6
100
AcDbPolyline
 90
     4
 10
152.500023
 20
263.250078
 42
0.000000
 10
172.500023
 20
263.250078
 42
0.000000
 10
172.500023
 20
261.250078
 42
0.000000
 10
152.500023
 20
261.250078
 42
0.000000
  0
ENDBLK
  5
432
100
AcDbEntity
  8
0
100
AcDbBlockEnd
  0
BLOCK
  5
433
100
AcDbEntity
  8
Detail
100
AcDbBlockBegin
  2
B-11
 70
    66
 10
0.000000
 20
0.000000
 30
0.000000
  0
LWPOLYLINE
  5
434
100
AcDbEntity
  8
Detail
  6
CONTINUOUS
 62
     4
100
AcDbPolyline
 90
     5
 10
192.500023
 20
261.250078
 42
0.000000
 10
172.500023
 20
261.250078
 42
0.000000
 10
172.500023
 20
251.250078
 42
0.000000
 10
192.500023
 20
251.250078
 42
0.000000
 10
192.500023
 20
261.250078
 42
0.000000
  0
ENDBLK
  5
43A
100
AcDbEntity
  8
0
100
AcDbBlockEnd
  0
BLOCK
  5
43B
100
AcDbEntity
  8
SCHRAFF
100
AcDbBlockBegin
  2
B-12
 70
    66
 10
0.000000
 20
0.000000
 30
0.000000
  0
HATCH
  5
43C
100
AcDbEntity
  8
SCHRAFF
 62
   161
440
     0
100
AcDbHatch
 10
0.000000
 20
0.000000
 30
0.000000
210
0.000000
220
0.000000
230
1.000000
  2
SOLID
 70
     1
 71
     1
 91
     1
 92
    18
 72
     1
 73
     0
 93
     5
 10
184.500023
 20
251.250078
 42
0.000000
 10
192.500023
 20
251.250078
 42
0.000000
 10
192.500023
 20
216.250078
 42
0.000000
 10
184.500023
 20
216.250078
 42
0.000000
 10
184.500023
 20
251.250078
 42
0.000000
 97
     0
 75
     0
 76
     1
 98
     0
  0
ENDBLK
  5
43D
100
AcDbEntity
  8
0
100
AcDbBlockEnd
  0
BLOCK
  5
43E
100
AcDbEntity
  8
SCHRAFF
100
AcDbBlockBegin
  2
B-13
 70
    66
 10
0.000000
 20
0.000000
 30
0.000000
  0
HATCH
  5
43F
100
AcDbEntity
  8
SCHRAFF
 62
   254
440
     0
100
AcDbHatch
 10
0.000000
 20
0.000000
 30
0.000000
210
0.000000
220
0.000000
230
1.000000
  2
SOLID
 70
     1
 71
     1
 91
     1
 92
    18
 72
     1
 73
     0
 93
     5
 10
-152.500018
 20
57.000069
 42
0.000000
 10
-147.500018
 20
57.000069
 42
0.000000
 10
-147.500018
 20
296.250078
 42
0.000000
 10
-152.500018
 20
296.250078
 42
0.000000
 10
-152.500018
 20
57.000069
 42
0.000000
 97
     0
 75
     0
 76
     1
 98
     0
  0
HATCH
  5
440
100
AcDbEntity
  8
SCHRAFF
 62
   254
440
     0
100
AcDbHatch
 10
0.000000
 20
0.000000
 30
0.000000
210
0.000000
220
0.000000
230
1.000000
  2
SOLID
 70
     1
 71
     1
 91
     1
 92
    18
 72
     1
 73
     0
 93
     5
 10
-67.500018
 20
57.000069
 42
0.000000
 10
-152.500018
 20
57.000069
 42
0.000000
 10
-152.500018
 20
55.000069
 42
0.000000
 10
-67.500018
 20
55.000069
 42
0.000000
 10
-67.500018
 20
57.000069
 42
0.000000
 97
     0
 75
     0
 76
     1
 98
     0
  0
HATCH
  5
441
100
AcDbEntity
  8
SCHRAFF
 62
   254
440
     0
100
AcDbHatch
 10
0.000000
 20
0.000000
 30
0.000000
210
0.000000
220
0.000000
230
1.000000
  2
SOLID
 70
     1
 71
     1
 91
     1
 92
    18
 72
     1
 73
     0
 93
     5
 10
-67.500018
 20
45.000069
 42
0.000000
 10
-152.500018
 20
45.000069
 42
0.000000
 10
-152.500018
 20
43.000069
 42
0.000000
 10
-67.500018
 20
43.000069
 42
0.000000
 10
-67.500018
 20
45.000069
 42
0.000000
 97
     0
 75
     0
 76
     1
 98
     0
  0
HATCH
  5
442
100
AcDbEntity
  8
SCHRAFF
 62
   254
440
     0
100
AcDbHatch
 10
0.000000
 20
0.000000
 30
0.000000
210
0.000000
220
0.000000
230
1.000000
  2
SOLID
 70
     1
 71
     1
 91
     1
 92
    18
 72
     1
 73
     0
 93
     5
 10
-152.500018
 20
43.000069
 42
0.000000
 10
-147.500018
 20
43.000069
 42
0.000000
 10
-147.500018
 20
-196.249941
 42
0.000000
 10
-152.500018
 20
-196.249941
 42
0.000000
 10
-152.500018
 20
43.000069
 42
0.000000
 97
     0
 75
     0
 76
     1
 98
     0
  0
ENDBLK
  5
443
100
AcDbEntity
  8
0
100
AcDbBlockEnd
  0
BLOCK
  5
444
100
AcDbEntity
  8
Detail
100
AcDbBlockBegin
  2
B-14
 70
    66
 10
0.000000
 20
0.000000
 30
0.000000
  0
POLYLINE
  5
445
100
AcDbEntity
  8
Detail
 66
     1
  6
CONTINUOUS
 62
     3
100
AcDb2dPolyline
  0
VERTEX
  5
446
100
AcDbEntity
  8
Detail
100
AcDbVertex
100
AcDb2dVertex
 10
-152.500018
 20
296.250078
 42
0.000000
  0
VERTEX
  5
447
100
AcDbEntity
  8
Detail
100
AcDbVertex
100
AcDb2dVertex
 10
-152.500018
 20
57.000069
 42
0.000000
  0
VERTEX
  5
448
100
AcDbEntity
  8
Detail
 62
     6
100
AcDbVertex
100
AcDb2dVertex
 10
-147.500018
 20
57.000069
 42
0.000000
  0
VERTEX
  5
449
100
AcDbEntity
  8
Detail
100
AcDbVertex
100
AcDb2dVertex
 10
-147.500018
 20
296.250078
 42
0.000000
  0
SEQEND
  5
44A
100
AcDbEntity
  8
Detail
  0
LWPOLYLINE
  5
44B
100
AcDbEntity
  8
Detail
  6
CONTINUOUS
 62
     6
100
AcDbPolyline
 90
     5
 10
-152.500018
 20
57.000069
 42
0.000000
 10
-67.500018
 20
57.000069
 42
0.000000
 10
-67.500018
 20
55.000069
 42
0.000000
 10
-152.500018
 20
55.000069
 42
0.000000
 10
-152.500018
 20
57.000069
 42
0.000000
  0
POLYLINE
  5
451
100
AcDbEntity
  8
Detail
 66
     1
  6
CONTINUOUS
 62
     3
100
AcDb2dPolyline
  0
VERTEX
  5
452
100
AcDbEntity
  8
Detail
100
AcDbVertex
100
AcDb2dVertex
 10
-152.500018
 20
-196.249941
 42
0.000000
  0
VERTEX
  5
453
100
AcDbEntity
  8
Detail
100
AcDbVertex
100
AcDb2dVertex
 10
-152.500018
 20
43.000069
 42
0.000000
  0
VERTEX
  5
454
100
AcDbEntity
  8
Detail
 62
     6
100
AcDbVertex
100
AcDb2dVertex
 10
-147.500018
 20
43.000069
 42
0.000000
  0
VERTEX
  5
455
100
AcDbEntity
  8
Detail
100
AcDbVertex
100
AcDb2dVertex
 10
-147.500018
 20
-196.249941
 42
0.000000
  0
SEQEND
  5
456
100
AcDbEntity
  8
Detail
  0
LWPOLYLINE
  5
457
100
AcDbEntity
  8
Detail
  6
CONTINUOUS
 62
     6
100
AcDbPolyline
 90
     5
 10
-152.500018
 20
45.000069
 42
0.000000
 10
-67.500018
 20
45.000069
 42
0.000000
 10
-67.500018
 20
43.000069
 42
0.000000
 10
-152.500018
 20
43.000069
 42
0.000000
 10
-152.500018
 20
45.000069
 42
0.000000
  0
ENDBLK
  5
45D
100
AcDbEntity
  8
0
100
AcDbBlockEnd
  0
BLOCK
  5
45E
100
AcDbEntity
  8
SCHRAFF
100
AcDbBlockBegin
  2
B-15
 70
    66
 10
0.000000
 20
0.000000
 30
0.000000
  0
HATCH
  5
45F
100
AcDbEntity
  8
SCHRAFF
 62
     9
440
     0
100
AcDbHatch
 10
0.000000
 20
0.000000
 30
0.000000
210
0.000000
220
0.000000
230
1.000000
  2
SOLID
 70
     1
 71
     1
 91
     1
 92
    18
 72
     1
 73
     0
 93
     5
 10
-61.500018
 20
55.000069
 42
0.000000
 10
-61.500018
 20
296.250078
 42
0.000000
 10
-67.500018
 20
296.250078
 42
0.000000
 10
-67.500018
 20
55.000069
 42
0.000000
 10
-61.500018
 20
55.000069
 42
0.000000
 97
     0
 75
     0
 76
     1
 98
     0
  0
HATCH
  5
460
100
AcDbEntity
  8
SCHRAFF
 62
   253
440
     0
100
AcDbHatch
 10
0.000000
 20
0.000000
 30
0.000000
210
0.000000
220
0.000000
230
1.000000
  2
SOLID
 70
     1
 71
     1
 91
     1
 92
    18
 72
     1
 73
     0
 93
     5
 10
-55.500018
 20
55.000069
 42
0.000000
 10
-55.500018
 20
296.250078
 42
0.000000
 10
-59.500018
 20
296.250078
 42
0.000000
 10
-59.500018
 20
55.000069
 42
0.000000
 10
-55.500018
 20
55.000069
 42
0.000000
 97
     0
 75
     0
 76
     1
 98
     0
  0
HATCH
  5
461
100
AcDbEntity
  8
SCHRAFF
 62
     9
440
     0
100
AcDbHatch
 10
0.000000
 20
0.000000
 30
0.000000
210
0.000000
220
0.000000
230
1.000000
  2
SOLID
 70
     1
 71
     1
 91
     1
 92
    18
 72
     1
 73
     0
 93
     5
 10
-61.500018
 20
296.250078
 42
0.000000
 10
-61.500018
 20
55.000069
 42
0.000000
 10
-59.500018
 20
55.000069
 42
0.000000
 10
-59.500018
 20
296.250078
 42
0.000000
 10
-61.500018
 20
296.250078
 42
0.000000
 97
     0
 75
     0
 76
     1
 98
     0
  0
ENDBLK
  5
462
100
AcDbEntity
  8
0
100
AcDbBlockEnd
  0
BLOCK
  5
463
100
AcDbEntity
  8
Detail
100
AcDbBlockBegin
  2
B-16
 70
    66
 10
0.000000
 20
0.000000
 30
0.000000
  0
ENDBLK
  5
464
100
AcDbEntity
  8
0
100
AcDbBlockEnd
  0
BLOCK
  5
465
100
AcDbEntity
  8
SCHRAFF
100
AcDbBlockBegin
  2
B-17
 70
    66
 10
0.000000
 20
0.000000
 30
0.000000
  0
HATCH
  5
466
100
AcDbEntity
  8
SCHRAFF
 62
    51
440
     0
100
AcDbHatch
 10
0.000000
 20
0.000000
 30
0.000000
210
0.000000
220
0.000000
230
1.000000
  2
SOLID
 70
     1
 71
     1
 91
     1
 92
    18
 72
     1
 73
     0
 93
     5
 10
-147.500018
 20
296.250078
 42
0.000000
 10
-147.500018
 20
57.000069
 42
0.000000
 10
-67.500018
 20
57.000069
 42
0.000000
 10
-67.500018
 20
296.250078
 42
0.000000
 10
-147.500018
 20
296.250078
 42
0.000000
 97
     0
 75
     0
 76
     1
 98
     0
  0
ENDBLK
  5
467
100
AcDbEntity
  8
0
100
AcDbBlockEnd
  0
BLOCK
  5
468
100
AcDbEntity
  8
SCHRAFF
100
AcDbBlockBegin
  2
B-18
 70
    66
 10
0.000000
 20
0.000000
 30
0.000000
  0
HATCH
  5
469
100
AcDbEntity
  8
SCHRAFF
 62
    51
440
     0
100
AcDbHatch
 10
0.000000
 20
0.000000
 30
0.000000
210
0.000000
220
0.000000
230
1.000000
  2
SOLID
 70
     1
 71
     1
 91
     1
 92
    18
 72
     1
 73
     0
 93
     5
 10
-67.500018
 20
-196.249941
 42
0.000000
 10
-67.500018
 20
43.000069
 42
0.000000
 10
-147.500018
 20
43.000069
 42
0.000000
 10
-147.500018
 20
-196.249941
 42
0.000000
 10
-67.500018
 20
-196.249941
 42
0.000000
 97
     0
 75
     0
 76
     1
 98
     0
  0
ENDBLK
  5
46A
100
AcDbEntity
  8
0
100
AcDbBlockEnd
  0
BLOCK
  5
46B
100
AcDbEntity
  8
SCHRAFF
100
AcDbBlockBegin
  2
B-19
 70
    66
 10
0.000000
 20
0.000000
 30
0.000000
  0
HATCH
  5
46C
100
AcDbEntity
  8
SCHRAFF
  6
CONTINUOUS
 62
     9
100
AcDbHatch
 10
0.000000
 20
0.000000
 30
0.000000
210
0.000000
220
0.000000
230
1.000000
  2
_U
 70
     0
 71
     1
 91
     1
 92
    18
 72
     1
 73
     0
 93
     5
 10
-67.500018
 20
57.000069
 42
0.000000
 10
-67.500018
 20
296.250078
 42
0.000000
 10
-147.500018
 20
296.250078
 42
0.000000
 10
-147.500018
 20
57.000069
 42
0.000000
 10
-67.500018
 20
57.000069
 42
0.000000
 97
     0
 75
     0
 76
     0
 52
0.000000
 41
1.000000
 77
     0
 78
     1
 53
90.000000
 43
-0.000000
 44
0.000000
 45
-13.750000
 46
0.000000
 79
     0
 98
     0
  0
HATCH
  5
46D
100
AcDbEntity
  8
SCHRAFF
  6
CONTINUOUS
 62
     9
100
AcDbHatch
 10
0.000000
 20
0.000000
 30
0.000000
210
0.000000
220
0.000000
230
1.000000
  2
_U
 70
     0
 71
     1
 91
     1
 92
    18
 72
     1
 73
     0
 93
     5
 10
-147.500018
 20
39.500069
 42
0.000000
 10
-147.500018
 20
-196.249941
 42
0.000000
 10
-67.500018
 20
-196.249941
 42
0.000000
 10
-67.500018
 20
39.500069
 42
0.000000
 10
-147.500018
 20
39.500069
 42
0.000000
 97
     0
 75
     0
 76
     0
 52
0.000000
 41
1.000000
 77
     0
 78
     1
 53
90.000000
 43
-0.000000
 44
0.000000
 45
-13.750000
 46
0.000000
 79
     0
 98
     0
  0
ENDBLK
  5
46E
100
AcDbEntity
  8
0
100
AcDbBlockEnd
  0
BLOCK
  5
46F
100
AcDbEntity
  8
Detail
100
AcDbBlockBegin
  2
B-20
 70
    66
 10
0.000000
 20
0.000000
 30
0.000000
  0
ENDBLK
  5
470
100
AcDbEntity
  8
0
100
AcDbBlockEnd
  0
BLOCK
  5
471
100
AcDbEntity
  8
Detail
100
AcDbBlockBegin
  2
B-21
 70
    66
 10
0.000000
 20
0.000000
 30
0.000000
  0
LWPOLYLINE
  5
472
100
AcDbEntity
  8
Detail
  6
CONTINUOUS
 62
     6
100
AcDbPolyline
 90
     4
 10
-67.500018
 20
296.250078
 42
0.000000
 10
-67.500018
 20
55.000069
 42
0.000000
 10
-61.500018
 20
55.000069
 42
0.000000
 10
-61.500018
 20
296.250078
 42
0.000000
  0
ENDBLK
  5
477
100
AcDbEntity
  8
0
100
AcDbBlockEnd
  0
BLOCK
  5
478
100
AcDbEntity
  8
Detail
100
AcDbBlockBegin
  2
B-22
 70
    66
 10
0.000000
 20
0.000000
 30
0.000000
  0
LWPOLYLINE
  5
479
100
AcDbEntity
  8
Detail
  6
HIDDEN
 62
     9
100
AcDbPolyline
 90
     2
 10
-62.500018
 20
296.250078
 42
0.000000
 10
-62.500018
 20
55.000069
 42
0.000000
  0
ENDBLK
  5
47C
100
AcDbEntity
  8
0
100
AcDbBlockEnd
  0
BLOCK
  5
47D
100
AcDbEntity
  8
SCHRAFF
100
AcDbBlockBegin
  2
B-23
 70
    66
 10
0.000000
 20
0.000000
 30
0.000000
  0
HATCH
  5
47E
100
AcDbEntity
  8
SCHRAFF
 62
     9
440
     0
100
AcDbHatch
 10
0.000000
 20
0.000000
 30
0.000000
210
0.000000
220
0.000000
230
1.000000
  2
SOLID
 70
     1
 71
     1
 91
     1
 92
    18
 72
     1
 73
     0
 93
     3
 10
-60.500018
 20
45.000071
 42
1.000000
 10
-60.500018
 20
55.000071
 42
1.000000
 10
-60.500018
 20
45.000071
 42
0.000000
 97
     0
 75
     0
 76
     1
 98
     0
  0
CIRCLE
  5
47F
100
AcDbEntity
  8
Detail
  6
CONTINUOUS
 62
     4
100
AcDbCircle
 10
-60.500018
 20
50.000071
 40
5.000000
  0
ENDBLK
  5
480
100
AcDbEntity
  8
0
100
AcDbBlockEnd
  0
BLOCK
  5
481
100
AcDbEntity
  8
Detail
100
AcDbBlockBegin
  2
B-24
 70
    66
 10
0.000000
 20
0.000000
 30
0.000000
  0
MTEXT
  5
483
100
AcDbEntity
  8
Detail
 62
     7
100
AcDbMText
 10
79.375019
 20
152.500116
 30
0.000000
 40
4.999990
 41
40.897402
 71
     1
 72
     5
  1
Fugenmörtel
  7
Arial
 50
0.000000
  0
ENDBLK
  5
484
100
AcDbEntity
  8
0
100
AcDbBlockEnd
  0
BLOCK
  5
485
100
AcDbEntity
  8
Detail
100
AcDbBlockBegin
  2
B-25
 70
    66
 10
0.000000
 20
0.000000
 30
0.000000
  0
MTEXT
  5
486
100
AcDbEntity
  8
Detail
 62
     7
100
AcDbMText
 10
79.375019
 20
127.500116
 30
0.000000
 40
4.999990
 41
122.954705
 71
     1
 72
     5
  1
Verdübelung durch Gewebearmierung
  7
Arial
 50
0.000000
  0
ENDBLK
  5
487
100
AcDbEntity
  8
0
100
AcDbBlockEnd
  0
BLOCK
  5
488
100
AcDbEntity
  8
Detail
100
AcDbBlockBegin
  2
B-26
 70
    66
 10
0.000000
 20
0.000000
 30
0.000000
  0
MTEXT
  5
489
100
AcDbEntity
  8
Detail
 62
     7
100
AcDbMText
 10
79.375019
 20
102.500116
 30
0.000000
 40
4.999990
 41
50.347379
 71
     1
 72
     5
  1
MW-Dämmstoff
  7
Arial
 50
0.000000
  0
ENDBLK
  5
48A
100
AcDbEntity
  8
0
100
AcDbBlockEnd
  0
BLOCK
  5
48B
100
AcDbEntity
  8
Detail
100
AcDbBlockBegin
  2
B-27
 70
    66
 10
0.000000
 20
0.000000
 30
0.000000
  0
MTEXT
  5
48C
100
AcDbEntity
  8
Detail
 62
     7
100
AcDbMText
 10
79.375019
 20
77.500116
 30
0.000000
 40
4.999990
 41
62.947349
 71
     1
 72
     5
  1
Putzabschlussprofil
  7
Arial
 50
0.000000
  0
ENDBLK
  5
48D
100
AcDbEntity
  8
0
100
AcDbBlockEnd
  0
BLOCK
  5
48E
100
AcDbEntity
  8
Detail
100
AcDbBlockBegin
  2
B-28
 70
    66
 10
0.000000
 20
0.000000
 30
0.000000
  0
MTEXT
  5
48F
100
AcDbEntity
  8
Detail
 62
     7
100
AcDbMText
 10
79.375019
 20
47.500126
 30
0.000000
 40
4.999990
 41
137.812169
 71
     7
 72
     5
  1
Feldbegrenzungsfuge mit PE-Rundschnur 
  7
Arial
 50
0.000000
  0
MTEXT
  5
490
100
AcDbEntity
  8
Detail
 62
     7
100
AcDbMText
 10
79.375019
 20
40.000141
 30
0.000000
 40
4.999990
 41
85.154796
 71
     7
 72
     5
  1
und elastischem Dichtstoff
  7
Arial
 50
0.000000
  0
ENDBLK
  5
491
100
AcDbEntity
  8
0
100
AcDbBlockEnd
  0
BLOCK
  5
492
100
AcDbEntity
  8
Detail
100
AcDbBlockBegin
  2
B-29
 70
    66
 10
0.000000
 20
0.000000
 30
0.000000
  0
MTEXT
  5
493
100
AcDbEntity
  8
Detail
 62
     7
100
AcDbMText
 10
79.375020
 20
-22.499885
 30
0.000000
 40
4.999987
 41
142.747129
 71
     1
 72
     5
  1
Armierungsschicht mit Ceratherm Mörtel DP
  7
Arial
 50
0.000000
  0
ENDBLK
  5
494
100
AcDbEntity
  8
0
100
AcDbBlockEnd
  0
BLOCK
  5
495
100
AcDbEntity
  8
Detail
100
AcDbBlockBegin
  2
B-30
 70
    66
 10
0.000000
 20
0.000000
 30
0.000000
  0
MTEXT
  5
496
100
AcDbEntity
  8
Detail
 62
     7
100
AcDbMText
 10
79.375020
 20
-47.499883
 30
0.000000
 40
4.999987
 41
140.804634
 71
     1
 72
     5
  1
Ausgleichsschicht mit Ceratherm Mörtel DP
  7
Arial
 50
0.000000
  0
ENDBLK
  5
497
100
AcDbEntity
  8
0
100
AcDbBlockEnd
  0
BLOCK
  5
498
100
AcDbEntity
  8
Detail
100
AcDbBlockBegin
  2
B-31
 70
    66
 10
0.000000
 20
0.000000
 30
0.000000
  0
MTEXT
  5
499
100
AcDbEntity
  8
Detail
 62
     7
100
AcDbMText
 10
79.375020
 20
-72.499882
 30
0.000000
 40
4.999987
 41
44.939883
 71
     1
 72
     5
  1
Verlegemörtel
  7
Arial
 50
0.000000
  0
ENDBLK
  5
49A
100
AcDbEntity
  8
0
100
AcDbBlockEnd
  0
BLOCK
  5
49B
100
AcDbEntity
  8
Detail
100
AcDbBlockBegin
  2
B-32
 70
    66
 10
0.000000
 20
0.000000
 30
0.000000
  0
MTEXT
  5
49C
100
AcDbEntity
  8
Detail
 62
     7
100
AcDbMText
 10
79.375020
 20
-97.499882
 30
0.000000
 40
4.999987
 41
48.982373
 71
     1
 72
     5
  1
Hartbekleidung
  7
Arial
 50
0.000000
  0
ENDBLK
  5
49D
100
AcDbEntity
  8
0
100
AcDbBlockEnd
  0
BLOCK
  5
49E
100
AcDbEntity
  8
SCHRAFF
100
AcDbBlockBegin
  2
B-33
 70
    66
 10
0.000000
 20
0.000000
 30
0.000000
  0
HATCH
  5
49F
100
AcDbEntity
  8
SCHRAFF
 62
     7
440
     0
100
AcDbHatch
 10
0.000000
 20
0.000000
 30
0.000000
210
0.000000
220
0.000000
230
1.000000
  2
SOLID
 70
     1
 71
     1
 91
     1
 92
    18
 72
     1
 73
     0
 93
     3
 10
-52.000018
 20
260.000019
 42
1.000000
 10
-53.000018
 20
260.000019
 42
1.000000
 10
-52.000018
 20
260.000019
 42
0.000000
 97
     0
 75
     0
 76
     1
 98
     0
  0
CIRCLE
  5
4A0
100
AcDbEntity
  8
Detail
  6
CONTINUOUS
 62
     7
100
AcDbCircle
 10
-52.500018
 20
260.000019
 40
0.500000
  0
ENDBLK
  5
4A1
100
AcDbEntity
  8
0
100
AcDbBlockEnd
  0
BLOCK
  5
4A2
100
AcDbEntity
  8
SCHRAFF
100
AcDbBlockBegin
  2
B-34
 70
    66
 10
0.000000
 20
0.000000
 30
0.000000
  0
HATCH
  5
4A3
100
AcDbEntity
  8
SCHRAFF
 62
     7
440
     0
100
AcDbHatch
 10
0.000000
 20
0.000000
 30
0.000000
210
0.000000
220
0.000000
230
1.000000
  2
SOLID
 70
     1
 71
     1
 91
     1
 92
    18
 72
     1
 73
     0
 93
     3
 10
-60.500018
 20
125.000121
 42
1.000000
 10
-61.500018
 20
125.000121
 42
1.000000
 10
-60.500018
 20
125.000121
 42
0.000000
 97
     0
 75
     0
 76
     1
 98
     0
  0
CIRCLE
  5
4A4
100
AcDbEntity
  8
Detail
  6
CONTINUOUS
 62
     7
100
AcDbCircle
 10
-61.000018
 20
125.000121
 40
0.500000
  0
ENDBLK
  5
4A5
100
AcDbEntity
  8
0
100
AcDbBlockEnd
  0
BLOCK
  5
4A6
100
AcDbEntity
  8
SCHRAFF
100
AcDbBlockBegin
  2
B-35
 70
    66
 10
0.000000
 20
0.000000
 30
0.000000
  0
HATCH
  5
4A7
100
AcDbEntity
  8
SCHRAFF
 62
     7
440
     0
100
AcDbHatch
 10
0.000000
 20
0.000000
 30
0.000000
210
0.000000
220
0.000000
230
1.000000
  2
SOLID
 70
     1
 71
     1
 91
     1
 92
    18
 72
     1
 73
     0
 93
     3
 10
-109.500018
 20
50.000069
 42
1.000000
 10
-110.500018
 20
50.000069
 42
1.000000
 10
-109.500018
 20
50.000069
 42
0.000000
 97
     0
 75
     0
 76
     1
 98
     0
  0
CIRCLE
  5
4A8
100
AcDbEntity
  8
Detail
  6
CONTINUOUS
 62
     7
100
AcDbCircle
 10
-110.000018
 20
50.000069
 40
0.500000
  0
ENDBLK
  5
4A9
100
AcDbEntity
  8
0
100
AcDbBlockEnd
  0
BLOCK
  5
4AA
100
AcDbEntity
  8
SCHRAFF
100
AcDbBlockBegin
  2
B-36
 70
    66
 10
0.000000
 20
0.000000
 30
0.000000
  0
HATCH
  5
4AB
100
AcDbEntity
  8
SCHRAFF
 62
     7
440
     0
100
AcDbHatch
 10
0.000000
 20
0.000000
 30
0.000000
210
0.000000
220
0.000000
230
1.000000
  2
SOLID
 70
     1
 71
     1
 91
     1
 92
    18
 72
     1
 73
     0
 93
     3
 10
-60.000018
 20
50.000071
 42
1.000000
 10
-61.000018
 20
50.000071
 42
1.000000
 10
-60.000018
 20
50.000071
 42
0.000000
 97
     0
 75
     0
 76
     1
 98
     0
  0
CIRCLE
  5
4AC
100
AcDbEntity
  8
Detail
  6
CONTINUOUS
 62
     7
100
AcDbCircle
 10
-60.500018
 20
50.000071
 40
0.500000
  0
ENDBLK
  5
4AD
100
AcDbEntity
  8
0
100
AcDbBlockEnd
  0
BLOCK
  5
4AE
100
AcDbEntity
  8
SCHRAFF
100
AcDbBlockBegin
  2
B-37
 70
    66
 10
0.000000
 20
0.000000
 30
0.000000
  0
HATCH
  5
4AF
100
AcDbEntity
  8
SCHRAFF
 62
   161
440
     0
100
AcDbHatch
 10
0.000000
 20
0.000000
 30
0.000000
210
0.000000
220
0.000000
230
1.000000
  2
SOLID
 70
     1
 71
     1
 91
     1
 92
    18
 72
     1
 73
     0
 93
     5
 10
-55.500018
 20
45.000069
 42
0.000000
 10
-47.500018
 20
45.000069
 42
0.000000
 10
-47.500018
 20
-154.999981
 42
0.000000
 10
-55.500018
 20
-154.999981
 42
0.000000
 10
-55.500018
 20
45.000069
 42
0.000000
 97
     0
 75
     0
 76
     1
 98
     0
  0
HATCH
  5
4B0
100
AcDbEntity
  8
SCHRAFF
 62
   161
440
     0
100
AcDbHatch
 10
0.000000
 20
0.000000
 30
0.000000
210
0.000000
220
0.000000
230
1.000000
  2
SOLID
 70
     1
 71
     1
 91
     1
 92
    18
 72
     1
 73
     0
 93
     5
 10
-55.500018
 20
-164.999981
 42
0.000000
 10
-47.500018
 20
-164.999981
 42
0.000000
 10
-47.500018
 20
-196.249941
 42
0.000000
 10
-55.500018
 20
-196.249941
 42
0.000000
 10
-55.500018
 20
-164.999981
 42
0.000000
 97
     0
 75
     0
 76
     1
 98
     0
  0
ENDBLK
  5
4B1
100
AcDbEntity
  8
0
100
AcDbBlockEnd
  0
BLOCK
  5
4B2
100
AcDbEntity
  8
SCHRAFF
100
AcDbBlockBegin
  2
B-38
 70
    66
 10
0.000000
 20
0.000000
 30
0.000000
  0
HATCH
  5
4B3
100
AcDbEntity
  8
SCHRAFF
 62
     9
440
     0
100
AcDbHatch
 10
0.000000
 20
0.000000
 30
0.000000
210
0.000000
220
0.000000
230
1.000000
  2
SOLID
 70
     1
 71
     1
 91
     1
 92
    18
 72
     1
 73
     0
 93
     5
 10
-61.500018
 20
-196.249941
 42
0.000000
 10
-61.500018
 20
45.000069
 42
0.000000
 10
-67.500018
 20
45.000069
 42
0.000000
 10
-67.500018
 20
-196.249941
 42
0.000000
 10
-61.500018
 20
-196.249941
 42
0.000000
 97
     0
 75
     0
 76
     1
 98
     0
  0
ENDBLK
  5
4B4
100
AcDbEntity
  8
0
100
AcDbBlockEnd
  0
BLOCK
  5
4B5
100
AcDbEntity
  8
SCHRAFF
100
AcDbBlockBegin
  2
B-39
 70
    66
 10
0.000000
 20
0.000000
 30
0.000000
  0
HATCH
  5
4B6
100
AcDbEntity
  8
SCHRAFF
 62
     9
440
     0
100
AcDbHatch
 10
0.000000
 20
0.000000
 30
0.000000
210
0.000000
220
0.000000
230
1.000000
  2
SOLID
 70
     1
 71
     1
 91
     1
 92
    18
 72
     1
 73
     0
 93
     5
 10
-61.500018
 20
-196.249941
 42
0.000000
 10
-61.500018
 20
45.000069
 42
0.000000
 10
-59.500018
 20
45.000069
 42
0.000000
 10
-59.500018
 20
-196.249941
 42
0.000000
 10
-61.500018
 20
-196.249941
 42
0.000000
 97
     0
 75
     0
 76
     1
 98
     0
  0
HATCH
  5
4B7
100
AcDbEntity
  8
SCHRAFF
 62
   253
440
     0
100
AcDbHatch
 10
0.000000
 20
0.000000
 30
0.000000
210
0.000000
220
0.000000
230
1.000000
  2
SOLID
 70
     1
 71
     1
 91
     1
 92
    18
 72
     1
 73
     0
 93
     5
 10
-55.500018
 20
45.000069
 42
0.000000
 10
-55.500018
 20
-196.249941
 42
0.000000
 10
-59.500018
 20
-196.249941
 42
0.000000
 10
-59.500018
 20
45.000069
 42
0.000000
 10
-55.500018
 20
45.000069
 42
0.000000
 97
     0
 75
     0
 76
     1
 98
     0
  0
ENDBLK
  5
4B8
100
AcDbEntity
  8
0
100
AcDbBlockEnd
  0
BLOCK
  5
4B9
100
AcDbEntity
  8
Detail
100
AcDbBlockBegin
  2
B-40
 70
    66
 10
0.000000
 20
0.000000
 30
0.000000
  0
LWPOLYLINE
  5
4BA
100
AcDbEntity
  8
Detail
  6
CONTINUOUS
 62
     3
100
AcDbPolyline
 90
     4
 10
-55.500018
 20
-196.249941
 42
0.000000
 10
-55.500018
 20
-164.999981
 42
0.000000
 10
-47.500018
 20
-164.999981
 42
0.000000
 10
-47.500018
 20
-196.249941
 42
0.000000
  0
ENDBLK
  5
4BF
100
AcDbEntity
  8
0
100
AcDbBlockEnd
  0
BLOCK
  5
4C0
100
AcDbEntity
  8
Detail
100
AcDbBlockBegin
  2
B-41
 70
    66
 10
0.000000
 20
0.000000
 30
0.000000
  0
LWPOLYLINE
  5
4C1
100
AcDbEntity
  8
Detail
  6
CONTINUOUS
 62
     6
100
AcDbPolyline
 90
     4
 10
-59.500018
 20
-196.249941
 42
0.000000
 10
-59.500018
 20
45.000069
 42
0.000000
 10
-55.500018
 20
45.000069
 42
0.000000
 10
-55.500018
 20
-196.249941
 42
0.000000
  0
ENDBLK
  5
4C6
100
AcDbEntity
  8
0
100
AcDbBlockEnd
  0
BLOCK
  5
4C7
100
AcDbEntity
  8
Detail
100
AcDbBlockBegin
  2
B-42
 70
    66
 10
0.000000
 20
0.000000
 30
0.000000
  0
LWPOLYLINE
  5
4C8
100
AcDbEntity
  8
Detail
  6
CONTINUOUS
 62
     3
100
AcDbPolyline
 90
     5
 10
-47.500018
 20
45.000069
 42
0.000000
 10
-55.500018
 20
45.000069
 42
0.000000
 10
-55.500018
 20
-154.999981
 42
0.000000
 10
-47.500018
 20
-154.999981
 42
0.000000
 10
-47.500018
 20
45.000069
 42
0.000000
  0
ENDBLK
  5
4CE
100
AcDbEntity
  8
0
100
AcDbBlockEnd
  0
BLOCK
  5
4CF
100
AcDbEntity
  8
Detail
100
AcDbBlockBegin
  2
B-43
 70
    66
 10
0.000000
 20
0.000000
 30
0.000000
  0
LWPOLYLINE
  5
4D0
100
AcDbEntity
  8
Detail
  6
CONTINUOUS
 62
     6
100
AcDbPolyline
 90
     4
 10
-61.500018
 20
-196.249941
 42
0.000000
 10
-61.500018
 20
45.000069
 42
0.000000
 10
-59.500018
 20
45.000069
 42
0.000000
 10
-59.500018
 20
-196.249941
 42
0.000000
  0
ENDBLK
  5
4D5
100
AcDbEntity
  8
0
100
AcDbBlockEnd
  0
BLOCK
  5
4D6
100
AcDbEntity
  8
Detail
100
AcDbBlockBegin
  2
B-44
 70
    66
 10
0.000000
 20
0.000000
 30
0.000000
  0
LWPOLYLINE
  5
4D7
100
AcDbEntity
  8
Detail
  6
HIDDEN
 62
     9
100
AcDbPolyline
 90
     2
 10
-62.500018
 20
45.000069
 42
0.000000
 10
-62.500018
 20
-196.249941
 42
0.000000
  0
LWPOLYLINE
  5
4DA
100
AcDbEntity
  8
Detail
  6
CONTINUOUS
 62
     6
100
AcDbPolyline
 90
     4
 10
-67.500018
 20
-196.249941
 42
0.000000
 10
-67.500018
 20
45.000069
 42
0.000000
 10
-61.500018
 20
45.000069
 42
0.000000
 10
-61.500018
 20
-196.249941
 42
0.000000
  0
ENDBLK
  5
4DF
100
AcDbEntity
  8
0
100
AcDbBlockEnd
  0
BLOCK
  5
4E0
100
AcDbEntity
  8
SCHRAFF
100
AcDbBlockBegin
  2
B-45
 70
    66
 10
0.000000
 20
0.000000
 30
0.000000
  0
HATCH
  5
4E1
100
AcDbEntity
  8
SCHRAFF
 62
   250
440
     0
100
AcDbHatch
 10
0.000000
 20
0.000000
 30
0.000000
210
0.000000
220
0.000000
230
1.000000
  2
SOLID
 70
     1
 71
     1
 91
     1
 92
    18
 72
     1
 73
     0
 93
     7
 10
-65.500018
 20
15.000069
 42
0.000000
 10
-65.500018
 20
43.000069
 42
0.000000
 10
-59.500018
 20
43.000069
 42
0.000000
 10
-59.500018
 20
45.000069
 42
0.000000
 10
-67.500018
 20
45.000069
 42
0.000000
 10
-67.500018
 20
15.000069
 42
0.000000
 10
-65.500018
 20
15.000069
 42
0.000000
 97
     0
 75
     0
 76
     1
 98
     0
  0
LWPOLYLINE
  5
4E2
100
AcDbEntity
  8
Detail
  6
CONTINUOUS
 62
     4
100
AcDbPolyline
 90
     7
 10
-67.500018
 20
15.000069
 42
0.000000
 10
-67.500018
 20
45.000069
 42
0.000000
 10
-59.500018
 20
45.000069
 42
0.000000
 10
-59.500018
 20
43.000069
 42
0.000000
 10
-65.500018
 20
43.000069
 42
0.000000
 10
-65.500018
 20
15.000069
 42
0.000000
 10
-67.500018
 20
15.000069
 42
0.000000
  0
ENDBLK
  5
4EA
100
AcDbEntity
  8
0
100
AcDbBlockEnd
  0
BLOCK
  5
4EB
100
AcDbEntity
  8
Detail
100
AcDbBlockBegin
  2
B-46
 70
    66
 10
0.000000
 20
0.000000
 30
0.000000
  0
LWPOLYLINE
  5
4EC
100
AcDbEntity
  8
Detail
  6
HIDDEN
 62
     9
100
AcDbPolyline
 90
     2
 10
-66.500018
 20
15.000069
 42
0.000000
 10
-66.500018
 20
-54.999881
 42
0.000000
  0
ENDBLK
  5
4EF
100
AcDbEntity
  8
0
100
AcDbBlockEnd
  0
BLOCK
  5
4F0
100
AcDbEntity
  8
Detail
100
AcDbBlockBegin
  2
B-47
 70
    66
 10
0.000000
 20
0.000000
 30
0.000000
  0
LWPOLYLINE
  5
4F1
100
AcDbEntity
  8
Detail
  6
HIDDEN
 62
     9
100
AcDbPolyline
 90
     2
 10
-66.500018
 20
85.000069
 42
0.000000
 10
-66.500018
 20
155.000119
 42
0.000000
  0
ENDBLK
  5
4F4
100
AcDbEntity
  8
0
100
AcDbBlockEnd
  0
BLOCK
  5
4F5
100
AcDbEntity
  8
SCHRAFF
100
AcDbBlockBegin
  2
B-48
 70
    66
 10
0.000000
 20
0.000000
 30
0.000000
  0
HATCH
  5
4F6
100
AcDbEntity
  8
SCHRAFF
 62
     7
440
     0
100
AcDbHatch
 10
0.000000
 20
0.000000
 30
0.000000
210
0.000000
220
0.000000
230
1.000000
  2
SOLID
 70
     1
 71
     1
 91
     1
 92
    18
 72
     1
 73
     0
 93
     3
 10
-66.000018
 20
75.000119
 42
1.000000
 10
-67.000018
 20
75.000119
 42
1.000000
 10
-66.000018
 20
75.000119
 42
0.000000
 97
     0
 75
     0
 76
     1
 98
     0
  0
CIRCLE
  5
4F7
100
AcDbEntity
  8
Detail
  6
CONTINUOUS
 62
     7
100
AcDbCircle
 10
-66.500018
 20
75.000119
 40
0.500000
  0
ENDBLK
  5
4F8
100
AcDbEntity
  8
0
100
AcDbBlockEnd
  0
BLOCK
  5
4F9
100
AcDbEntity
  8
Detail
100
AcDbBlockBegin
  2
B-49
 70
    66
 10
0.000000
 20
0.000000
 30
0.000000
  0
MTEXT
  5
4FA
100
AcDbEntity
  8
Detail
 62
     7
100
AcDbMText
 10
79.375020
 20
2.500114
 30
0.000000
 40
4.999990
 41
59.482357
 71
     1
 72
     5
  1
WDVS-Dämmstoff
  7
Arial
 50
0.000000
  0
ENDBLK
  5
4FB
100
AcDbEntity
  8
0
100
AcDbBlockEnd
  0
BLOCK
  5
4FC
100
AcDbEntity
  8
SCHRAFF
100
AcDbBlockBegin
  2
B-50
 70
    66
 10
0.000000
 20
0.000000
 30
0.000000
  0
HATCH
  5
4FD
100
AcDbEntity
  8
SCHRAFF
 62
     7
440
     0
100
AcDbHatch
 10
0.000000
 20
0.000000
 30
0.000000
210
0.000000
220
0.000000
230
1.000000
  2
SOLID
 70
     1
 71
     1
 91
     1
 92
    18
 72
     1
 73
     0
 93
     3
 10
-107.000018
 20
0.000118
 42
1.000000
 10
-108.000018
 20
0.000118
 42
1.000000
 10
-107.000018
 20
0.000118
 42
0.000000
 97
     0
 75
     0
 76
     1
 98
     0
  0
CIRCLE
  5
4FE
100
AcDbEntity
  8
Detail
  6
CONTINUOUS
 62
     7
100
AcDbCircle
 10
-107.500018
 20
0.000118
 40
0.500000
  0
ENDBLK
  5
4FF
100
AcDbEntity
  8
0
100
AcDbBlockEnd
  0
BLOCK
  5
500
100
AcDbEntity
  8
SCHRAFF
100
AcDbBlockBegin
  2
B-51
 70
    66
 10
0.000000
 20
0.000000
 30
0.000000
  0
HATCH
  5
501
100
AcDbEntity
  8
SCHRAFF
 62
     7
440
     0
100
AcDbHatch
 10
0.000000
 20
0.000000
 30
0.000000
210
0.000000
220
0.000000
230
1.000000
  2
SOLID
 70
     1
 71
     1
 91
     1
 92
    18
 72
     1
 73
     0
 93
     3
 10
-64.000018
 20
-24.999882
 42
1.000000
 10
-65.000018
 20
-24.999882
 42
1.000000
 10
-64.000018
 20
-24.999882
 42
0.000000
 97
     0
 75
     0
 76
     1
 98
     0
  0
CIRCLE
  5
502
100
AcDbEntity
  8
Detail
  6
CONTINUOUS
 62
     7
100
AcDbCircle
 10
-64.500018
 20
-24.999882
 40
0.500000
  0
ENDBLK
  5
503
100
AcDbEntity
  8
0
100
AcDbBlockEnd
  0
BLOCK
  5
504
100
AcDbEntity
  8
SCHRAFF
100
AcDbBlockBegin
  2
B-52
 70
    66
 10
0.000000
 20
0.000000
 30
0.000000
  0
HATCH
  5
505
100
AcDbEntity
  8
SCHRAFF
 62
     7
440
     0
100
AcDbHatch
 10
0.000000
 20
0.000000
 30
0.000000
210
0.000000
220
0.000000
230
1.000000
  2
SOLID
 70
     1
 71
     1
 91
     1
 92
    18
 72
     1
 73
     0
 93
     3
 10
-57.000018
 20
-74.999882
 42
1.000000
 10
-58.000018
 20
-74.999882
 42
1.000000
 10
-57.000018
 20
-74.999882
 42
0.000000
 97
     0
 75
     0
 76
     1
 98
     0
  0
CIRCLE
  5
506
100
AcDbEntity
  8
Detail
  6
CONTINUOUS
 62
     7
100
AcDbCircle
 10
-57.500018
 20
-74.999882
 40
0.500000
  0
ENDBLK
  5
507
100
AcDbEntity
  8
0
100
AcDbBlockEnd
  0
BLOCK
  5
508
100
AcDbEntity
  8
SCHRAFF
100
AcDbBlockBegin
  2
B-53
 70
    66
 10
0.000000
 20
0.000000
 30
0.000000
  0
HATCH
  5
509
100
AcDbEntity
  8
SCHRAFF
 62
     7
440
     0
100
AcDbHatch
 10
0.000000
 20
0.000000
 30
0.000000
210
0.000000
220
0.000000
230
1.000000
  2
SOLID
 70
     1
 71
     1
 91
     1
 92
    18
 72
     1
 73
     0
 93
     3
 10
-51.000018
 20
-99.999882
 42
1.000000
 10
-52.000018
 20
-99.999882
 42
1.000000
 10
-51.000018
 20
-99.999882
 42
0.000000
 97
     0
 75
     0
 76
     1
 98
     0
  0
CIRCLE
  5
50A
100
AcDbEntity
  8
Detail
  6
CONTINUOUS
 62
     7
100
AcDbCircle
 10
-51.500018
 20
-99.999882
 40
0.500000
  0
ENDBLK
  5
50B
100
AcDbEntity
  8
0
100
AcDbBlockEnd
  0
BLOCK
  5
50C
100
AcDbEntity
  8
SCHRAFF
100
AcDbBlockBegin
  2
B-54
 70
    66
 10
0.000000
 20
0.000000
 30
0.000000
  0
HATCH
  5
50D
100
AcDbEntity
  8
SCHRAFF
 62
     7
440
     0
100
AcDbHatch
 10
0.000000
 20
0.000000
 30
0.000000
210
0.000000
220
0.000000
230
1.000000
  2
SOLID
 70
     1
 71
     1
 91
     1
 92
    18
 72
     1
 73
     0
 93
     3
 10
-60.000018
 20
-49.999882
 42
1.000000
 10
-61.000018
 20
-49.999882
 42
1.000000
 10
-60.000018
 20
-49.999882
 42
0.000000
 97
     0
 75
     0
 76
     1
 98
     0
  0
CIRCLE
  5
50E
100
AcDbEntity
  8
Detail
  6
CONTINUOUS
 62
     7
100
AcDbCircle
 10
-60.500018
 20
-49.999882
 40
0.500000
  0
ENDBLK
  5
50F
100
AcDbEntity
  8
0
100
AcDbBlockEnd
  0
BLOCK
  5
510
100
AcDbEntity
  8
Detail
100
AcDbBlockBegin
  2
B-55
 70
    66
 10
0.000000
 20
0.000000
 30
0.000000
  0
LWPOLYLINE
  5
511
100
AcDbEntity
  8
Detail
  6
CONTINUOUS
 62
     9
100
AcDbPolyline
 90
     2
 10
-91.000018
 20
-99.999931
 42
0.000000
 10
-91.000018
 20
-113.979344
 42
0.000000
  0
LWPOLYLINE
  5
514
100
AcDbEntity
  8
Detail
  6
CONTINUOUS
 62
     9
100
AcDbPolyline
 90
    83
 10
-62.500018
 20
-136.999931
 42
0.000000
 10
-62.000018
 20
-136.999931
 42
0.000000
 10
-61.000018
 20
-131.999931
 42
0.000000
 10
-61.000018
 20
-81.999931
 42
0.000000
 10
-62.000018
 20
-76.999931
 42
0.000000
 10
-62.500018
 20
-76.999931
 42
0.000000
 10
-62.500018
 20
-93.999931
 42
0.000000
 10
-63.750018
 20
-97.749931
 42
0.000000
 10
-67.500018
 20
-98.999931
 42
0.000000
 10
-91.000018
 20
-99.999931
 42
0.000000
 10
-97.000018
 20
-102.499931
 42
0.000000
 10
-159.462215
 20
-103.039931
 42
0.000000
 10
-160.828158
 20
-103.286941
 42
0.000000
 10
-160.903911
 20
-103.039931
 42
0.000000
 10
-163.686215
 20
-103.039931
 42
0.000000
 10
-165.052158
 20
-103.286941
 42
0.000000
 10
-165.127911
 20
-103.039931
 42
0.000000
 10
-167.910215
 20
-103.039931
 42
0.000000
 10
-169.276158
 20
-103.286941
 42
0.000000
 10
-169.351827
 20
-103.044731
 42
0.000000
 10
-172.134215
 20
-103.039931
 42
0.000000
 10
-173.500158
 20
-103.286941
 42
0.000000
 10
-173.575911
 20
-103.039931
 42
0.000000
 10
-176.358215
 20
-103.039931
 42
0.000000
 10
-177.724158
 20
-103.286941
 42
0.000000
 10
-177.799911
 20
-103.039931
 42
0.000000
 10
-180.582215
 20
-103.039931
 42
0.000000
 10
-181.948158
 20
-103.286941
 42
0.000000
 10
-182.023911
 20
-103.039931
 42
0.000000
 10
-184.806215
 20
-103.039931
 42
0.000000
 10
-186.172158
 20
-103.286941
 42
0.000000
 10
-186.247911
 20
-103.039931
 42
0.000000
 10
-189.030215
 20
-103.039931
 42
0.000000
 10
-190.396158
 20
-103.286941
 42
0.000000
 10
-190.471911
 20
-103.039931
 42
0.000000
 10
-193.254215
 20
-103.039931
 42
0.000000
 10
-194.458372
 20
-103.322364
 42
0.000000
 10
-194.917355
 20
-103.159932
 42
0.000000
 10
-195.894215
 20
-103.594188
 42
0.000000
 10
-196.134215
 20
-104.119931
 42
0.000000
 10
-196.902215
 20
-104.119931
 42
0.000000
 10
-198.420108
 20
-104.660899
 42
0.000000
 10
-199.253725
 20
-106.039931
 42
0.000000
 10
-201.000018
 20
-106.999931
 42
0.000000
 10
-199.253725
 20
-107.959931
 42
0.000000
 10
-198.420108
 20
-109.338964
 42
0.000000
 10
-197.157414
 20
-109.866325
 42
0.000000
 10
-196.134215
 20
-109.879931
 42
0.000000
 10
-195.894215
 20
-110.405675
 42
0.000000
 10
-195.142059
 20
-110.839931
 42
0.000000
 10
-194.692646
 20
-110.839931
 42
0.000000
 10
-194.458372
 20
-110.677499
 42
0.000000
 10
-193.254215
 20
-110.959931
 42
0.000000
 10
-190.471911
 20
-110.959931
 42
0.000000
 10
-190.396158
 20
-110.712922
 42
0.000000
 10
-189.030215
 20
-110.959931
 42
0.000000
 10
-186.247911
 20
-110.959931
 42
0.000000
 10
-186.172158
 20
-110.712922
 42
0.000000
 10
-184.806215
 20
-110.959931
 42
0.000000
 10
-182.023911
 20
-110.959931
 42
0.000000
 10
-181.948158
 20
-110.712922
 42
0.000000
 10
-180.582215
 20
-110.959931
 42
0.000000
 10
-177.799911
 20
-110.959931
 42
0.000000
 10
-177.724158
 20
-110.712922
 42
0.000000
 10
-176.358215
 20
-110.959931
 42
0.000000
 10
-173.575911
 20
-110.959931
 42
0.000000
 10
-173.500158
 20
-110.712922
 42
0.000000
 10
-172.134215
 20
-110.959931
 42
0.000000
 10
-169.351827
 20
-110.955131
 42
0.000000
 10
-169.276158
 20
-110.712922
 42
0.000000
 10
-167.910215
 20
-110.959931
 42
0.000000
 10
-165.127911
 20
-110.959931
 42
0.000000
 10
-165.052158
 20
-110.712922
 42
0.000000
 10
-163.686215
 20
-110.959931
 42
0.000000
 10
-160.903911
 20
-110.959931
 42
0.000000
 10
-160.828158
 20
-110.712922
 42
0.000000
 10
-159.462215
 20
-110.959931
 42
0.000000
 10
-97.000018
 20
-111.499931
 42
0.000000
 10
-91.000018
 20
-113.999931
 42
0.000000
 10
-67.500018
 20
-114.999931
 42
0.000000
 10
-63.750018
 20
-116.249931
 42
0.000000
 10
-62.500018
 20
-119.999931
 42
0.000000
 10
-62.500018
 20
-136.999931
 42
0.000000
  0
LWPOLYLINE
  5
568
100
AcDbEntity
  8
Detail
  6
CONTINUOUS
 62
     9
100
AcDbPolyline
 90
   203
 10
-201.000018
 20
-106.999931
 42
0.000000
 10
-198.886942
 20
-106.124667
 42
0.000000
 10
-198.385367
 20
-105.255913
 42
0.000000
 10
-197.996692
 20
-105.755913
 42
0.000000
 10
-196.916355
 20
-105.308423
 42
0.000000
 10
-196.414780
 20
-104.439669
 42
0.000000
 10
-196.026105
 20
-104.939669
 42
0.000000
 10
-195.447328
 20
-104.699931
 42
0.000000
 10
-194.846289
 20
-104.699931
 42
0.000000
 10
-194.557614
 20
-104.199931
 42
0.000000
 10
-194.168939
 20
-104.699931
 42
0.000000
 10
-193.036289
 20
-104.699931
 42
0.000000
 10
-192.747614
 20
-104.199931
 42
0.000000
 10
-192.358939
 20
-104.699931
 42
0.000000
 10
-191.226289
 20
-104.699931
 42
0.000000
 10
-190.937614
 20
-104.199931
 42
0.000000
 10
-190.548939
 20
-104.699931
 42
0.000000
 10
-189.416289
 20
-104.699931
 42
0.000000
 10
-189.127614
 20
-104.199931
 42
0.000000
 10
-188.738939
 20
-104.699931
 42
0.000000
 10
-187.606289
 20
-104.699931
 42
0.000000
 10
-187.317614
 20
-104.199931
 42
0.000000
 10
-186.928939
 20
-104.699931
 42
0.000000
 10
-185.796289
 20
-104.699931
 42
0.000000
 10
-185.507614
 20
-104.199931
 42
0.000000
 10
-185.118939
 20
-104.699931
 42
0.000000
 10
-183.986289
 20
-104.699931
 42
0.000000
 10
-183.697614
 20
-104.199931
 42
0.000000
 10
-183.308939
 20
-104.699931
 42
0.000000
 10
-182.176289
 20
-104.699931
 42
0.000000
 10
-181.887614
 20
-104.199931
 42
0.000000
 10
-181.498939
 20
-104.699931
 42
0.000000
 10
-180.366289
 20
-104.699931
 42
0.000000
 10
-180.077614
 20
-104.199931
 42
0.000000
 10
-179.688939
 20
-104.699931
 42
0.000000
 10
-178.556289
 20
-104.699931
 42
0.000000
 10
-178.267614
 20
-104.199931
 42
0.000000
 10
-177.878939
 20
-104.699931
 42
0.000000
 10
-176.746289
 20
-104.699931
 42
0.000000
 10
-176.457614
 20
-104.199931
 42
0.000000
 10
-176.068939
 20
-104.699931
 42
0.000000
 10
-174.936289
 20
-104.699931
 42
0.000000
 10
-174.647614
 20
-104.199931
 42
0.000000
 10
-174.258939
 20
-104.699931
 42
0.000000
 10
-173.126289
 20
-104.699931
 42
0.000000
 10
-172.837614
 20
-104.199931
 42
0.000000
 10
-172.448939
 20
-104.699931
 42
0.000000
 10
-171.316289
 20
-104.699931
 42
0.000000
 10
-171.027614
 20
-104.199931
 42
0.000000
 10
-170.638939
 20
-104.699931
 42
0.000000
 10
-169.506289
 20
-104.699931
 42
0.000000
 10
-169.217614
 20
-104.199931
 42
0.000000
 10
-168.828939
 20
-104.699931
 42
0.000000
 10
-167.696289
 20
-104.699931
 42
0.000000
 10
-167.407614
 20
-104.199931
 42
0.000000
 10
-167.018939
 20
-104.699931
 42
0.000000
 10
-165.886289
 20
-104.699931
 42
0.000000
 10
-165.597614
 20
-104.199931
 42
0.000000
 10
-165.186425
 20
-104.699931
 42
0.000000
 10
-164.076289
 20
-104.699931
 42
0.000000
 10
-163.787614
 20
-104.199931
 42
0.000000
 10
-163.398939
 20
-104.699931
 42
0.000000
 10
-162.266289
 20
-104.699931
 42
0.000000
 10
-161.977614
 20
-104.199931
 42
0.000000
 10
-161.588939
 20
-104.699931
 42
0.000000
 10
-160.456289
 20
-104.699931
 42
0.000000
 10
-160.167614
 20
-104.199931
 42
0.000000
 10
-159.778939
 20
-104.699931
 42
0.000000
 10
-158.646289
 20
-104.699931
 42
0.000000
 10
-158.357614
 20
-104.199931
 42
0.000000
 10
-157.968939
 20
-104.699931
 42
0.000000
 10
-156.836289
 20
-104.699931
 42
0.000000
 10
-156.547614
 20
-104.199931
 42
0.000000
 10
-156.158939
 20
-104.699931
 42
0.000000
 10
-155.026289
 20
-104.699931
 42
0.000000
 10
-154.737614
 20
-104.199931
 42
0.000000
 10
-154.348939
 20
-104.699931
 42
0.000000
 10
-153.216289
 20
-104.699931
 42
0.000000
 10
-152.927614
 20
-104.199931
 42
0.000000
 10
-152.538939
 20
-104.699931
 42
0.000000
 10
-151.406289
 20
-104.699931
 42
0.000000
 10
-151.117614
 20
-104.199931
 42
0.000000
 10
-150.728939
 20
-104.699931
 42
0.000000
 10
-149.596289
 20
-104.699931
 42
0.000000
 10
-149.307614
 20
-104.199931
 42
0.000000
 10
-148.918939
 20
-104.699931
 42
0.000000
 10
-147.786289
 20
-104.699931
 42
0.000000
 10
-147.497614
 20
-104.199931
 42
0.000000
 10
-147.108939
 20
-104.699931
 42
0.000000
 10
-145.976289
 20
-104.699931
 42
0.000000
 10
-145.687614
 20
-104.199931
 42
0.000000
 10
-145.298939
 20
-104.699931
 42
0.000000
 10
-144.166289
 20
-104.699931
 42
0.000000
 10
-143.877614
 20
-104.199931
 42
0.000000
 10
-143.488939
 20
-104.699931
 42
0.000000
 10
-142.356289
 20
-104.699931
 42
0.000000
 10
-142.067614
 20
-104.199931
 42
0.000000
 10
-141.678939
 20
-104.699931
 42
0.000000
 10
-141.000018
 20
-104.699931
 42
0.000000
 10
-140.826813
 20
-104.599931
 42
0.000000
 10
-97.000018
 20
-102.499931
 42
0.000000
 10
-97.000018
 20
-111.499931
 42
0.000000
 10
-140.826813
 20
-109.399931
 42
0.000000
 10
-141.000018
 20
-109.299931
 42
0.000000
 10
-141.162614
 20
-109.799931
 42
0.000000
 10
-141.451289
 20
-109.299931
 42
0.000000
 10
-142.583939
 20
-109.299931
 42
0.000000
 10
-142.972614
 20
-109.799931
 42
0.000000
 10
-143.261289
 20
-109.299931
 42
0.000000
 10
-144.393939
 20
-109.299931
 42
0.000000
 10
-144.782614
 20
-109.799931
 42
0.000000
 10
-145.071289
 20
-109.299931
 42
0.000000
 10
-146.203939
 20
-109.299931
 42
0.000000
 10
-146.592614
 20
-109.799931
 42
0.000000
 10
-146.881289
 20
-109.299931
 42
0.000000
 10
-148.013939
 20
-109.299931
 42
0.000000
 10
-148.402614
 20
-109.799931
 42
0.000000
 10
-148.691289
 20
-109.299931
 42
0.000000
 10
-149.823939
 20
-109.299931
 42
0.000000
 10
-150.212614
 20
-109.799931
 42
0.000000
 10
-150.501289
 20
-109.299931
 42
0.000000
 10
-151.633939
 20
-109.299931
 42
0.000000
 10
-152.022614
 20
-109.799931
 42
0.000000
 10
-152.311289
 20
-109.299931
 42
0.000000
 10
-153.443939
 20
-109.299931
 42
0.000000
 10
-153.832614
 20
-109.799931
 42
0.000000
 10
-154.121289
 20
-109.299931
 42
0.000000
 10
-155.253939
 20
-109.299931
 42
0.000000
 10
-155.642614
 20
-109.799931
 42
0.000000
 10
-155.931289
 20
-109.299931
 42
0.000000
 10
-157.063939
 20
-109.299931
 42
0.000000
 10
-157.452614
 20
-109.799931
 42
0.000000
 10
-157.741289
 20
-109.299931
 42
0.000000
 10
-158.873939
 20
-109.299931
 42
0.000000
 10
-159.262614
 20
-109.799931
 42
0.000000
 10
-159.551289
 20
-109.299931
 42
0.000000
 10
-160.683939
 20
-109.299931
 42
0.000000
 10
-161.072614
 20
-109.799931
 42
0.000000
 10
-161.361289
 20
-109.299931
 42
0.000000
 10
-162.493939
 20
-109.299931
 42
0.000000
 10
-162.882614
 20
-109.799931
 42
0.000000
 10
-163.171289
 20
-109.299931
 42
0.000000
 10
-164.303939
 20
-109.299931
 42
0.000000
 10
-164.692614
 20
-109.799931
 42
0.000000
 10
-164.981289
 20
-109.299931
 42
0.000000
 10
-166.113939
 20
-109.299931
 42
0.000000
 10
-166.502614
 20
-109.799931
 42
0.000000
 10
-166.791289
 20
-109.299931
 42
0.000000
 10
-167.923939
 20
-109.299931
 42
0.000000
 10
-168.312614
 20
-109.799931
 42
0.000000
 10
-168.601289
 20
-109.299931
 42
0.000000
 10
-169.733939
 20
-109.299931
 42
0.000000
 10
-170.122614
 20
-109.799931
 42
0.000000
 10
-170.411289
 20
-109.299931
 42
0.000000
 10
-171.543939
 20
-109.299931
 42
0.000000
 10
-171.932614
 20
-109.799931
 42
0.000000
 10
-172.221289
 20
-109.299931
 42
0.000000
 10
-173.353939
 20
-109.299931
 42
0.000000
 10
-173.742614
 20
-109.799931
 42
0.000000
 10
-174.031289
 20
-109.299931
 42
0.000000
 10
-175.163939
 20
-109.299931
 42
0.000000
 10
-175.552614
 20
-109.799931
 42
0.000000
 10
-175.841289
 20
-109.299931
 42
0.000000
 10
-176.973939
 20
-109.299931
 42
0.000000
 10
-177.362614
 20
-109.799931
 42
0.000000
 10
-177.651289
 20
-109.299931
 42
0.000000
 10
-178.783939
 20
-109.299931
 42
0.000000
 10
-179.172614
 20
-109.799931
 42
0.000000
 10
-179.461289
 20
-109.299931
 42
0.000000
 10
-180.593939
 20
-109.299931
 42
0.000000
 10
-180.982614
 20
-109.799931
 42
0.000000
 10
-181.271289
 20
-109.299931
 42
0.000000
 10
-182.403939
 20
-109.299931
 42
0.000000
 10
-182.792614
 20
-109.799931
 42
0.000000
 10
-183.081289
 20
-109.299931
 42
0.000000
 10
-184.213939
 20
-109.299931
 42
0.000000
 10
-184.602614
 20
-109.799931
 42
0.000000
 10
-184.891289
 20
-109.299931
 42
0.000000
 10
-186.023939
 20
-109.299931
 42
0.000000
 10
-186.412614
 20
-109.799931
 42
0.000000
 10
-186.701289
 20
-109.299931
 42
0.000000
 10
-187.833939
 20
-109.299931
 42
0.000000
 10
-188.222614
 20
-109.799931
 42
0.000000
 10
-188.511289
 20
-109.299931
 42
0.000000
 10
-189.643939
 20
-109.299931
 42
0.000000
 10
-190.032614
 20
-109.799931
 42
0.000000
 10
-190.321289
 20
-109.299931
 42
0.000000
 10
-191.453939
 20
-109.299931
 42
0.000000
 10
-191.842614
 20
-109.799931
 42
0.000000
 10
-192.131289
 20
-109.299931
 42
0.000000
 10
-193.263939
 20
-109.299931
 42
0.000000
 10
-193.652614
 20
-109.799931
 42
0.000000
 10
-193.941289
 20
-109.299931
 42
0.000000
 10
-195.073939
 20
-109.299931
 42
0.000000
 10
-195.462614
 20
-109.799931
 42
0.000000
 10
-195.846829
 20
-109.134452
 42
0.000000
 10
-196.775689
 20
-108.749706
 42
0.000000
 10
-197.164364
 20
-109.249706
 42
0.000000
 10
-197.665938
 20
-108.380952
 42
0.000000
 10
-198.449302
 20
-108.056472
 42
0.000000
 10
-198.837977
 20
-108.556472
 42
0.000000
 10
-199.339552
 20
-107.687719
 42
0.000000
 10
-201.000018
 20
-106.999931
 42
0.000000
  0
ENDBLK
  5
634
100
AcDbEntity
  8
0
100
AcDbBlockEnd
  0
BLOCK
  5
635
100
AcDbEntity
  8
Detail
100
AcDbBlockBegin
  2
B-57
 70
    66
 10
0.000000
 20
0.000000
 30
0.000000
  0
MTEXT
  5
636
100
AcDbEntity
  8
Detail
 62
     7
100
AcDbMText
 10
-211.093768
 20
-225.937528
 30
0.000000
 40
3.749990
 41
353.428963
 71
     7
 72
     5
  1
Capatect Details sind allgemeine planerische Vorschläge. Sie stellen schematisch die Ausführung dar. Ihnen zugrunde liegen die entsprechenden 
  7
Arial
 50
0.000000
  0
MTEXT
  5
637
100
AcDbEntity
  8
Detail
 62
     7
100
AcDbMText
 10
-211.093768
 20
-231.562513
 30
0.000000
 40
3.749990
 41
392.764473
 71
     7
 72
     5
  1
Produktdatenblätter sowie Systemzulassungen. Die Möglichkeit der Detailanwendung sowie deren Vollständigkeit sind im speziellen Anwendungsfall vom Planer / 
  7
Arial
 50
0.000000
  0
MTEXT
  5
638
100
AcDbEntity
  8
Detail
 62
     7
100
AcDbMText
 10
-211.093768
 20
-237.187498
 30
0.000000
 40
3.749990
 41
107.887184
 71
     7
 72
     5
  1
Unternehmer eigenverantwortlich zu prüfen. 
  7
Arial
 50
0.000000
  0
ENDBLK
  5
639
100
AcDbEntity
  8
0
100
AcDbBlockEnd
  0
BLOCK
  5
63A
100
AcDbEntity
  8
Detail
100
AcDbBlockBegin
  2
B-58
 70
    66
 10
0.000000
 20
0.000000
 30
0.000000
  0
LWPOLYLINE
  5
63B
100
AcDbEntity
  8
Detail
  6
CONTINUOUS
 62
     6
100
AcDbPolyline
 90
     2
 10
237.500023
 20
-246.249941
 42
0.000000
 10
-237.500018
 20
-246.249941
 42
0.000000
  0
ENDBLK
  5
63E
100
AcDbEntity
  8
0
100
AcDbBlockEnd
  0
BLOCK
  5
63F
100
AcDbEntity
  8
Detail
100
AcDbBlockBegin
  2
B-59
 70
    66
 10
0.000000
 20
0.000000
 30
0.000000
  0
MTEXT
  5
640
100
AcDbEntity
  8
Detail
 62
     7
100
AcDbMText
 10
-210.625002
 20
-252.656291
 30
0.000000
 40
5.625000
 41
144.880313
 71
     1
 72
     5
  1
System:	WDVS mit Hartbekleidung 
  7
Arial
 50
0.000000
  0
ENDBLK
  5
641
100
AcDbEntity
  8
0
100
AcDbBlockEnd
  0
BLOCK
  5
642
100
AcDbEntity
  8
Detail
100
AcDbBlockBegin
  2
B-60
 70
    66
 10
0.000000
 20
0.000000
 30
0.000000
  0
MTEXT
  5
643
100
AcDbEntity
  8
Detail
 62
     7
100
AcDbMText
 10
-210.625002
 20
-295.781291
 30
0.000000
 40
5.625000
 41
99.343125
 71
     7
 72
     5
  1
Detail:	Fläche mit Dehnfuge
  7
Arial
 50
0.000000
  0
MTEXT
  5
644
100
AcDbEntity
  8
Detail
 62
     7
100
AcDbMText
 10
-210.625002
 20
-304.218791
 30
0.000000
 40
5.625000
 41
89.775000
 71
     7
 72
     5
  1
	(Horizontalschnitt)
  7
Arial
 50
0.000000
  0
ENDBLK
  5
645
100
AcDbEntity
  8
0
100
AcDbBlockEnd
  0
BLOCK
  5
646
100
AcDbEntity
  8
Detail
100
AcDbBlockBegin
  2
B-61
 70
    66
 10
0.000000
 20
0.000000
 30
0.000000
  0
MTEXT
  5
647
100
AcDbEntity
  8
Detail
 62
     7
100
AcDbMText
 10
6.314834
 20
-252.500041
 30
0.000000
 40
5.000000
 41
93.712500
 71
     1
 72
     5
  1
Plannummer:	125-1310
  7
Arial
 50
0.000000
  0
ENDBLK
  5
648
100
AcDbEntity
  8
0
100
AcDbBlockEnd
  0
BLOCK
  5
649
100
AcDbEntity
  8
Detail
100
AcDbBlockBegin
  2
B-62
 70
    66
 10
0.000000
 20
0.000000
 30
0.000000
  0
MTEXT
  5
64A
100
AcDbEntity
  8
Detail
 62
     7
100
AcDbMText
 10
6.314834
 20
-277.500041
 30
0.000000
 40
5.000000
 41
91.035000
 71
     1
 72
     5
  1
Massstab:		ca. 1:2,5
  7
Arial
 50
0.000000
  0
ENDBLK
  5
64B
100
AcDbEntity
  8
0
100
AcDbBlockEnd
  0
BLOCK
  5
64C
100
AcDbEntity
  8
Detail
100
AcDbBlockBegin
  2
B-63
 70
    66
 10
0.000000
 20
0.000000
 30
0.000000
  0
MTEXT
  5
64D
100
AcDbEntity
  8
Detail
 62
     7
100
AcDbMText
 10
6.314834
 20
-302.500041
 30
0.000000
 40
5.000000
 41
99.435000
 71
     1
 72
     5
  1
Aktualisierung:	14.07.2016
  7
Arial
 50
0.000000
  0
ENDBLK
  5
64E
100
AcDbEntity
  8
0
100
AcDbBlockEnd
  0
BLOCK
  5
64F
100
AcDbEntity
  8
Detail
100
AcDbBlockBegin
  2
B-64
 70
    66
 10
0.000000
 20
0.000000
 30
0.000000
  0
LWPOLYLINE
  5
650
100
AcDbEntity
  8
Detail
  6
CONTINUOUS
 62
     6
100
AcDbPolyline
 90
     2
 10
-20.560166
 20
-321.249941
 42
0.000000
 10
-20.560166
 20
-246.249941
 42
0.000000
  0
LWPOLYLINE
  5
653
100
AcDbEntity
  8
Detail
  6
CONTINUOUS
 62
     6
100
AcDbPolyline
 90
     2
 10
-237.500018
 20
-321.249941
 42
0.000000
 10
120.969928
 20
-321.249941
 42
0.000000
  0
LWPOLYLINE
  5
656
100
AcDbEntity
  8
Detail
  6
CONTINUOUS
 62
     6
100
AcDbPolyline
 90
     2
 10
-20.560166
 20
-271.249941
 42
0.000000
 10
120.969928
 20
-271.249941
 42
0.000000
  0
LWPOLYLINE
  5
659
100
AcDbEntity
  8
Detail
  6
CONTINUOUS
 62
     6
100
AcDbPolyline
 90
     2
 10
-20.560166
 20
-296.249941
 42
0.000000
 10
120.969928
 20
-296.249941
 42
0.000000
  0
ENDBLK
  5
65C
100
AcDbEntity
  8
0
100
AcDbBlockEnd
  0
BLOCK
  5
65D
100
AcDbEntity
  8
Detail
100
AcDbBlockBegin
  2
B-65
 70
    66
 10
0.000000
 20
0.000000
 30
0.000000
  0
LWPOLYLINE
  5
65E
100
AcDbEntity
  8
Detail
  6
CONTINUOUS
 62
     6
100
AcDbPolyline
 90
     2
 10
-20.560166
 20
-283.749941
 42
0.000000
 10
-237.500018
 20
-283.749941
 42
0.000000
  0
ENDBLK
  5
661
100
AcDbEntity
  8
0
100
AcDbBlockEnd
  0
BLOCK
  5
662
100
AcDbEntity
  8
Detail
100
AcDbBlockBegin
  2
B-66
 70
    66
 10
0.000000
 20
0.000000
 30
0.000000
  0
MTEXT
  5
663
100
AcDbEntity
  8
Detail
 62
     7
100
AcDbMText
 10
-85.625009
 20
-332.500016
 30
0.000000
 40
4.999980
 41
72.134711
 71
     7
 72
     5
  1
Telefon 043 399 42 22
  7
Arial
 50
0.000000
  0
MTEXT
  5
664
100
AcDbEntity
  8
Detail
 62
     7
100
AcDbMText
 10
-85.625009
 20
-339.999986
 30
0.000000
 40
4.999980
 41
71.767213
 71
     7
 72
     5
  1
Telefax 043 399 42 23
  7
Arial
 50
0.000000
  0
ENDBLK
  5
665
100
AcDbEntity
  8
0
100
AcDbBlockEnd
  0
BLOCK
  5
666
100
AcDbEntity
  8
Detail
100
AcDbBlockBegin
  2
B-67
 70
    66
 10
0.000000
 20
0.000000
 30
0.000000
  0
MTEXT
  5
667
100
AcDbEntity
  8
Detail
 62
     7
100
AcDbMText
 10
39.374992
 20
-332.500019
 30
0.000000
 40
4.999982
 41
51.922313
 71
     7
 72
     5
  1
info@daw.swiss
  7
Arial
 50
0.000000
  0
MTEXT
  5
668
100
AcDbEntity
  8
Detail
 62
     7
100
AcDbMText
 10
39.374992
 20
-339.999993
 30
0.000000
 40
4.999982
 41
54.599803
 71
     7
 72
     5
  1
www.capatect.ch
  7
Arial
 50
0.000000
  0
ENDBLK
  5
669
100
AcDbEntity
  8
0
100
AcDbBlockEnd
  0
BLOCK
  5
66A
100
AcDbEntity
  8
Detail
100
AcDbBlockBegin
  2
B-68
 70
    66
 10
0.000000
 20
0.000000
 30
0.000000
  0
LWPOLYLINE
  5
66B
100
AcDbEntity
  8
Detail
  6
CONTINUOUS
 62
     6
100
AcDbPolyline
 90
     2
 10
120.969928
 20
-346.249941
 42
0.000000
 10
120.969928
 20
-246.249941
 42
0.000000
  0
ENDBLK
  5
66E
100
AcDbEntity
  8
0
100
AcDbBlockEnd
  0
BLOCK
  5
66F
100
AcDbEntity
  8
Detail
100
AcDbBlockBegin
  2
B-69
 70
    66
 10
0.000000
 20
0.000000
 30
0.000000
  0
LWPOLYLINE
  5
670
100
AcDbEntity
  8
Detail
  6
CONTINUOUS
 62
     6
100
AcDbPolyline
 90
     5
 10
-237.500018
 20
-346.249941
 42
0.000000
 10
237.500023
 20
-346.249941
 42
0.000000
 10
237.500023
 20
346.250078
 42
0.000000
 10
-237.500018
 20
346.250078
 42
0.000000
 10
-237.500018
 20
-346.249941
 42
0.000000
  0
ENDBLK
  5
676
100
AcDbEntity
  8
0
100
AcDbBlockEnd
  0
BLOCK
  5
677
100
AcDbEntity
  8
SCHRAFF
100
AcDbBlockBegin
  2
B-70
 70
    66
 10
0.000000
 20
0.000000
 30
0.000000
  0
HATCH
  5
678
100
AcDbEntity
  8
SCHRAFF
 62
   161
440
     0
100
AcDbHatch
 10
0.000000
 20
0.000000
 30
0.000000
210
0.000000
220
0.000000
230
1.000000
  2
SOLID
 70
     1
 71
     1
 91
     1
 92
    18
 72
     1
 73
     0
 93
     5
 10
-55.500018
 20
55.000069
 42
0.000000
 10
-47.500018
 20
55.000069
 42
0.000000
 10
-47.500018
 20
255.000019
 42
0.000000
 10
-55.500018
 20
255.000019
 42
0.000000
 10
-55.500018
 20
55.000069
 42
0.000000
 97
     0
 75
     0
 76
     1
 98
     0
  0
HATCH
  5
679
100
AcDbEntity
  8
SCHRAFF
 62
   161
440
     0
100
AcDbHatch
 10
0.000000
 20
0.000000
 30
0.000000
210
0.000000
220
0.000000
230
1.000000
  2
SOLID
 70
     1
 71
     1
 91
     1
 92
    18
 72
     1
 73
     0
 93
     5
 10
-55.500018
 20
265.000019
 42
0.000000
 10
-47.500018
 20
265.000019
 42
0.000000
 10
-47.500018
 20
296.250078
 42
0.000000
 10
-55.500018
 20
296.250078
 42
0.000000
 10
-55.500018
 20
265.000019
 42
0.000000
 97
     0
 75
     0
 76
     1
 98
     0
  0
ENDBLK
  5
67A
100
AcDbEntity
  8
0
100
AcDbBlockEnd
  0
BLOCK
  5
67B
100
AcDbEntity
  8
Detail
100
AcDbBlockBegin
  2
B-71
 70
    66
 10
0.000000
 20
0.000000
 30
0.000000
  0
LWPOLYLINE
  5
67C
100
AcDbEntity
  8
Detail
  6
CONTINUOUS
 62
     3
100
AcDbPolyline
 90
     4
 10
-55.500018
 20
296.250078
 42
0.000000
 10
-55.500018
 20
265.000019
 42
0.000000
 10
-47.500018
 20
265.000019
 42
0.000000
 10
-47.500018
 20
296.250078
 42
0.000000
  0
ENDBLK
  5
681
100
AcDbEntity
  8
0
100
AcDbBlockEnd
  0
BLOCK
  5
682
100
AcDbEntity
  8
Detail
100
AcDbBlockBegin
  2
B-72
 70
    66
 10
0.000000
 20
0.000000
 30
0.000000
  0
LWPOLYLINE
  5
683
100
AcDbEntity
  8
Detail
  6
CONTINUOUS
 62
     6
100
AcDbPolyline
 90
     4
 10
-61.500018
 20
296.250078
 42
0.000000
 10
-61.500018
 20
55.000069
 42
0.000000
 10
-59.500018
 20
55.000069
 42
0.000000
 10
-59.500018
 20
296.250078
 42
0.000000
  0
ENDBLK
  5
688
100
AcDbEntity
  8
0
100
AcDbBlockEnd
  0
BLOCK
  5
689
100
AcDbEntity
  8
Detail
100
AcDbBlockBegin
  2
B-73
 70
    66
 10
0.000000
 20
0.000000
 30
0.000000
  0
LWPOLYLINE
  5
68A
100
AcDbEntity
  8
Detail
  6
CONTINUOUS
 62
     3
100
AcDbPolyline
 90
     5
 10
-47.500018
 20
55.000069
 42
0.000000
 10
-55.500018
 20
55.000069
 42
0.000000
 10
-55.500018
 20
255.000019
 42
0.000000
 10
-47.500018
 20
255.000019
 42
0.000000
 10
-47.500018
 20
55.000069
 42
0.000000
  0
ENDBLK
  5
690
100
AcDbEntity
  8
0
100
AcDbBlockEnd
  0
BLOCK
  5
691
100
AcDbEntity
  8
Detail
100
AcDbBlockBegin
  2
B-74
 70
    66
 10
0.000000
 20
0.000000
 30
0.000000
  0
LWPOLYLINE
  5
692
100
AcDbEntity
  8
Detail
  6
CONTINUOUS
 62
     6
100
AcDbPolyline
 90
     4
 10
-59.500018
 20
296.250078
 42
0.000000
 10
-59.500018
 20
55.000069
 42
0.000000
 10
-55.500018
 20
55.000069
 42
0.000000
 10
-55.500018
 20
296.250078
 42
0.000000
  0
ENDBLK
  5
697
100
AcDbEntity
  8
0
100
AcDbBlockEnd
  0
BLOCK
  5
698
100
AcDbEntity
  8
Detail
100
AcDbBlockBegin
  2
B-75
 70
    66
 10
0.000000
 20
0.000000
 30
0.000000
  0
LWPOLYLINE
  5
699
100
AcDbEntity
  8
Detail
  6
CONTINUOUS
 62
     7
100
AcDbPolyline
 90
     4
 10
77.500022
 20
150.000119
 42
0.000000
 10
-22.500018
 20
150.000121
 42
0.000000
 10
-22.500018
 20
260.000019
 42
0.000000
 10
-52.500018
 20
260.000019
 42
0.000000
  0
ENDBLK
  5
69E
100
AcDbEntity
  8
0
100
AcDbBlockEnd
  0
BLOCK
  5
69F
100
AcDbEntity
  8
Detail
100
AcDbBlockBegin
  2
B-76
 70
    66
 10
0.000000
 20
0.000000
 30
0.000000
  0
LWPOLYLINE
  5
6A0
100
AcDbEntity
  8
Detail
  6
CONTINUOUS
 62
     7
100
AcDbPolyline
 90
     2
 10
77.500023
 20
125.000121
 42
0.000000
 10
-61.000018
 20
125.000121
 42
0.000000
  0
ENDBLK
  5
6A3
100
AcDbEntity
  8
0
100
AcDbBlockEnd
  0
BLOCK
  5
6A4
100
AcDbEntity
  8
Detail
100
AcDbBlockBegin
  2
B-77
 70
    66
 10
0.000000
 20
0.000000
 30
0.000000
  0
LWPOLYLINE
  5
6A5
100
AcDbEntity
  8
Detail
  6
CONTINUOUS
 62
     7
100
AcDbPolyline
 90
     3
 10
77.500022
 20
100.000119
 42
0.000000
 10
-110.000018
 20
100.000119
 42
0.000000
 10
-110.000018
 20
50.000069
 42
0.000000
  0
ENDBLK
  5
6A9
100
AcDbEntity
  8
0
100
AcDbBlockEnd
  0
BLOCK
  5
6AA
100
AcDbEntity
  8
Detail
100
AcDbBlockBegin
  2
B-78
 70
    66
 10
0.000000
 20
0.000000
 30
0.000000
  0
LWPOLYLINE
  5
6AB
100
AcDbEntity
  8
Detail
  6
CONTINUOUS
 62
     7
100
AcDbPolyline
 90
     2
 10
77.500022
 20
50.000119
 42
0.000000
 10
-60.500018
 20
50.000071
 42
0.000000
  0
ENDBLK
  5
6AE
100
AcDbEntity
  8
0
100
AcDbBlockEnd
  0
BLOCK
  5
6AF
100
AcDbEntity
  8
Detail
100
AcDbBlockBegin
  2
B-79
 70
    66
 10
0.000000
 20
0.000000
 30
0.000000
  0
LWPOLYLINE
  5
6B0
100
AcDbEntity
  8
Detail
  6
CONTINUOUS
 62
     7
100
AcDbPolyline
 90
     2
 10
77.500023
 20
-99.999881
 42
0.000000
 10
-51.500018
 20
-99.999882
 42
0.000000
  0
LWPOLYLINE
  5
6B3
100
AcDbEntity
  8
Detail
  6
CONTINUOUS
 62
     7
100
AcDbPolyline
 90
     2
 10
77.500023
 20
-74.999881
 42
0.000000
 10
-57.500018
 20
-74.999882
 42
0.000000
  0
LWPOLYLINE
  5
6B6
100
AcDbEntity
  8
Detail
  6
CONTINUOUS
 62
     7
100
AcDbPolyline
 90
     2
 10
77.500023
 20
-49.999882
 42
0.000000
 10
-60.500018
 20
-49.999882
 42
0.000000
  0
LWPOLYLINE
  5
6B9
100
AcDbEntity
  8
Detail
  6
CONTINUOUS
 62
     7
100
AcDbPolyline
 90
     2
 10
77.500023
 20
-24.999882
 42
0.000000
 10
-64.500018
 20
-24.999882
 42
0.000000
  0
ENDBLK
  5
6BC
100
AcDbEntity
  8
0
100
AcDbBlockEnd
  0
BLOCK
  5
6BD
100
AcDbEntity
  8
Detail
100
AcDbBlockBegin
  2
B-80
 70
    66
 10
0.000000
 20
0.000000
 30
0.000000
  0
LWPOLYLINE
  5
6BE
100
AcDbEntity
  8
Detail
  6
CONTINUOUS
 62
     7
100
AcDbPolyline
 90
     2
 10
77.500024
 20
0.000119
 42
0.000000
 10
-107.500018
 20
0.000118
 42
0.000000
  0
ENDBLK
  5
6C1
100
AcDbEntity
  8
0
100
AcDbBlockEnd
  0
BLOCK
  5
6C2
100
AcDbEntity
  8
Detail
100
AcDbBlockBegin
  2
B-81
 70
    66
 10
0.000000
 20
0.000000
 30
0.000000
  0
LWPOLYLINE
  5
6C3
100
AcDbEntity
  8
Detail
  6
CONTINUOUS
 62
     7
100
AcDbPolyline
 90
     2
 10
77.500023
 20
75.000119
 42
0.000000
 10
-66.500018
 20
75.000119
 42
0.000000
  0
ENDBLK
  5
6C6
100
AcDbEntity
  8
0
100
AcDbBlockEnd
  0
BLOCK
  5
6C7
100
AcDbEntity
  8
L
100
AcDbBlockBegin
  2
B-82
 70
    66
 10
0.000000
 20
0.000000
 30
0.000000
  0
LWPOLYLINE
  5
6C8
100
AcDbEntity
  8
L
  6
CONTINUOUS
 62
     2
100
AcDbPolyline
 90
     3
 10
-212.500018
 20
57.000069
 42
0.000000
 10
-152.500018
 20
57.000069
 42
0.000000
 10
-152.500018
 20
296.250078
 42
0.000000
  0
ENDBLK
  5
6CC
100
AcDbEntity
  8
0
100
AcDbBlockEnd
  0
BLOCK
  5
6CD
100
AcDbEntity
  8
SCHRAFF
100
AcDbBlockBegin
  2
B-83
 70
    66
 10
0.000000
 20
0.000000
 30
0.000000
  0
HATCH
  5
6CE
100
AcDbEntity
  8
SCHRAFF
  6
CONTINUOUS
 62
     9
100
AcDbHatch
 10
0.000000
 20
0.000000
 30
0.000000
210
0.000000
220
0.000000
230
1.000000
  2
_U
 70
     0
 71
     1
 91
     1
 92
    18
 72
     1
 73
     0
 93
     5
 10
-152.500018
 20
57.000069
 42
0.000000
 10
-152.500018
 20
296.250078
 42
0.000000
 10
-212.500018
 20
296.250078
 42
0.000000
 10
-212.500018
 20
57.000069
 42
0.000000
 10
-152.500018
 20
57.000069
 42
0.000000
 97
     0
 75
     0
 76
     0
 52
0.000000
 41
1.000000
 77
     0
 78
     1
 53
45.000000
 43
-0.000000
 44
0.000000
 45
-17.677670
 46
17.677669
 79
     0
 98
     0
  0
ENDBLK
  5
6CF
100
AcDbEntity
  8
0
100
AcDbBlockEnd
  0
BLOCK
  5
6D0
100
AcDbEntity
  8
L
100
AcDbBlockBegin
  2
B-84
 70
    66
 10
0.000000
 20
0.000000
 30
0.000000
  0
LWPOLYLINE
  5
6D1
100
AcDbEntity
  8
L
  6
CONTINUOUS
 62
     2
100
AcDbPolyline
 90
     3
 10
-212.500018
 20
43.000069
 42
0.000000
 10
-152.500018
 20
43.000069
 42
0.000000
 10
-152.500018
 20
-196.249941
 42
0.000000
  0
ENDBLK
  5
6D5
100
AcDbEntity
  8
0
100
AcDbBlockEnd
  0
BLOCK
  5
6D6
100
AcDbEntity
  8
SCHRAFF
100
AcDbBlockBegin
  2
B-85
 70
    66
 10
0.000000
 20
0.000000
 30
0.000000
  0
HATCH
  5
6D7
100
AcDbEntity
  8
SCHRAFF
  6
CONTINUOUS
 62
     9
100
AcDbHatch
 10
0.000000
 20
0.000000
 30
0.000000
210
0.000000
220
0.000000
230
1.000000
  2
_U
 70
     0
 71
     1
 91
     1
 92
    18
 72
     1
 73
     0
 93
     5
 10
-152.500018
 20
43.000069
 42
0.000000
 10
-152.500018
 20
-196.249941
 42
0.000000
 10
-212.500018
 20
-196.249941
 42
0.000000
 10
-212.500018
 20
43.000069
 42
0.000000
 10
-152.500018
 20
43.000069
 42
0.000000
 97
     0
 75
     0
 76
     0
 52
0.000000
 41
1.000000
 77
     0
 78
     1
 53
45.000000
 43
-0.000000
 44
0.000000
 45
-17.677670
 46
17.677669
 79
     0
 98
     0
  0
ENDBLK
  5
6D8
100
AcDbEntity
  8
0
100
AcDbBlockEnd
  0
BLOCK
  5
6D9
100
AcDbEntity
  8
L
100
AcDbBlockBegin
  2
B-86
 70
    66
 10
0.000000
 20
0.000000
 30
0.000000
  0
LWPOLYLINE
  5
6DA
100
AcDbEntity
  8
L
  6
CONTINUOUS
 62
     3
100
AcDbPolyline
 90
     4
 10
-212.500018
 20
45.000069
 42
0.000000
 10
-152.500018
 20
45.000069
 42
0.000000
 10
-152.500018
 20
55.000069
 42
0.000000
 10
-212.500018
 20
55.000069
 42
0.000000
  0
ENDBLK
  5
6DF
100
AcDbEntity
  8
0
100
AcDbBlockEnd
  0
BLOCK
  5
6E0
100
AcDbEntity
  8
L
100
AcDbBlockBegin
  2
B-87
 70
    66
 10
0.000000
 20
0.000000
 30
0.000000
  0
LWPOLYLINE
  5
6E1
100
AcDbEntity
  8
L
  6
CONTINUOUS
 62
     3
100
AcDbPolyline
 90
     5
 10
-67.500018
 20
45.000069
 42
0.000000
 10
-152.500018
 20
45.000069
 42
0.000000
 10
-152.500018
 20
55.000069
 42
0.000000
 10
-67.500018
 20
55.000069
 42
0.000000
 10
-67.500018
 20
45.000069
 42
0.000000
  0
ENDBLK
  5
6E7
100
AcDbEntity
  8
0
100
AcDbBlockEnd
  0
BLOCK
  5
6E8
100
AcDbEntity
  8
Detail
100
AcDbBlockBegin
  2
B-88
 70
    66
 10
0.000000
 20
0.000000
 30
0.000000
  0
LWPOLYLINE
  5
6E9
100
AcDbEntity
  8
Detail
  6
CONTINUOUS
 62
     9
100
AcDbPolyline
 90
     2
 10
-91.000018
 20
132.000121
 42
0.000000
 10
-91.000018
 20
118.020708
 42
0.000000
  0
LWPOLYLINE
  5
6EC
100
AcDbEntity
  8
Detail
  6
CONTINUOUS
 62
     9
100
AcDbPolyline
 90
    83
 10
-62.500018
 20
95.000121
 42
0.000000
 10
-62.000018
 20
95.000121
 42
0.000000
 10
-61.000018
 20
100.000121
 42
0.000000
 10
-61.000018
 20
150.000121
 42
0.000000
 10
-62.000018
 20
155.000121
 42
0.000000
 10
-62.500018
 20
155.000121
 42
0.000000
 10
-62.500018
 20
138.000121
 42
0.000000
 10
-63.750018
 20
134.250121
 42
0.000000
 10
-67.500018
 20
133.000121
 42
0.000000
 10
-91.000018
 20
132.000121
 42
0.000000
 10
-97.000018
 20
129.500121
 42
0.000000
 10
-159.462215
 20
128.960121
 42
0.000000
 10
-160.828158
 20
128.713111
 42
0.000000
 10
-160.903911
 20
128.960121
 42
0.000000
 10
-163.686215
 20
128.960121
 42
0.000000
 10
-165.052158
 20
128.713111
 42
0.000000
 10
-165.127911
 20
128.960121
 42
0.000000
 10
-167.910215
 20
128.960121
 42
0.000000
 10
-169.276158
 20
128.713111
 42
0.000000
 10
-169.351827
 20
128.955321
 42
0.000000
 10
-172.134215
 20
128.960121
 42
0.000000
 10
-173.500158
 20
128.713111
 42
0.000000
 10
-173.575911
 20
128.960121
 42
0.000000
 10
-176.358215
 20
128.960121
 42
0.000000
 10
-177.724158
 20
128.713111
 42
0.000000
 10
-177.799911
 20
128.960121
 42
0.000000
 10
-180.582215
 20
128.960121
 42
0.000000
 10
-181.948158
 20
128.713111
 42
0.000000
 10
-182.023911
 20
128.960121
 42
0.000000
 10
-184.806215
 20
128.960121
 42
0.000000
 10
-186.172158
 20
128.713111
 42
0.000000
 10
-186.247911
 20
128.960121
 42
0.000000
 10
-189.030215
 20
128.960121
 42
0.000000
 10
-190.396158
 20
128.713111
 42
0.000000
 10
-190.471911
 20
128.960121
 42
0.000000
 10
-193.254215
 20
128.960121
 42
0.000000
 10
-194.458372
 20
128.677688
 42
0.000000
 10
-194.917355
 20
128.840120
 42
0.000000
 10
-195.894215
 20
128.405864
 42
0.000000
 10
-196.134215
 20
127.880121
 42
0.000000
 10
-196.902215
 20
127.880121
 42
0.000000
 10
-198.420108
 20
127.339153
 42
0.000000
 10
-199.253725
 20
125.960121
 42
0.000000
 10
-201.000018
 20
125.000121
 42
0.000000
 10
-199.253725
 20
124.040121
 42
0.000000
 10
-198.420108
 20
122.661089
 42
0.000000
 10
-197.157414
 20
122.133727
 42
0.000000
 10
-196.134215
 20
122.120121
 42
0.000000
 10
-195.894215
 20
121.594377
 42
0.000000
 10
-195.142059
 20
121.160121
 42
0.000000
 10
-194.692646
 20
121.160121
 42
0.000000
 10
-194.458372
 20
121.322553
 42
0.000000
 10
-193.254215
 20
121.040121
 42
0.000000
 10
-190.471911
 20
121.040121
 42
0.000000
 10
-190.396158
 20
121.287130
 42
0.000000
 10
-189.030215
 20
121.040121
 42
0.000000
 10
-186.247911
 20
121.040121
 42
0.000000
 10
-186.172158
 20
121.287130
 42
0.000000
 10
-184.806215
 20
121.040121
 42
0.000000
 10
-182.023911
 20
121.040121
 42
0.000000
 10
-181.948158
 20
121.287130
 42
0.000000
 10
-180.582215
 20
121.040121
 42
0.000000
 10
-177.799911
 20
121.040121
 42
0.000000
 10
-177.724158
 20
121.287130
 42
0.000000
 10
-176.358215
 20
121.040121
 42
0.000000
 10
-173.575911
 20
121.040121
 42
0.000000
 10
-173.500158
 20
121.287130
 42
0.000000
 10
-172.134215
 20
121.040121
 42
0.000000
 10
-169.351827
 20
121.044921
 42
0.000000
 10
-169.276158
 20
121.287130
 42
0.000000
 10
-167.910215
 20
121.040121
 42
0.000000
 10
-165.127911
 20
121.040121
 42
0.000000
 10
-165.052158
 20
121.287130
 42
0.000000
 10
-163.686215
 20
121.040121
 42
0.000000
 10
-160.903911
 20
121.040121
 42
0.000000
 10
-160.828158
 20
121.287130
 42
0.000000
 10
-159.462215
 20
121.040121
 42
0.000000
 10
-97.000018
 20
120.500121
 42
0.000000
 10
-91.000018
 20
118.000121
 42
0.000000
 10
-67.500018
 20
117.000121
 42
0.000000
 10
-63.750018
 20
115.750121
 42
0.000000
 10
-62.500018
 20
112.000121
 42
0.000000
 10
-62.500018
 20
95.000121
 42
0.000000
  0
LWPOLYLINE
  5
740
100
AcDbEntity
  8
Detail
  6
CONTINUOUS
 62
     9
100
AcDbPolyline
 90
   203
 10
-201.000018
 20
125.000121
 42
0.000000
 10
-198.886942
 20
125.875385
 42
0.000000
 10
-198.385367
 20
126.744139
 42
0.000000
 10
-197.996692
 20
126.244139
 42
0.000000
 10
-196.916355
 20
126.691629
 42
0.000000
 10
-196.414780
 20
127.560383
 42
0.000000
 10
-196.026105
 20
127.060383
 42
0.000000
 10
-195.447328
 20
127.300121
 42
0.000000
 10
-194.846289
 20
127.300121
 42
0.000000
 10
-194.557614
 20
127.800121
 42
0.000000
 10
-194.168939
 20
127.300121
 42
0.000000
 10
-193.036289
 20
127.300121
 42
0.000000
 10
-192.747614
 20
127.800121
 42
0.000000
 10
-192.358939
 20
127.300121
 42
0.000000
 10
-191.226289
 20
127.300121
 42
0.000000
 10
-190.937614
 20
127.800121
 42
0.000000
 10
-190.548939
 20
127.300121
 42
0.000000
 10
-189.416289
 20
127.300121
 42
0.000000
 10
-189.127614
 20
127.800121
 42
0.000000
 10
-188.738939
 20
127.300121
 42
0.000000
 10
-187.606289
 20
127.300121
 42
0.000000
 10
-187.317614
 20
127.800121
 42
0.000000
 10
-186.928939
 20
127.300121
 42
0.000000
 10
-185.796289
 20
127.300121
 42
0.000000
 10
-185.507614
 20
127.800121
 42
0.000000
 10
-185.118939
 20
127.300121
 42
0.000000
 10
-183.986289
 20
127.300121
 42
0.000000
 10
-183.697614
 20
127.800121
 42
0.000000
 10
-183.308939
 20
127.300121
 42
0.000000
 10
-182.176289
 20
127.300121
 42
0.000000
 10
-181.887614
 20
127.800121
 42
0.000000
 10
-181.498939
 20
127.300121
 42
0.000000
 10
-180.366289
 20
127.300121
 42
0.000000
 10
-180.077614
 20
127.800121
 42
0.000000
 10
-179.688939
 20
127.300121
 42
0.000000
 10
-178.556289
 20
127.300121
 42
0.000000
 10
-178.267614
 20
127.800121
 42
0.000000
 10
-177.878939
 20
127.300121
 42
0.000000
 10
-176.746289
 20
127.300121
 42
0.000000
 10
-176.457614
 20
127.800121
 42
0.000000
 10
-176.068939
 20
127.300121
 42
0.000000
 10
-174.936289
 20
127.300121
 42
0.000000
 10
-174.647614
 20
127.800121
 42
0.000000
 10
-174.258939
 20
127.300121
 42
0.000000
 10
-173.126289
 20
127.300121
 42
0.000000
 10
-172.837614
 20
127.800121
 42
0.000000
 10
-172.448939
 20
127.300121
 42
0.000000
 10
-171.316289
 20
127.300121
 42
0.000000
 10
-171.027614
 20
127.800121
 42
0.000000
 10
-170.638939
 20
127.300121
 42
0.000000
 10
-169.506289
 20
127.300121
 42
0.000000
 10
-169.217614
 20
127.800121
 42
0.000000
 10
-168.828939
 20
127.300121
 42
0.000000
 10
-167.696289
 20
127.300121
 42
0.000000
 10
-167.407614
 20
127.800121
 42
0.000000
 10
-167.018939
 20
127.300121
 42
0.000000
 10
-165.886289
 20
127.300121
 42
0.000000
 10
-165.597614
 20
127.800121
 42
0.000000
 10
-165.186425
 20
127.300121
 42
0.000000
 10
-164.076289
 20
127.300121
 42
0.000000
 10
-163.787614
 20
127.800121
 42
0.000000
 10
-163.398939
 20
127.300121
 42
0.000000
 10
-162.266289
 20
127.300121
 42
0.000000
 10
-161.977614
 20
127.800121
 42
0.000000
 10
-161.588939
 20
127.300121
 42
0.000000
 10
-160.456289
 20
127.300121
 42
0.000000
 10
-160.167614
 20
127.800121
 42
0.000000
 10
-159.778939
 20
127.300121
 42
0.000000
 10
-158.646289
 20
127.300121
 42
0.000000
 10
-158.357614
 20
127.800121
 42
0.000000
 10
-157.968939
 20
127.300121
 42
0.000000
 10
-156.836289
 20
127.300121
 42
0.000000
 10
-156.547614
 20
127.800121
 42
0.000000
 10
-156.158939
 20
127.300121
 42
0.000000
 10
-155.026289
 20
127.300121
 42
0.000000
 10
-154.737614
 20
127.800121
 42
0.000000
 10
-154.348939
 20
127.300121
 42
0.000000
 10
-153.216289
 20
127.300121
 42
0.000000
 10
-152.927614
 20
127.800121
 42
0.000000
 10
-152.538939
 20
127.300121
 42
0.000000
 10
-151.406289
 20
127.300121
 42
0.000000
 10
-151.117614
 20
127.800121
 42
0.000000
 10
-150.728939
 20
127.300121
 42
0.000000
 10
-149.596289
 20
127.300121
 42
0.000000
 10
-149.307614
 20
127.800121
 42
0.000000
 10
-148.918939
 20
127.300121
 42
0.000000
 10
-147.786289
 20
127.300121
 42
0.000000
 10
-147.497614
 20
127.800121
 42
0.000000
 10
-147.108939
 20
127.300121
 42
0.000000
 10
-145.976289
 20
127.300121
 42
0.000000
 10
-145.687614
 20
127.800121
 42
0.000000
 10
-145.298939
 20
127.300121
 42
0.000000
 10
-144.166289
 20
127.300121
 42
0.000000
 10
-143.877614
 20
127.800121
 42
0.000000
 10
-143.488939
 20
127.300121
 42
0.000000
 10
-142.356289
 20
127.300121
 42
0.000000
 10
-142.067614
 20
127.800121
 42
0.000000
 10
-141.678939
 20
127.300121
 42
0.000000
 10
-141.000018
 20
127.300121
 42
0.000000
 10
-140.826813
 20
127.400121
 42
0.000000
 10
-97.000018
 20
129.500121
 42
0.000000
 10
-97.000018
 20
120.500121
 42
0.000000
 10
-140.826813
 20
122.600121
 42
0.000000
 10
-141.000018
 20
122.700121
 42
0.000000
 10
-141.162614
 20
122.200121
 42
0.000000
 10
-141.451289
 20
122.700121
 42
0.000000
 10
-142.583939
 20
122.700121
 42
0.000000
 10
-142.972614
 20
122.200121
 42
0.000000
 10
-143.261289
 20
122.700121
 42
0.000000
 10
-144.393939
 20
122.700121
 42
0.000000
 10
-144.782614
 20
122.200121
 42
0.000000
 10
-145.071289
 20
122.700121
 42
0.000000
 10
-146.203939
 20
122.700121
 42
0.000000
 10
-146.592614
 20
122.200121
 42
0.000000
 10
-146.881289
 20
122.700121
 42
0.000000
 10
-148.013939
 20
122.700121
 42
0.000000
 10
-148.402614
 20
122.200121
 42
0.000000
 10
-148.691289
 20
122.700121
 42
0.000000
 10
-149.823939
 20
122.700121
 42
0.000000
 10
-150.212614
 20
122.200121
 42
0.000000
 10
-150.501289
 20
122.700121
 42
0.000000
 10
-151.633939
 20
122.700121
 42
0.000000
 10
-152.022614
 20
122.200121
 42
0.000000
 10
-152.311289
 20
122.700121
 42
0.000000
 10
-153.443939
 20
122.700121
 42
0.000000
 10
-153.832614
 20
122.200121
 42
0.000000
 10
-154.121289
 20
122.700121
 42
0.000000
 10
-155.253939
 20
122.700121
 42
0.000000
 10
-155.642614
 20
122.200121
 42
0.000000
 10
-155.931289
 20
122.700121
 42
0.000000
 10
-157.063939
 20
122.700121
 42
0.000000
 10
-157.452614
 20
122.200121
 42
0.000000
 10
-157.741289
 20
122.700121
 42
0.000000
 10
-158.873939
 20
122.700121
 42
0.000000
 10
-159.262614
 20
122.200121
 42
0.000000
 10
-159.551289
 20
122.700121
 42
0.000000
 10
-160.683939
 20
122.700121
 42
0.000000
 10
-161.072614
 20
122.200121
 42
0.000000
 10
-161.361289
 20
122.700121
 42
0.000000
 10
-162.493939
 20
122.700121
 42
0.000000
 10
-162.882614
 20
122.200121
 42
0.000000
 10
-163.171289
 20
122.700121
 42
0.000000
 10
-164.303939
 20
122.700121
 42
0.000000
 10
-164.692614
 20
122.200121
 42
0.000000
 10
-164.981289
 20
122.700121
 42
0.000000
 10
-166.113939
 20
122.700121
 42
0.000000
 10
-166.502614
 20
122.200121
 42
0.000000
 10
-166.791289
 20
122.700121
 42
0.000000
 10
-167.923939
 20
122.700121
 42
0.000000
 10
-168.312614
 20
122.200121
 42
0.000000
 10
-168.601289
 20
122.700121
 42
0.000000
 10
-169.733939
 20
122.700121
 42
0.000000
 10
-170.122614
 20
122.200121
 42
0.000000
 10
-170.411289
 20
122.700121
 42
0.000000
 10
-171.543939
 20
122.700121
 42
0.000000
 10
-171.932614
 20
122.200121
 42
0.000000
 10
-172.221289
 20
122.700121
 42
0.000000
 10
-173.353939
 20
122.700121
 42
0.000000
 10
-173.742614
 20
122.200121
 42
0.000000
 10
-174.031289
 20
122.700121
 42
0.000000
 10
-175.163939
 20
122.700121
 42
0.000000
 10
-175.552614
 20
122.200121
 42
0.000000
 10
-175.841289
 20
122.700121
 42
0.000000
 10
-176.973939
 20
122.700121
 42
0.000000
 10
-177.362614
 20
122.200121
 42
0.000000
 10
-177.651289
 20
122.700121
 42
0.000000
 10
-178.783939
 20
122.700121
 42
0.000000
 10
-179.172614
 20
122.200121
 42
0.000000
 10
-179.461289
 20
122.700121
 42
0.000000
 10
-180.593939
 20
122.700121
 42
0.000000
 10
-180.982614
 20
122.200121
 42
0.000000
 10
-181.271289
 20
122.700121
 42
0.000000
 10
-182.403939
 20
122.700121
 42
0.000000
 10
-182.792614
 20
122.200121
 42
0.000000
 10
-183.081289
 20
122.700121
 42
0.000000
 10
-184.213939
 20
122.700121
 42
0.000000
 10
-184.602614
 20
122.200121
 42
0.000000
 10
-184.891289
 20
122.700121
 42
0.000000
 10
-186.023939
 20
122.700121
 42
0.000000
 10
-186.412614
 20
122.200121
 42
0.000000
 10
-186.701289
 20
122.700121
 42
0.000000
 10
-187.833939
 20
122.700121
 42
0.000000
 10
-188.222614
 20
122.200121
 42
0.000000
 10
-188.511289
 20
122.700121
 42
0.000000
 10
-189.643939
 20
122.700121
 42
0.000000
 10
-190.032614
 20
122.200121
 42
0.000000
 10
-190.321289
 20
122.700121
 42
0.000000
 10
-191.453939
 20
122.700121
 42
0.000000
 10
-191.842614
 20
122.200121
 42
0.000000
 10
-192.131289
 20
122.700121
 42
0.000000
 10
-193.263939
 20
122.700121
 42
0.000000
 10
-193.652614
 20
122.200121
 42
0.000000
 10
-193.941289
 20
122.700121
 42
0.000000
 10
-195.073939
 20
122.700121
 42
0.000000
 10
-195.462614
 20
122.200121
 42
0.000000
 10
-195.846829
 20
122.865600
 42
0.000000
 10
-196.775689
 20
123.250346
 42
0.000000
 10
-197.164364
 20
122.750346
 42
0.000000
 10
-197.665938
 20
123.619100
 42
0.000000
 10
-198.449302
 20
123.943580
 42
0.000000
 10
-198.837977
 20
123.443580
 42
0.000000
 10
-199.339552
 20
124.312333
 42
0.000000
 10
-201.000018
 20
125.000121
 42
0.000000
  0
ENDBLK
  5
80C
100
AcDbEntity
  8
0
100
AcDbBlockEnd
  0
BLOCK
  5
80D
100
AcDbEntity
  8
Detail
100
AcDbBlockBegin
  2
B-90
 70
    66
 10
0.000000
 20
0.000000
 30
0.000000
  0
MTEXT
  5
80E
100
AcDbEntity
  8
Detail
 62
     7
100
AcDbMText
 10
79.375020
 20
27.500114
 30
0.000000
 40
4.999990
 41
38.902407
 71
     1
 72
     5
  1
Klebemörtel
  7
Arial
 50
0.000000
  0
ENDBLK
  5
80F
100
AcDbEntity
  8
0
100
AcDbBlockEnd
  0
BLOCK
  5
810
100
AcDbEntity
  8
Detail
100
AcDbBlockBegin
  2
B-91
 70
    66
 10
0.000000
 20
0.000000
 30
0.000000
  0
LWPOLYLINE
  5
811
100
AcDbEntity
  8
Detail
  6
CONTINUOUS
 62
     7
100
AcDbPolyline
 90
     2
 10
77.500024
 20
25.000119
 42
0.000000
 10
-150.000018
 20
25.000118
 42
0.000000
  0
ENDBLK
  5
814
100
AcDbEntity
  8
0
100
AcDbBlockEnd
  0
BLOCK
  5
815
100
AcDbEntity
  8
SCHRAFF
100
AcDbBlockBegin
  2
B-92
 70
    66
 10
0.000000
 20
0.000000
 30
0.000000
  0
HATCH
  5
816
100
AcDbEntity
  8
SCHRAFF
 62
     7
440
     0
100
AcDbHatch
 10
0.000000
 20
0.000000
 30
0.000000
210
0.000000
220
0.000000
230
1.000000
  2
SOLID
 70
     1
 71
     1
 91
     1
 92
    18
 72
     1
 73
     0
 93
     3
 10
-149.500018
 20
25.000118
 42
1.000000
 10
-150.500018
 20
25.000118
 42
1.000000
 10
-149.500018
 20
25.000118
 42
0.000000
 97
     0
 75
     0
 76
     1
 98
     0
  0
CIRCLE
  5
817
100
AcDbEntity
  8
Detail
  6
CONTINUOUS
 62
     7
100
AcDbCircle
 10
-150.000018
 20
25.000118
 40
0.500000
  0
ENDBLK
  5
818
100
AcDbEntity
  8
0
100
AcDbBlockEnd
  0
BLOCK
  5
819
100
AcDbEntity
  8
Detail
100
AcDbBlockBegin
  2
B-93
 70
    66
 10
0.000000
 20
0.000000
 30
0.000000
  0
MTEXT
  5
81A
100
AcDbEntity
  8
Detail
 62
     7
100
AcDbMText
 10
-210.625009
 20
-332.500016
 30
0.000000
 40
4.999980
 41
58.117268
 71
     7
 72
     5
  1
DAW Schweiz AG
  7
Arial
 50
0.000000
  0
MTEXT
  5
81B
100
AcDbEntity
  8
Detail
 62
     7
100
AcDbMText
 10
-210.625009
 20
-339.999986
 30
0.000000
 40
4.999980
 41
108.149567
 71
     7
 72
     5
  1
Gewerbestrasse 6, 8606 Nänikon
  7
Arial
 50
0.000000
  0
ENDBLK
  5
81C
100
AcDbEntity
  8
0
100
AcDbBlockEnd
  0
BLOCK
  5
81D
100
AcDbEntity
  8
SCHRAFF
100
AcDbBlockBegin
  2
B-94
 70
    66
 10
0.000000
 20
0.000000
 30
0.000000
  0
HATCH
  5
81E
100
AcDbEntity
  8
SCHRAFF
 62
    61
440
     0
100
AcDbHatch
 10
0.000000
 20
0.000000
 30
0.000000
210
0.000000
220
0.000000
230
1.000000
  2
SOLID
 70
     1
 71
     1
 91
     1
 92
    18
 72
     1
 73
     0
 93
     5
 10
172.500023
 20
261.250078
 42
0.000000
 10
152.500023
 20
261.250078
 42
0.000000
 10
152.500023
 20
251.250078
 42
0.000000
 10
172.500023
 20
251.250078
 42
0.000000
 10
172.500023
 20
261.250078
 42
0.000000
 97
     0
 75
     0
 76
     1
 98
     0
  0
LWPOLYLINE
  5
81F
100
AcDbEntity
  8
SCHRAFF
  6
CONTINUOUS
 62
     9
100
AcDbPolyline
 90
    15
 10
172.500023
 20
251.250078
 42
-0.213650
 10
170.732256
 20
251.903857
 42
-0.184258
 10
170.000022
 20
253.482223
 42
-0.091482
 10
170.201570
 20
254.360277
 42
0.000000
 10
172.238304
 20
258.023650
 42
0.104891
 10
172.500023
 20
259.017934
 42
0.184258
 10
171.767789
 20
260.596299
 42
0.213650
 10
170.000021
 20
261.250078
 42
0.213650
 10
168.232255
 20
260.596297
 42
0.184257
 10
167.500024
 20
259.017934
 42
0.104891
 10
167.761743
 20
258.023650
 42
0.000000
 10
169.738303
 20
254.476503
 42
-0.104891
 10
170.000021
 20
253.482223
 42
-0.184258
 10
169.267788
 20
251.903859
 42
-0.213650
 10
167.500023
 20
251.250079
 42
0.000000
  0
LWPOLYLINE
  5
82F
100
AcDbEntity
  8
SCHRAFF
  6
CONTINUOUS
 62
     9
100
AcDbPolyline
 90
    15
 10
167.500023
 20
251.250078
 42
-0.213650
 10
165.732256
 20
251.903857
 42
-0.184258
 10
165.000022
 20
253.482223
 42
-0.091482
 10
165.201570
 20
254.360277
 42
0.000000
 10
167.238304
 20
258.023650
 42
0.104891
 10
167.500023
 20
259.017934
 42
0.184258
 10
166.767789
 20
260.596299
 42
0.213650
 10
165.000021
 20
261.250078
 42
0.213650
 10
163.232255
 20
260.596297
 42
0.184257
 10
162.500024
 20
259.017934
 42
0.104891
 10
162.761743
 20
258.023650
 42
0.000000
 10
164.738303
 20
254.476503
 42
-0.104891
 10
165.000021
 20
253.482223
 42
-0.184258
 10
164.267788
 20
251.903859
 42
-0.213650
 10
162.500023
 20
251.250079
 42
0.000000
  0
LWPOLYLINE
  5
83F
100
AcDbEntity
  8
SCHRAFF
  6
CONTINUOUS
 62
     9
100
AcDbPolyline
 90
    15
 10
162.500023
 20
251.250078
 42
-0.213650
 10
160.732256
 20
251.903857
 42
-0.184258
 10
160.000022
 20
253.482223
 42
-0.091482
 10
160.201570
 20
254.360277
 42
0.000000
 10
162.238304
 20
258.023650
 42
0.104891
 10
162.500023
 20
259.017934
 42
0.184258
 10
161.767789
 20
260.596299
 42
0.213650
 10
160.000021
 20
261.250078
 42
0.213650
 10
158.232255
 20
260.596297
 42
0.184257
 10
157.500024
 20
259.017934
 42
0.104891
 10
157.761743
 20
258.023650
 42
0.000000
 10
159.738303
 20
254.476503
 42
-0.104891
 10
160.000021
 20
253.482223
 42
-0.184258
 10
159.267788
 20
251.903859
 42
-0.213650
 10
157.500023
 20
251.250079
 42
0.000000
  0
LWPOLYLINE
  5
84F
100
AcDbEntity
  8
SCHRAFF
  6
CONTINUOUS
 62
     9
100
AcDbPolyline
 90
    15
 10
157.500023
 20
251.250078
 42
-0.213650
 10
155.732256
 20
251.903857
 42
-0.184258
 10
155.000022
 20
253.482223
 42
-0.091482
 10
155.201570
 20
254.360277
 42
0.000000
 10
157.238304
 20
258.023650
 42
0.104891
 10
157.500023
 20
259.017934
 42
0.184258
 10
156.767789
 20
260.596299
 42
0.213650
 10
155.000021
 20
261.250078
 42
0.213650
 10
153.232255
 20
260.596297
 42
0.184257
 10
152.500024
 20
259.017934
 42
0.104891
 10
152.761743
 20
258.023650
 42
0.000000
 10
154.738303
 20
254.476503
 42
-0.104891
 10
155.000021
 20
253.482223
 42
-0.184258
 10
154.267788
 20
251.903859
 42
-0.213650
 10
152.500023
 20
251.250079
 42
0.000000
  0
ENDBLK
  5
85F
100
AcDbEntity
  8
0
100
AcDbBlockEnd
  0
BLOCK
  5
860
100
AcDbEntity
  8
SCHRAFF
100
AcDbBlockBegin
  2
B-95
 70
    66
 10
0.000000
 20
0.000000
 30
0.000000
  0
HATCH
  5
861
100
AcDbEntity
  8
SCHRAFF
 62
   253
440
     0
100
AcDbHatch
 10
0.000000
 20
0.000000
 30
0.000000
210
0.000000
220
0.000000
230
1.000000
  2
SOLID
 70
     1
 71
     1
 91
     1
 92
    18
 72
     1
 73
     0
 93
     5
 10
184.500023
 20
261.250078
 42
0.000000
 10
184.500023
 20
296.250078
 42
0.000000
 10
180.500023
 20
296.250078
 42
0.000000
 10
180.500023
 20
261.250078
 42
0.000000
 10
184.500023
 20
261.250078
 42
0.000000
 97
     0
 75
     0
 76
     1
 98
     0
  0
HATCH
  5
862
100
AcDbEntity
  8
SCHRAFF
 62
     9
440
     0
100
AcDbHatch
 10
0.000000
 20
0.000000
 30
0.000000
210
0.000000
220
0.000000
230
1.000000
  2
SOLID
 70
     1
 71
     1
 91
     1
 92
    18
 72
     1
 73
     0
 93
     5
 10
178.500023
 20
296.250078
 42
0.000000
 10
178.500023
 20
261.250078
 42
0.000000
 10
180.500023
 20
261.250078
 42
0.000000
 10
180.500023
 20
296.250078
 42
0.000000
 10
178.500023
 20
296.250078
 42
0.000000
 97
     0
 75
     0
 76
     1
 98
     0
  0
HATCH
  5
863
100
AcDbEntity
  8
SCHRAFF
 62
     9
440
     0
100
AcDbHatch
 10
0.000000
 20
0.000000
 30
0.000000
210
0.000000
220
0.000000
230
1.000000
  2
SOLID
 70
     1
 71
     1
 91
     1
 92
    18
 72
     1
 73
     0
 93
     5
 10
178.500023
 20
261.250078
 42
0.000000
 10
178.500023
 20
296.250078
 42
0.000000
 10
172.500023
 20
296.250078
 42
0.000000
 10
172.500023
 20
261.250078
 42
0.000000
 10
178.500023
 20
261.250078
 42
0.000000
 97
     0
 75
     0
 76
     1
 98
     0
  0
ENDBLK
  5
864
100
AcDbEntity
  8
0
100
AcDbBlockEnd
  0
BLOCK
  5
865
100
AcDbEntity
  8
SCHRAFF
100
AcDbBlockBegin
  2
B-96
 70
    66
 10
0.000000
 20
0.000000
 30
0.000000
  0
HATCH
  5
866
100
AcDbEntity
  8
SCHRAFF
 62
    51
440
     0
100
AcDbHatch
 10
0.000000
 20
0.000000
 30
0.000000
210
0.000000
220
0.000000
230
1.000000
  2
SOLID
 70
     1
 71
     1
 91
     1
 92
    18
 72
     1
 73
     0
 93
     5
 10
152.500023
 20
296.250078
 42
0.000000
 10
152.500023
 20
263.250078
 42
0.000000
 10
172.500023
 20
263.250078
 42
0.000000
 10
172.500023
 20
296.250078
 42
0.000000
 10
152.500023
 20
296.250078
 42
0.000000
 97
     0
 75
     0
 76
     1
 98
     0
  0
ENDBLK
  5
867
100
AcDbEntity
  8
0
100
AcDbBlockEnd
  0
BLOCK
  5
868
100
AcDbEntity
  8
SCHRAFF
100
AcDbBlockBegin
  2
B-97
 70
    66
 10
0.000000
 20
0.000000
 30
0.000000
  0
HATCH
  5
869
100
AcDbEntity
  8
SCHRAFF
 62
    51
440
     0
100
AcDbHatch
 10
0.000000
 20
0.000000
 30
0.000000
210
0.000000
220
0.000000
230
1.000000
  2
SOLID
 70
     1
 71
     1
 91
     1
 92
    18
 72
     1
 73
     0
 93
     5
 10
172.500023
 20
216.250078
 42
0.000000
 10
172.500023
 20
249.250078
 42
0.000000
 10
152.500023
 20
249.250078
 42
0.000000
 10
152.500023
 20
216.250078
 42
0.000000
 10
172.500023
 20
216.250078
 42
0.000000
 97
     0
 75
     0
 76
     1
 98
     0
  0
ENDBLK
  5
86A
100
AcDbEntity
  8
0
100
AcDbBlockEnd
  0
BLOCK
  5
86B
100
AcDbEntity
  8
SCHRAFF
100
AcDbBlockBegin
  2
B-98
 70
    66
 10
0.000000
 20
0.000000
 30
0.000000
  0
HATCH
  5
86C
100
AcDbEntity
  8
SCHRAFF
  6
CONTINUOUS
 62
     9
100
AcDbHatch
 10
0.000000
 20
0.000000
 30
0.000000
210
0.000000
220
0.000000
230
1.000000
  2
_U
 70
     0
 71
     1
 91
     1
 92
    18
 72
     1
 73
     0
 93
     5
 10
152.500023
 20
249.250078
 42
0.000000
 10
152.500023
 20
216.250078
 42
0.000000
 10
172.500023
 20
216.250078
 42
0.000000
 10
172.500023
 20
249.250078
 42
0.000000
 10
152.500023
 20
249.250078
 42
0.000000
 97
     0
 75
     0
 76
     0
 52
0.000000
 41
1.000000
 77
     0
 78
     1
 53
90.000000
 43
-0.000000
 44
0.000000
 45
-13.750000
 46
0.000000
 79
     0
 98
     0
  0
HATCH
  5
86D
100
AcDbEntity
  8
SCHRAFF
  6
CONTINUOUS
 62
     9
100
AcDbHatch
 10
0.000000
 20
0.000000
 30
0.000000
210
0.000000
220
0.000000
230
1.000000
  2
_U
 70
     0
 71
     1
 91
     1
 92
    18
 72
     1
 73
     0
 93
     5
 10
172.500023
 20
263.250078
 42
0.000000
 10
172.500023
 20
296.250078
 42
0.000000
 10
152.500023
 20
296.250078
 42
0.000000
 10
152.500023
 20
263.250078
 42
0.000000
 10
172.500023
 20
263.250078
 42
0.000000
 97
     0
 75
     0
 76
     0
 52
0.000000
 41
1.000000
 77
     0
 78
     1
 53
90.000000
 43
-0.000000
 44
0.000000
 45
-13.750000
 46
0.000000
 79
     0
 98
     0
  0
ENDBLK
  5
86E
100
AcDbEntity
  8
0
100
AcDbBlockEnd
  0
BLOCK
  5
86F
100
AcDbEntity
  8
Detail
100
AcDbBlockBegin
  2
B-99
 70
    66
 10
0.000000
 20
0.000000
 30
0.000000
  0
LWPOLYLINE
  5
870
100
AcDbEntity
  8
Detail
  6
CONTINUOUS
 62
     6
100
AcDbPolyline
 90
     4
 10
172.500023
 20
296.250078
 42
0.000000
 10
172.500023
 20
261.250078
 42
0.000000
 10
178.500023
 20
261.250078
 42
0.000000
 10
178.500023
 20
296.250078
 42
0.000000
  0
ENDBLK
  5
875
100
AcDbEntity
  8
0
100
AcDbBlockEnd
  0
BLOCK
  5
876
100
AcDbEntity
  8
Detail
100
AcDbBlockBegin
  2
B-100
 70
    66
 10
0.000000
 20
0.000000
 30
0.000000
  0
LWPOLYLINE
  5
877
100
AcDbEntity
  8
Detail
  6
HIDDEN
 62
     9
100
AcDbPolyline
 90
     2
 10
177.500023
 20
296.250078
 42
0.000000
 10
177.500023
 20
261.250078
 42
0.000000
  0
ENDBLK
  5
87A
100
AcDbEntity
  8
0
100
AcDbBlockEnd
  0
BLOCK
  5
87B
100
AcDbEntity
  8
SCHRAFF
100
AcDbBlockBegin
  2
B-101
 70
    66
 10
0.000000
 20
0.000000
 30
0.000000
  0
HATCH
  5
87C
100
AcDbEntity
  8
SCHRAFF
 62
     9
440
     0
100
AcDbHatch
 10
0.000000
 20
0.000000
 30
0.000000
210
0.000000
220
0.000000
230
1.000000
  2
SOLID
 70
     1
 71
     1
 91
     1
 92
    18
 72
     1
 73
     0
 93
     5
 10
178.500023
 20
216.250078
 42
0.000000
 10
178.500023
 20
251.250078
 42
0.000000
 10
172.500023
 20
251.250078
 42
0.000000
 10
172.500023
 20
216.250078
 42
0.000000
 10
178.500023
 20
216.250078
 42
0.000000
 97
     0
 75
     0
 76
     1
 98
     0
  0
ENDBLK
  5
87D
100
AcDbEntity
  8
0
100
AcDbBlockEnd
  0
BLOCK
  5
87E
100
AcDbEntity
  8
SCHRAFF
100
AcDbBlockBegin
  2
B-102
 70
    66
 10
0.000000
 20
0.000000
 30
0.000000
  0
HATCH
  5
87F
100
AcDbEntity
  8
SCHRAFF
 62
     9
440
     0
100
AcDbHatch
 10
0.000000
 20
0.000000
 30
0.000000
210
0.000000
220
0.000000
230
1.000000
  2
SOLID
 70
     1
 71
     1
 91
     1
 92
    18
 72
     1
 73
     0
 93
     5
 10
178.500023
 20
216.250078
 42
0.000000
 10
178.500023
 20
251.250078
 42
0.000000
 10
180.500023
 20
251.250078
 42
0.000000
 10
180.500023
 20
216.250078
 42
0.000000
 10
178.500023
 20
216.250078
 42
0.000000
 97
     0
 75
     0
 76
     1
 98
     0
  0
HATCH
  5
880
100
AcDbEntity
  8
SCHRAFF
 62
   253
440
     0
100
AcDbHatch
 10
0.000000
 20
0.000000
 30
0.000000
210
0.000000
220
0.000000
230
1.000000
  2
SOLID
 70
     1
 71
     1
 91
     1
 92
    18
 72
     1
 73
     0
 93
     5
 10
184.500023
 20
251.250078
 42
0.000000
 10
184.500023
 20
216.250078
 42
0.000000
 10
180.500023
 20
216.250078
 42
0.000000
 10
180.500023
 20
251.250078
 42
0.000000
 10
184.500023
 20
251.250078
 42
0.000000
 97
     0
 75
     0
 76
     1
 98
     0
  0
ENDBLK
  5
881
100
AcDbEntity
  8
0
100
AcDbBlockEnd
  0
BLOCK
  5
882
100
AcDbEntity
  8
Detail
100
AcDbBlockBegin
  2
B-103
 70
    66
 10
0.000000
 20
0.000000
 30
0.000000
  0
LWPOLYLINE
  5
883
100
AcDbEntity
  8
Detail
  6
CONTINUOUS
 62
     6
100
AcDbPolyline
 90
     4
 10
180.500023
 20
216.250078
 42
0.000000
 10
180.500023
 20
251.250078
 42
0.000000
 10
184.500023
 20
251.250078
 42
0.000000
 10
184.500023
 20
216.250078
 42
0.000000
  0
ENDBLK
  5
888
100
AcDbEntity
  8
0
100
AcDbBlockEnd
  0
BLOCK
  5
889
100
AcDbEntity
  8
Detail
100
AcDbBlockBegin
  2
B-104
 70
    66
 10
0.000000
 20
0.000000
 30
0.000000
  0
LWPOLYLINE
  5
88A
100
AcDbEntity
  8
Detail
  6
CONTINUOUS
 62
     6
100
AcDbPolyline
 90
     4
 10
178.500023
 20
216.250078
 42
0.000000
 10
178.500023
 20
251.250078
 42
0.000000
 10
180.500023
 20
251.250078
 42
0.000000
 10
180.500023
 20
216.250078
 42
0.000000
  0
ENDBLK
  5
88F
100
AcDbEntity
  8
0
100
AcDbBlockEnd
  0
BLOCK
  5
890
100
AcDbEntity
  8
Detail
100
AcDbBlockBegin
  2
B-105
 70
    66
 10
0.000000
 20
0.000000
 30
0.000000
  0
LWPOLYLINE
  5
891
100
AcDbEntity
  8
Detail
  6
HIDDEN
 62
     9
100
AcDbPolyline
 90
     2
 10
177.500023
 20
251.250078
 42
0.000000
 10
177.500023
 20
216.250078
 42
0.000000
  0
LWPOLYLINE
  5
894
100
AcDbEntity
  8
Detail
  6
CONTINUOUS
 62
     6
100
AcDbPolyline
 90
     4
 10
172.500023
 20
216.250078
 42
0.000000
 10
172.500023
 20
251.250078
 42
0.000000
 10
178.500023
 20
251.250078
 42
0.000000
 10
178.500023
 20
216.250078
 42
0.000000
  0
ENDBLK
  5
899
100
AcDbEntity
  8
0
100
AcDbBlockEnd
  0
BLOCK
  5
89A
100
AcDbEntity
  8
Detail
100
AcDbBlockBegin
  2
B-106
 70
    66
 10
0.000000
 20
0.000000
 30
0.000000
  0
LWPOLYLINE
  5
89B
100
AcDbEntity
  8
Detail
  6
CONTINUOUS
 62
     6
100
AcDbPolyline
 90
     4
 10
178.500023
 20
296.250078
 42
0.000000
 10
178.500023
 20
261.250078
 42
0.000000
 10
180.500023
 20
261.250078
 42
0.000000
 10
180.500023
 20
296.250078
 42
0.000000
  0
ENDBLK
  5
8A0
100
AcDbEntity
  8
0
100
AcDbBlockEnd
  0
BLOCK
  5
8A1
100
AcDbEntity
  8
Detail
100
AcDbBlockBegin
  2
B-107
 70
    66
 10
0.000000
 20
0.000000
 30
0.000000
  0
LWPOLYLINE
  5
8A2
100
AcDbEntity
  8
Detail
  6
CONTINUOUS
 62
     6
100
AcDbPolyline
 90
     4
 10
180.500023
 20
296.250078
 42
0.000000
 10
180.500023
 20
261.250078
 42
0.000000
 10
184.500023
 20
261.250078
 42
0.000000
 10
184.500023
 20
296.250078
 42
0.000000
  0
ENDBLK
  5
8A7
100
AcDbEntity
  8
0
100
AcDbBlockEnd
  0
BLOCK
  5
8A8
100
AcDbEntity
  8
Detail
100
AcDbBlockBegin
  2
B-108
 70
    66
 10
0.000000
 20
0.000000
 30
0.000000
  0
LWPOLYLINE
  5
8A9
100
AcDbEntity
  8
Detail
  6
CONTINUOUS
 62
     3
100
AcDbPolyline
 90
     4
 10
192.500023
 20
216.250078
 42
0.000000
 10
192.500023
 20
251.250078
 42
0.000000
 10
184.500023
 20
251.250078
 42
0.000000
 10
184.500023
 20
216.250078
 42
0.000000
  0
ENDBLK
  5
8AE
100
AcDbEntity
  8
0
100
AcDbBlockEnd
  0
BLOCK
  5
8AF
100
AcDbEntity
  8
Detail
100
AcDbBlockBegin
  2
B-109
 70
    66
 10
0.000000
 20
0.000000
 30
0.000000
  0
LWPOLYLINE
  5
8B0
100
AcDbEntity
  8
Detail
  6
CONTINUOUS
 62
     3
100
AcDbPolyline
 90
     4
 10
192.500023
 20
296.250078
 42
0.000000
 10
192.500023
 20
261.250078
 42
0.000000
 10
184.500023
 20
261.250078
 42
0.000000
 10
184.500023
 20
296.250078
 42
0.000000
  0
ENDBLK
  5
8B5
100
AcDbEntity
  8
0
100
AcDbBlockEnd
  0
BLOCK
  5
8B6
100
AcDbEntity
  8
L
100
AcDbBlockBegin
  2
B-110
 70
    66
 10
0.000000
 20
0.000000
 30
0.000000
  0
LWPOLYLINE
  5
8B7
100
AcDbEntity
  8
L
  6
CONTINUOUS
 62
     3
100
AcDbPolyline
 90
     3
 10
152.500023
 20
249.250078
 42
0.000000
 10
172.500023
 20
249.250078
 42
0.000000
 10
172.500023
 20
216.250078
 42
0.000000
  0
LWPOLYLINE
  5
8BB
100
AcDbEntity
  8
L
  6
CONTINUOUS
 62
     3
100
AcDbPolyline
 90
     3
 10
172.500023
 20
296.250078
 42
0.000000
 10
172.500023
 20
263.250078
 42
0.000000
 10
152.500023
 20
263.250078
 42
0.000000
  0
ENDBLK
  5
8BF
100
AcDbEntity
  8
0
100
AcDbBlockEnd
  0
BLOCK
  5
8C0
100
AcDbEntity
  8
L
100
AcDbBlockBegin
  2
B-111
 70
    66
 10
0.000000
 20
0.000000
 30
0.000000
  0
LWPOLYLINE
  5
8C1
100
AcDbEntity
  8
L
  6
CONTINUOUS
 62
     3
100
AcDbPolyline
 90
     4
 10
152.500023
 20
261.250078
 42
0.000000
 10
172.500023
 20
261.250078
 42
0.000000
 10
172.500023
 20
251.250078
 42
0.000000
 10
152.500023
 20
251.250078
 42
0.000000
  0
ENDBLK
  5
8C6
100
AcDbEntity
  8
0
100
AcDbBlockEnd
  0
BLOCK
  5
8C7
100
AcDbEntity
  8
SCHRAFF
100
AcDbBlockBegin
  2
B-112
 70
    66
 10
0.000000
 20
0.000000
 30
0.000000
  0
HATCH
  5
8C8
100
AcDbEntity
  8
SCHRAFF
 62
   250
440
     0
100
AcDbHatch
 10
0.000000
 20
0.000000
 30
0.000000
210
0.000000
220
0.000000
230
1.000000
  2
SOLID
 70
     1
 71
     1
 91
     1
 92
    18
 72
     1
 73
     0
 93
     7
 10
174.500023
 20
291.250078
 42
0.000000
 10
174.500023
 20
263.250078
 42
0.000000
 10
178.500023
 20
263.250078
 42
0.000000
 10
178.500023
 20
261.250078
 42
0.000000
 10
172.500023
 20
261.250078
 42
0.000000
 10
172.500023
 20
291.250078
 42
0.000000
 10
174.500023
 20
291.250078
 42
0.000000
 97
     0
 75
     0
 76
     1
 98
     0
  0
LWPOLYLINE
  5
8C9
100
AcDbEntity
  8
Detail
  6
CONTINUOUS
 62
     4
100
AcDbPolyline
 90
     7
 10
172.500023
 20
291.250078
 42
0.000000
 10
172.500023
 20
261.250078
 42
0.000000
 10
178.500023
 20
261.250078
 42
0.000000
 10
178.500023
 20
263.250078
 42
0.000000
 10
174.500023
 20
263.250078
 42
0.000000
 10
174.500023
 20
291.250078
 42
0.000000
 10
172.500023
 20
291.250078
 42
0.000000
  0
ENDBLK
  5
8D1
100
AcDbEntity
  8
0
100
AcDbBlockEnd
  0
BLOCK
  5
8D2
100
AcDbEntity
  8
SCHRAFF
100
AcDbBlockBegin
  2
B-113
 70
    66
 10
0.000000
 20
0.000000
 30
0.000000
  0
HATCH
  5
8D3
100
AcDbEntity
  8
SCHRAFF
 62
   250
440
     0
100
AcDbHatch
 10
0.000000
 20
0.000000
 30
0.000000
210
0.000000
220
0.000000
230
1.000000
  2
SOLID
 70
     1
 71
     1
 91
     1
 92
    18
 72
     1
 73
     0
 93
     7
 10
174.500023
 20
221.250078
 42
0.000000
 10
174.500023
 20
249.250078
 42
0.000000
 10
178.500023
 20
249.250078
 42
0.000000
 10
178.500023
 20
251.250078
 42
0.000000
 10
172.500023
 20
251.250078
 42
0.000000
 10
172.500023
 20
221.250078
 42
0.000000
 10
174.500023
 20
221.250078
 42
0.000000
 97
     0
 75
     0
 76
     1
 98
     0
  0
LWPOLYLINE
  5
8D4
100
AcDbEntity
  8
Detail
  6
CONTINUOUS
 62
     4
100
AcDbPolyline
 90
     7
 10
172.500023
 20
221.250078
 42
0.000000
 10
172.500023
 20
251.250078
 42
0.000000
 10
178.500023
 20
251.250078
 42
0.000000
 10
178.500023
 20
249.250078
 42
0.000000
 10
174.500023
 20
249.250078
 42
0.000000
 10
174.500023
 20
221.250078
 42
0.000000
 10
172.500023
 20
221.250078
 42
0.000000
  0
ENDBLK
  5
8DC
100
AcDbEntity
  8
0
100
AcDbBlockEnd
  0
BLOCK
  5
8DD
100
AcDbEntity
  8
Detail
100
AcDbBlockBegin
  2
B-114
 70
    66
 10
0.000000
 20
0.000000
 30
0.000000
  0
LWPOLYLINE
  5
8DE
100
AcDbEntity
  8
Detail
  6
HIDDEN
 62
     9
100
AcDbPolyline
 90
     2
 10
-27.500018
 20
10.000069
 42
0.000000
 10
212.500023
 20
216.250078
 42
0.000000
  0
LWPOLYLINE
  5
8E1
100
AcDbEntity
  8
Detail
  6
HIDDEN
 62
     9
100
AcDbPolyline
 90
    10
 10
-87.500018
 20
90.000069
 42
0.000000
 10
-27.500018
 20
90.000069
 42
0.000000
 10
-27.500018
 20
10.000069
 42
0.000000
 10
-87.500018
 20
10.000069
 42
0.000000
 10
-87.500018
 20
90.000069
 42
0.000000
 10
152.500023
 20
296.250078
 42
0.000000
 10
212.500023
 20
296.250078
 42
0.000000
 10
212.500023
 20
216.250078
 42
0.000000
 10
152.500023
 20
216.250078
 42
0.000000
 10
152.500023
 20
296.250078
 42
0.000000
  0
ENDBLK
  5
8EC
100
AcDbEntity
  8
0
100
AcDbBlockEnd
  0
BLOCK
  5
8ED
100
AcDbEntity
  8
Detail
100
AcDbBlockBegin
  2
B-115
 70
    66
 10
0.000000
 20
0.000000
 30
0.000000
  0
MTEXT
  5
8EE
100
AcDbEntity
  8
Detail
 62
     7
100
AcDbMText
 10
154.375023
 20
310.000078
 30
0.000000
 40
5.000000
 41
66.570000
 71
     7
 72
     5
  1
alternativ mit Fugen-
  7
Arial
 50
0.000000
  0
MTEXT
  5
8EF
100
AcDbEntity
  8
Detail
 62
     7
100
AcDbMText
 10
154.375023
 20
302.500078
 30
0.000000
 40
5.000000
 41
60.112500
 71
     7
 72
     5
  1
dichtband Typ B15
  7
Arial
 50
0.000000
  0
ENDBLK
  5
8F0
100
AcDbEntity
  8
0
100
AcDbBlockEnd
  0
BLOCK
  5
8F1
100
AcDbEntity
  8
Detail
100
AcDbBlockBegin
  2
B-116
 70
    66
 10
0.000000
 20
0.000000
 30
0.000000
  0
LWPOLYLINE
  5
8F2
100
AcDbEntity
  8
Detail
  6
CONTINUOUS
 62
     4
100
AcDbPolyline
 90
     2
 10
-47.500018
 20
55.000069
 42
0.400000
 10
-47.500018
 20
45.000069
 42
0.000000
  0
ENDBLK
  5
8F5
100
AcDbEntity
  8
0
100
AcDbBlockEnd
  0
BLOCK
  5
8F6
100
AcDbEntity
  8
Detail
100
AcDbBlockBegin
  2
B-117
 70
    66
 10
0.000000
 20
0.000000
 30
0.000000
  0
LWPOLYLINE
  5
8F7
100
AcDbEntity
  8
Detail
  6
CONTINUOUS
 62
     4
100
AcDbPolyline
 90
     2
 10
-47.500018
 20
-154.999981
 42
0.400000
 10
-47.500018
 20
-164.999981
 42
0.000000
  0
ENDBLK
  5
8FA
100
AcDbEntity
  8
0
100
AcDbBlockEnd
  0
BLOCK
  5
8FB
100
AcDbEntity
  8
Detail
100
AcDbBlockBegin
  2
B-118
 70
    66
 10
0.000000
 20
0.000000
 30
0.000000
  0
LWPOLYLINE
  5
8FC
100
AcDbEntity
  8
Detail
  6
CONTINUOUS
 62
     4
100
AcDbPolyline
 90
     2
 10
-47.500018
 20
265.000019
 42
0.400000
 10
-47.500018
 20
255.000019
 42
0.000000
  0
ENDBLK
  5
8FF
100
AcDbEntity
  8
0
100
AcDbBlockEnd
  0
BLOCK
  5
900
100
AcDbEntity
  8
SCHRAFF
100
AcDbBlockBegin
  2
B-119
 70
    66
 10
0.000000
 20
0.000000
 30
0.000000
  0
HATCH
  5
901
100
AcDbEntity
  8
SCHRAFF
 62
   250
440
     0
100
AcDbHatch
 10
0.000000
 20
0.000000
 30
0.000000
210
0.000000
220
0.000000
230
1.000000
  2
SOLID
 70
     1
 71
     1
 91
     1
 92
    18
 72
     1
 73
     0
 93
     7
 10
-65.500018
 20
85.000069
 42
0.000000
 10
-65.500018
 20
57.000069
 42
0.000000
 10
-59.500018
 20
57.000069
 42
0.000000
 10
-59.500018
 20
55.000069
 42
0.000000
 10
-67.500018
 20
55.000069
 42
0.000000
 10
-67.500018
 20
85.000069
 42
0.000000
 10
-65.500018
 20
85.000069
 42
0.000000
 97
     0
 75
     0
 76
     1
 98
     0
  0
ENDBLK
  5
902
100
AcDbEntity
  8
0
100
AcDbBlockEnd
  0
BLOCK
  5
903
100
AcDbEntity
  8
Detail
100
AcDbBlockBegin
  2
B-120
 70
    66
 10
0.000000
 20
0.000000
 30
0.000000
  0
LWPOLYLINE
  5
904
100
AcDbEntity
  8
Detail
  6
CONTINUOUS
 62
     4
100
AcDbPolyline
 90
     7
 10
-67.500018
 20
85.000069
 42
0.000000
 10
-67.500018
 20
55.000069
 42
0.000000
 10
-59.500018
 20
55.000069
 42
0.000000
 10
-59.500018
 20
57.000069
 42
0.000000
 10
-65.500018
 20
57.000069
 42
0.000000
 10
-65.500018
 20
85.000069
 42
0.000000
 10
-67.500018
 20
85.000069
 42
0.000000
  0
ENDBLK
  5
90C
100
AcDbEntity
  8
0
100
AcDbBlockEnd
  0
BLOCK
  5
90D
100
AcDbEntity
  8
L
100
AcDbBlockBegin
  2
B-121
 70
    66
 10
0.000000
 20
0.000000
 30
0.000000
  0
LWPOLYLINE
  5
90E
100
AcDbEntity
  8
L
  6
CONTINUOUS
 62
     3
100
AcDbPolyline
 90
     4
 10
-67.500018
 20
296.250078
 42
0.000000
 10
-67.500018
 20
57.000069
 42
0.000000
 10
-147.500018
 20
57.000069
 42
0.000000
 10
-147.500018
 20
296.250078
 42
0.000000
  0
LWPOLYLINE
  5
913
100
AcDbEntity
  8
L
  6
CONTINUOUS
 62
     3
100
AcDbPolyline
 90
     4
 10
-147.500018
 20
-196.249941
 42
0.000000
 10
-147.500018
 20
43.000069
 42
0.000000
 10
-67.500018
 20
43.000069
 42
0.000000
 10
-67.500018
 20
-196.249941
 42
0.000000
  0
ENDBLK
  5
918
100
AcDbEntity
  8
0
100
AcDbBlockEnd
  0
ENDSEC
  0
SECTION
  2
ENTITIES
  0
INSERT
  5
919
100
AcDbEntity
  8
0
100
AcDbBlockReference
  2
B
 10
0.000000
 20
0.000000
 30
0.000000
 41
1.000000
 42
1.000000
 43
1.000000
 50
0.000000
  0
INSERT
  5
91A
100
AcDbEntity
  8
0
100
AcDbBlockReference
  2
B-2
 10
0.000000
 20
0.000000
 30
0.000000
 41
1.000000
 42
1.000000
 43
1.000000
 50
0.000000
  0
INSERT
  5
91B
100
AcDbEntity
  8
0
100
AcDbBlockReference
  2
B-3
 10
0.000000
 20
0.000000
 30
0.000000
 41
1.000000
 42
1.000000
 43
1.000000
 50
0.000000
  0
INSERT
  5
91C
100
AcDbEntity
  8
0
100
AcDbBlockReference
  2
B-4
 10
0.000000
 20
0.000000
 30
0.000000
 41
1.000000
 42
1.000000
 43
1.000000
 50
0.000000
  0
INSERT
  5
91D
100
AcDbEntity
  8
0
100
AcDbBlockReference
  2
B-5
 10
0.000000
 20
0.000000
 30
0.000000
 41
1.000000
 42
1.000000
 43
1.000000
 50
0.000000
  0
INSERT
  5
91E
100
AcDbEntity
  8
0
100
AcDbBlockReference
  2
B-6
 10
0.000000
 20
0.000000
 30
0.000000
 41
1.000000
 42
1.000000
 43
1.000000
 50
0.000000
  0
INSERT
  5
91F
100
AcDbEntity
  8
0
100
AcDbBlockReference
  2
B-7
 10
0.000000
 20
0.000000
 30
0.000000
 41
1.000000
 42
1.000000
 43
1.000000
 50
0.000000
  0
INSERT
  5
920
100
AcDbEntity
  8
0
100
AcDbBlockReference
  2
B-8
 10
0.000000
 20
0.000000
 30
0.000000
 41
1.000000
 42
1.000000
 43
1.000000
 50
0.000000
  0
INSERT
  5
921
100
AcDbEntity
  8
0
100
AcDbBlockReference
  2
B-9
 10
0.000000
 20
0.000000
 30
0.000000
 41
1.000000
 42
1.000000
 43
1.000000
 50
0.000000
  0
INSERT
  5
922
100
AcDbEntity
  8
Detail
100
AcDbBlockReference
  2
B-10
 10
0.000000
 20
0.000000
 30
0.000000
 41
1.000000
 42
1.000000
 43
1.000000
 50
0.000000
  0
INSERT
  5
923
100
AcDbEntity
  8
Detail
100
AcDbBlockReference
  2
B-11
 10
0.000000
 20
0.000000
 30
0.000000
 41
1.000000
 42
1.000000
 43
1.000000
 50
0.000000
  0
INSERT
  5
924
100
AcDbEntity
  8
0
100
AcDbBlockReference
  2
B-12
 10
0.000000
 20
0.000000
 30
0.000000
 41
1.000000
 42
1.000000
 43
1.000000
 50
0.000000
  0
INSERT
  5
925
100
AcDbEntity
  8
0
100
AcDbBlockReference
  2
B-13
 10
0.000000
 20
0.000000
 30
0.000000
 41
1.000000
 42
1.000000
 43
1.000000
 50
0.000000
  0
INSERT
  5
926
100
AcDbEntity
  8
Detail
100
AcDbBlockReference
  2
B-14
 10
0.000000
 20
0.000000
 30
0.000000
 41
1.000000
 42
1.000000
 43
1.000000
 50
0.000000
  0
INSERT
  5
927
100
AcDbEntity
  8
0
100
AcDbBlockReference
  2
B-15
 10
0.000000
 20
0.000000
 30
0.000000
 41
1.000000
 42
1.000000
 43
1.000000
 50
0.000000
  0
INSERT
  5
928
100
AcDbEntity
  8
Detail
100
AcDbBlockReference
  2
B-16
 10
0.000000
 20
0.000000
 30
0.000000
 41
1.000000
 42
1.000000
 43
1.000000
 50
0.000000
  0
INSERT
  5
929
100
AcDbEntity
  8
0
100
AcDbBlockReference
  2
B-17
 10
0.000000
 20
0.000000
 30
0.000000
 41
1.000000
 42
1.000000
 43
1.000000
 50
0.000000
  0
INSERT
  5
92A
100
AcDbEntity
  8
0
100
AcDbBlockReference
  2
B-18
 10
0.000000
 20
0.000000
 30
0.000000
 41
1.000000
 42
1.000000
 43
1.000000
 50
0.000000
  0
INSERT
  5
92B
100
AcDbEntity
  8
0
100
AcDbBlockReference
  2
B-19
 10
0.000000
 20
0.000000
 30
0.000000
 41
1.000000
 42
1.000000
 43
1.000000
 50
0.000000
  0
INSERT
  5
92C
100
AcDbEntity
  8
Detail
100
AcDbBlockReference
  2
B-20
 10
0.000000
 20
0.000000
 30
0.000000
 41
1.000000
 42
1.000000
 43
1.000000
 50
0.000000
  0
INSERT
  5
92D
100
AcDbEntity
  8
Detail
100
AcDbBlockReference
  2
B-21
 10
0.000000
 20
0.000000
 30
0.000000
 41
1.000000
 42
1.000000
 43
1.000000
 50
0.000000
  0
INSERT
  5
92E
100
AcDbEntity
  8
Detail
100
AcDbBlockReference
  2
B-22
 10
0.000000
 20
0.000000
 30
0.000000
 41
1.000000
 42
1.000000
 43
1.000000
 50
0.000000
  0
INSERT
  5
92F
100
AcDbEntity
  8
0
100
AcDbBlockReference
  2
B-23
 10
0.000000
 20
0.000000
 30
0.000000
 41
1.000000
 42
1.000000
 43
1.000000
 50
0.000000
  0
INSERT
  5
930
100
AcDbEntity
  8
Detail
100
AcDbBlockReference
  2
B-24
 10
0.000000
 20
0.000000
 30
0.000000
 41
1.000000
 42
1.000000
 43
1.000000
 50
0.000000
  0
INSERT
  5
931
100
AcDbEntity
  8
Detail
100
AcDbBlockReference
  2
B-25
 10
0.000000
 20
0.000000
 30
0.000000
 41
1.000000
 42
1.000000
 43
1.000000
 50
0.000000
  0
INSERT
  5
932
100
AcDbEntity
  8
Detail
100
AcDbBlockReference
  2
B-26
 10
0.000000
 20
0.000000
 30
0.000000
 41
1.000000
 42
1.000000
 43
1.000000
 50
0.000000
  0
INSERT
  5
933
100
AcDbEntity
  8
Detail
100
AcDbBlockReference
  2
B-27
 10
0.000000
 20
0.000000
 30
0.000000
 41
1.000000
 42
1.000000
 43
1.000000
 50
0.000000
  0
INSERT
  5
934
100
AcDbEntity
  8
Detail
100
AcDbBlockReference
  2
B-28
 10
0.000000
 20
0.000000
 30
0.000000
 41
1.000000
 42
1.000000
 43
1.000000
 50
0.000000
  0
INSERT
  5
935
100
AcDbEntity
  8
Detail
100
AcDbBlockReference
  2
B-29
 10
0.000000
 20
0.000000
 30
0.000000
 41
1.000000
 42
1.000000
 43
1.000000
 50
0.000000
  0
INSERT
  5
936
100
AcDbEntity
  8
Detail
100
AcDbBlockReference
  2
B-30
 10
0.000000
 20
0.000000
 30
0.000000
 41
1.000000
 42
1.000000
 43
1.000000
 50
0.000000
  0
INSERT
  5
937
100
AcDbEntity
  8
Detail
100
AcDbBlockReference
  2
B-31
 10
0.000000
 20
0.000000
 30
0.000000
 41
1.000000
 42
1.000000
 43
1.000000
 50
0.000000
  0
INSERT
  5
938
100
AcDbEntity
  8
Detail
100
AcDbBlockReference
  2
B-32
 10
0.000000
 20
0.000000
 30
0.000000
 41
1.000000
 42
1.000000
 43
1.000000
 50
0.000000
  0
INSERT
  5
939
100
AcDbEntity
  8
0
100
AcDbBlockReference
  2
B-33
 10
0.000000
 20
0.000000
 30
0.000000
 41
1.000000
 42
1.000000
 43
1.000000
 50
0.000000
  0
INSERT
  5
93A
100
AcDbEntity
  8
0
100
AcDbBlockReference
  2
B-34
 10
0.000000
 20
0.000000
 30
0.000000
 41
1.000000
 42
1.000000
 43
1.000000
 50
0.000000
  0
INSERT
  5
93B
100
AcDbEntity
  8
0
100
AcDbBlockReference
  2
B-35
 10
0.000000
 20
0.000000
 30
0.000000
 41
1.000000
 42
1.000000
 43
1.000000
 50
0.000000
  0
INSERT
  5
93C
100
AcDbEntity
  8
0
100
AcDbBlockReference
  2
B-36
 10
0.000000
 20
0.000000
 30
0.000000
 41
1.000000
 42
1.000000
 43
1.000000
 50
0.000000
  0
INSERT
  5
93D
100
AcDbEntity
  8
0
100
AcDbBlockReference
  2
B-37
 10
0.000000
 20
0.000000
 30
0.000000
 41
1.000000
 42
1.000000
 43
1.000000
 50
0.000000
  0
INSERT
  5
93E
100
AcDbEntity
  8
0
100
AcDbBlockReference
  2
B-38
 10
0.000000
 20
0.000000
 30
0.000000
 41
1.000000
 42
1.000000
 43
1.000000
 50
0.000000
  0
INSERT
  5
93F
100
AcDbEntity
  8
0
100
AcDbBlockReference
  2
B-39
 10
0.000000
 20
0.000000
 30
0.000000
 41
1.000000
 42
1.000000
 43
1.000000
 50
0.000000
  0
INSERT
  5
940
100
AcDbEntity
  8
Detail
100
AcDbBlockReference
  2
B-40
 10
0.000000
 20
0.000000
 30
0.000000
 41
1.000000
 42
1.000000
 43
1.000000
 50
0.000000
  0
INSERT
  5
941
100
AcDbEntity
  8
Detail
100
AcDbBlockReference
  2
B-41
 10
0.000000
 20
0.000000
 30
0.000000
 41
1.000000
 42
1.000000
 43
1.000000
 50
0.000000
  0
INSERT
  5
942
100
AcDbEntity
  8
Detail
100
AcDbBlockReference
  2
B-42
 10
0.000000
 20
0.000000
 30
0.000000
 41
1.000000
 42
1.000000
 43
1.000000
 50
0.000000
  0
INSERT
  5
943
100
AcDbEntity
  8
Detail
100
AcDbBlockReference
  2
B-43
 10
0.000000
 20
0.000000
 30
0.000000
 41
1.000000
 42
1.000000
 43
1.000000
 50
0.000000
  0
INSERT
  5
944
100
AcDbEntity
  8
Detail
100
AcDbBlockReference
  2
B-44
 10
0.000000
 20
0.000000
 30
0.000000
 41
1.000000
 42
1.000000
 43
1.000000
 50
0.000000
  0
INSERT
  5
945
100
AcDbEntity
  8
0
100
AcDbBlockReference
  2
B-45
 10
0.000000
 20
0.000000
 30
0.000000
 41
1.000000
 42
1.000000
 43
1.000000
 50
0.000000
  0
INSERT
  5
946
100
AcDbEntity
  8
Detail
100
AcDbBlockReference
  2
B-46
 10
0.000000
 20
0.000000
 30
0.000000
 41
1.000000
 42
1.000000
 43
1.000000
 50
0.000000
  0
INSERT
  5
947
100
AcDbEntity
  8
Detail
100
AcDbBlockReference
  2
B-47
 10
0.000000
 20
0.000000
 30
0.000000
 41
1.000000
 42
1.000000
 43
1.000000
 50
0.000000
  0
INSERT
  5
948
100
AcDbEntity
  8
0
100
AcDbBlockReference
  2
B-48
 10
0.000000
 20
0.000000
 30
0.000000
 41
1.000000
 42
1.000000
 43
1.000000
 50
0.000000
  0
INSERT
  5
949
100
AcDbEntity
  8
Detail
100
AcDbBlockReference
  2
B-49
 10
0.000000
 20
0.000000
 30
0.000000
 41
1.000000
 42
1.000000
 43
1.000000
 50
0.000000
  0
INSERT
  5
94A
100
AcDbEntity
  8
0
100
AcDbBlockReference
  2
B-50
 10
0.000000
 20
0.000000
 30
0.000000
 41
1.000000
 42
1.000000
 43
1.000000
 50
0.000000
  0
INSERT
  5
94B
100
AcDbEntity
  8
0
100
AcDbBlockReference
  2
B-51
 10
0.000000
 20
0.000000
 30
0.000000
 41
1.000000
 42
1.000000
 43
1.000000
 50
0.000000
  0
INSERT
  5
94C
100
AcDbEntity
  8
0
100
AcDbBlockReference
  2
B-52
 10
0.000000
 20
0.000000
 30
0.000000
 41
1.000000
 42
1.000000
 43
1.000000
 50
0.000000
  0
INSERT
  5
94D
100
AcDbEntity
  8
0
100
AcDbBlockReference
  2
B-53
 10
0.000000
 20
0.000000
 30
0.000000
 41
1.000000
 42
1.000000
 43
1.000000
 50
0.000000
  0
INSERT
  5
94E
100
AcDbEntity
  8
0
100
AcDbBlockReference
  2
B-54
 10
0.000000
 20
0.000000
 30
0.000000
 41
1.000000
 42
1.000000
 43
1.000000
 50
0.000000
  0
INSERT
  5
94F
100
AcDbEntity
  8
Detail
100
AcDbBlockReference
  2
B-55
 10
0.000000
 20
0.000000
 30
0.000000
 41
1.000000
 42
1.000000
 43
1.000000
 50
0.000000
  0
INSERT
  5
950
100
AcDbEntity
  8
Detail
100
AcDbBlockReference
  2
B-57
 10
0.000000
 20
0.000000
 30
0.000000
 41
1.000000
 42
1.000000
 43
1.000000
 50
0.000000
  0
INSERT
  5
951
100
AcDbEntity
  8
Detail
100
AcDbBlockReference
  2
B-58
 10
0.000000
 20
0.000000
 30
0.000000
 41
1.000000
 42
1.000000
 43
1.000000
 50
0.000000
  0
INSERT
  5
952
100
AcDbEntity
  8
Detail
100
AcDbBlockReference
  2
B-59
 10
0.000000
 20
0.000000
 30
0.000000
 41
1.000000
 42
1.000000
 43
1.000000
 50
0.000000
  0
INSERT
  5
953
100
AcDbEntity
  8
Detail
100
AcDbBlockReference
  2
B-60
 10
0.000000
 20
0.000000
 30
0.000000
 41
1.000000
 42
1.000000
 43
1.000000
 50
0.000000
  0
INSERT
  5
954
100
AcDbEntity
  8
Detail
100
AcDbBlockReference
  2
B-61
 10
0.000000
 20
0.000000
 30
0.000000
 41
1.000000
 42
1.000000
 43
1.000000
 50
0.000000
  0
INSERT
  5
955
100
AcDbEntity
  8
Detail
100
AcDbBlockReference
  2
B-62
 10
0.000000
 20
0.000000
 30
0.000000
 41
1.000000
 42
1.000000
 43
1.000000
 50
0.000000
  0
INSERT
  5
956
100
AcDbEntity
  8
Detail
100
AcDbBlockReference
  2
B-63
 10
0.000000
 20
0.000000
 30
0.000000
 41
1.000000
 42
1.000000
 43
1.000000
 50
0.000000
  0
INSERT
  5
957
100
AcDbEntity
  8
Detail
100
AcDbBlockReference
  2
B-64
 10
0.000000
 20
0.000000
 30
0.000000
 41
1.000000
 42
1.000000
 43
1.000000
 50
0.000000
  0
INSERT
  5
958
100
AcDbEntity
  8
Detail
100
AcDbBlockReference
  2
B-65
 10
0.000000
 20
0.000000
 30
0.000000
 41
1.000000
 42
1.000000
 43
1.000000
 50
0.000000
  0
INSERT
  5
959
100
AcDbEntity
  8
Detail
100
AcDbBlockReference
  2
B-66
 10
0.000000
 20
0.000000
 30
0.000000
 41
1.000000
 42
1.000000
 43
1.000000
 50
0.000000
  0
INSERT
  5
95A
100
AcDbEntity
  8
Detail
100
AcDbBlockReference
  2
B-67
 10
0.000000
 20
0.000000
 30
0.000000
 41
1.000000
 42
1.000000
 43
1.000000
 50
0.000000
  0
INSERT
  5
95B
100
AcDbEntity
  8
Detail
100
AcDbBlockReference
  2
B-68
 10
0.000000
 20
0.000000
 30
0.000000
 41
1.000000
 42
1.000000
 43
1.000000
 50
0.000000
  0
INSERT
  5
95C
100
AcDbEntity
  8
Detail
100
AcDbBlockReference
  2
B-69
 10
0.000000
 20
0.000000
 30
0.000000
 41
1.000000
 42
1.000000
 43
1.000000
 50
0.000000
  0
INSERT
  5
95D
100
AcDbEntity
  8
0
100
AcDbBlockReference
  2
B-70
 10
0.000000
 20
0.000000
 30
0.000000
 41
1.000000
 42
1.000000
 43
1.000000
 50
0.000000
  0
INSERT
  5
95E
100
AcDbEntity
  8
Detail
100
AcDbBlockReference
  2
B-71
 10
0.000000
 20
0.000000
 30
0.000000
 41
1.000000
 42
1.000000
 43
1.000000
 50
0.000000
  0
INSERT
  5
95F
100
AcDbEntity
  8
Detail
100
AcDbBlockReference
  2
B-72
 10
0.000000
 20
0.000000
 30
0.000000
 41
1.000000
 42
1.000000
 43
1.000000
 50
0.000000
  0
INSERT
  5
960
100
AcDbEntity
  8
Detail
100
AcDbBlockReference
  2
B-73
 10
0.000000
 20
0.000000
 30
0.000000
 41
1.000000
 42
1.000000
 43
1.000000
 50
0.000000
  0
INSERT
  5
961
100
AcDbEntity
  8
Detail
100
AcDbBlockReference
  2
B-74
 10
0.000000
 20
0.000000
 30
0.000000
 41
1.000000
 42
1.000000
 43
1.000000
 50
0.000000
  0
INSERT
  5
962
100
AcDbEntity
  8
Detail
100
AcDbBlockReference
  2
B-75
 10
0.000000
 20
0.000000
 30
0.000000
 41
1.000000
 42
1.000000
 43
1.000000
 50
0.000000
  0
INSERT
  5
963
100
AcDbEntity
  8
Detail
100
AcDbBlockReference
  2
B-76
 10
0.000000
 20
0.000000
 30
0.000000
 41
1.000000
 42
1.000000
 43
1.000000
 50
0.000000
  0
INSERT
  5
964
100
AcDbEntity
  8
Detail
100
AcDbBlockReference
  2
B-77
 10
0.000000
 20
0.000000
 30
0.000000
 41
1.000000
 42
1.000000
 43
1.000000
 50
0.000000
  0
INSERT
  5
965
100
AcDbEntity
  8
Detail
100
AcDbBlockReference
  2
B-78
 10
0.000000
 20
0.000000
 30
0.000000
 41
1.000000
 42
1.000000
 43
1.000000
 50
0.000000
  0
INSERT
  5
966
100
AcDbEntity
  8
Detail
100
AcDbBlockReference
  2
B-79
 10
0.000000
 20
0.000000
 30
0.000000
 41
1.000000
 42
1.000000
 43
1.000000
 50
0.000000
  0
INSERT
  5
967
100
AcDbEntity
  8
Detail
100
AcDbBlockReference
  2
B-80
 10
0.000000
 20
0.000000
 30
0.000000
 41
1.000000
 42
1.000000
 43
1.000000
 50
0.000000
  0
INSERT
  5
968
100
AcDbEntity
  8
Detail
100
AcDbBlockReference
  2
B-81
 10
0.000000
 20
0.000000
 30
0.000000
 41
1.000000
 42
1.000000
 43
1.000000
 50
0.000000
  0
INSERT
  5
969
100
AcDbEntity
  8
L
100
AcDbBlockReference
  2
B-82
 10
0.000000
 20
0.000000
 30
0.000000
 41
1.000000
 42
1.000000
 43
1.000000
 50
0.000000
  0
INSERT
  5
96A
100
AcDbEntity
  8
0
100
AcDbBlockReference
  2
B-83
 10
0.000000
 20
0.000000
 30
0.000000
 41
1.000000
 42
1.000000
 43
1.000000
 50
0.000000
  0
INSERT
  5
96B
100
AcDbEntity
  8
L
100
AcDbBlockReference
  2
B-84
 10
0.000000
 20
0.000000
 30
0.000000
 41
1.000000
 42
1.000000
 43
1.000000
 50
0.000000
  0
INSERT
  5
96C
100
AcDbEntity
  8
0
100
AcDbBlockReference
  2
B-85
 10
0.000000
 20
0.000000
 30
0.000000
 41
1.000000
 42
1.000000
 43
1.000000
 50
0.000000
  0
INSERT
  5
96D
100
AcDbEntity
  8
L
100
AcDbBlockReference
  2
B-86
 10
0.000000
 20
0.000000
 30
0.000000
 41
1.000000
 42
1.000000
 43
1.000000
 50
0.000000
  0
INSERT
  5
96E
100
AcDbEntity
  8
L
100
AcDbBlockReference
  2
B-87
 10
0.000000
 20
0.000000
 30
0.000000
 41
1.000000
 42
1.000000
 43
1.000000
 50
0.000000
  0
INSERT
  5
96F
100
AcDbEntity
  8
Detail
100
AcDbBlockReference
  2
B-88
 10
0.000000
 20
0.000000
 30
0.000000
 41
1.000000
 42
1.000000
 43
1.000000
 50
0.000000
  0
INSERT
  5
970
100
AcDbEntity
  8
Detail
100
AcDbBlockReference
  2
B-90
 10
0.000000
 20
0.000000
 30
0.000000
 41
1.000000
 42
1.000000
 43
1.000000
 50
0.000000
  0
INSERT
  5
971
100
AcDbEntity
  8
Detail
100
AcDbBlockReference
  2
B-91
 10
0.000000
 20
0.000000
 30
0.000000
 41
1.000000
 42
1.000000
 43
1.000000
 50
0.000000
  0
INSERT
  5
972
100
AcDbEntity
  8
0
100
AcDbBlockReference
  2
B-92
 10
0.000000
 20
0.000000
 30
0.000000
 41
1.000000
 42
1.000000
 43
1.000000
 50
0.000000
  0
INSERT
  5
973
100
AcDbEntity
  8
Detail
100
AcDbBlockReference
  2
B-93
 10
0.000000
 20
0.000000
 30
0.000000
 41
1.000000
 42
1.000000
 43
1.000000
 50
0.000000
  0
INSERT
  5
974
100
AcDbEntity
  8
0
100
AcDbBlockReference
  2
B-94
 10
0.000000
 20
0.000000
 30
0.000000
 41
1.000000
 42
1.000000
 43
1.000000
 50
0.000000
  0
INSERT
  5
975
100
AcDbEntity
  8
0
100
AcDbBlockReference
  2
B-95
 10
0.000000
 20
0.000000
 30
0.000000
 41
1.000000
 42
1.000000
 43
1.000000
 50
0.000000
  0
INSERT
  5
976
100
AcDbEntity
  8
0
100
AcDbBlockReference
  2
B-96
 10
0.000000
 20
0.000000
 30
0.000000
 41
1.000000
 42
1.000000
 43
1.000000
 50
0.000000
  0
INSERT
  5
977
100
AcDbEntity
  8
0
100
AcDbBlockReference
  2
B-97
 10
0.000000
 20
0.000000
 30
0.000000
 41
1.000000
 42
1.000000
 43
1.000000
 50
0.000000
  0
INSERT
  5
978
100
AcDbEntity
  8
0
100
AcDbBlockReference
  2
B-98
 10
0.000000
 20
0.000000
 30
0.000000
 41
1.000000
 42
1.000000
 43
1.000000
 50
0.000000
  0
INSERT
  5
979
100
AcDbEntity
  8
Detail
100
AcDbBlockReference
  2
B-99
 10
0.000000
 20
0.000000
 30
0.000000
 41
1.000000
 42
1.000000
 43
1.000000
 50
0.000000
  0
INSERT
  5
97A
100
AcDbEntity
  8
Detail
100
AcDbBlockReference
  2
B-100
 10
0.000000
 20
0.000000
 30
0.000000
 41
1.000000
 42
1.000000
 43
1.000000
 50
0.000000
  0
INSERT
  5
97B
100
AcDbEntity
  8
0
100
AcDbBlockReference
  2
B-101
 10
0.000000
 20
0.000000
 30
0.000000
 41
1.000000
 42
1.000000
 43
1.000000
 50
0.000000
  0
INSERT
  5
97C
100
AcDbEntity
  8
0
100
AcDbBlockReference
  2
B-102
 10
0.000000
 20
0.000000
 30
0.000000
 41
1.000000
 42
1.000000
 43
1.000000
 50
0.000000
  0
INSERT
  5
97D
100
AcDbEntity
  8
Detail
100
AcDbBlockReference
  2
B-103
 10
0.000000
 20
0.000000
 30
0.000000
 41
1.000000
 42
1.000000
 43
1.000000
 50
0.000000
  0
INSERT
  5
97E
100
AcDbEntity
  8
Detail
100
AcDbBlockReference
  2
B-104
 10
0.000000
 20
0.000000
 30
0.000000
 41
1.000000
 42
1.000000
 43
1.000000
 50
0.000000
  0
INSERT
  5
97F
100
AcDbEntity
  8
Detail
100
AcDbBlockReference
  2
B-105
 10
0.000000
 20
0.000000
 30
0.000000
 41
1.000000
 42
1.000000
 43
1.000000
 50
0.000000
  0
INSERT
  5
980
100
AcDbEntity
  8
Detail
100
AcDbBlockReference
  2
B-106
 10
0.000000
 20
0.000000
 30
0.000000
 41
1.000000
 42
1.000000
 43
1.000000
 50
0.000000
  0
INSERT
  5
981
100
AcDbEntity
  8
Detail
100
AcDbBlockReference
  2
B-107
 10
0.000000
 20
0.000000
 30
0.000000
 41
1.000000
 42
1.000000
 43
1.000000
 50
0.000000
  0
INSERT
  5
982
100
AcDbEntity
  8
Detail
100
AcDbBlockReference
  2
B-108
 10
0.000000
 20
0.000000
 30
0.000000
 41
1.000000
 42
1.000000
 43
1.000000
 50
0.000000
  0
INSERT
  5
983
100
AcDbEntity
  8
Detail
100
AcDbBlockReference
  2
B-109
 10
0.000000
 20
0.000000
 30
0.000000
 41
1.000000
 42
1.000000
 43
1.000000
 50
0.000000
  0
INSERT
  5
984
100
AcDbEntity
  8
L
100
AcDbBlockReference
  2
B-110
 10
0.000000
 20
0.000000
 30
0.000000
 41
1.000000
 42
1.000000
 43
1.000000
 50
0.000000
  0
INSERT
  5
985
100
AcDbEntity
  8
L
100
AcDbBlockReference
  2
B-111
 10
0.000000
 20
0.000000
 30
0.000000
 41
1.000000
 42
1.000000
 43
1.000000
 50
0.000000
  0
INSERT
  5
986
100
AcDbEntity
  8
0
100
AcDbBlockReference
  2
B-112
 10
0.000000
 20
0.000000
 30
0.000000
 41
1.000000
 42
1.000000
 43
1.000000
 50
0.000000
  0
INSERT
  5
987
100
AcDbEntity
  8
0
100
AcDbBlockReference
  2
B-113
 10
0.000000
 20
0.000000
 30
0.000000
 41
1.000000
 42
1.000000
 43
1.000000
 50
0.000000
  0
INSERT
  5
988
100
AcDbEntity
  8
Detail
100
AcDbBlockReference
  2
B-114
 10
0.000000
 20
0.000000
 30
0.000000
 41
1.000000
 42
1.000000
 43
1.000000
 50
0.000000
  0
INSERT
  5
989
100
AcDbEntity
  8
Detail
100
AcDbBlockReference
  2
B-115
 10
0.000000
 20
0.000000
 30
0.000000
 41
1.000000
 42
1.000000
 43
1.000000
 50
0.000000
  0
INSERT
  5
98A
100
AcDbEntity
  8
Detail
100
AcDbBlockReference
  2
B-116
 10
0.000000
 20
0.000000
 30
0.000000
 41
1.000000
 42
1.000000
 43
1.000000
 50
0.000000
  0
INSERT
  5
98B
100
AcDbEntity
  8
Detail
100
AcDbBlockReference
  2
B-117
 10
0.000000
 20
0.000000
 30
0.000000
 41
1.000000
 42
1.000000
 43
1.000000
 50
0.000000
  0
INSERT
  5
98C
100
AcDbEntity
  8
Detail
100
AcDbBlockReference
  2
B-118
 10
0.000000
 20
0.000000
 30
0.000000
 41
1.000000
 42
1.000000
 43
1.000000
 50
0.000000
  0
INSERT
  5
98D
100
AcDbEntity
  8
0
100
AcDbBlockReference
  2
B-119
 10
0.000000
 20
0.000000
 30
0.000000
 41
1.000000
 42
1.000000
 43
1.000000
 50
0.000000
  0
INSERT
  5
98E
100
AcDbEntity
  8
Detail
100
AcDbBlockReference
  2
B-120
 10
0.000000
 20
0.000000
 30
0.000000
 41
1.000000
 42
1.000000
 43
1.000000
 50
0.000000
  0
INSERT
  5
98F
100
AcDbEntity
  8
L
100
AcDbBlockReference
  2
B-121
 10
0.000000
 20
0.000000
 30
0.000000
 41
1.000000
 42
1.000000
 43
1.000000
 50
0.000000
  0
ENDSEC
  0
SECTION
  2
OBJECTS
  0
DICTIONARY
  5
C
330
0
100
AcDbDictionary
281
     1
  3
ACAD_COLOR
350
6B
  3
ACAD_GROUP
350
D
  3
ACAD_IMAGE_DICT
350
1E2
  3
ACAD_IMAGE_VARS
350
1E3
  3
ACAD_MATERIAL
350
6A
  3
ACAD_MLINESTYLE
350
17
  3
ACAD_PLOTSETTINGS
350
19
  3
ACAD_PLOTSTYLENAME
350
E
  3
ACAD_SCALELIST
350
10C
  3
ACAD_TABLESTYLE
350
7E
  3
ACAD_VISUALSTYLE
350
EF
  3
ACDB_RECOMPOSE_DATA
350
15D
  3
AcDbVariableDictionary
350
5E
  0
DICTIONARY
  5
13C
330
10
100
AcDbDictionary
280
     1
281
     1
  0
DICTIONARY
  5
203
330
202
100
AcDbDictionary
280
     1
281
     1
  0
DICTIONARY
  5
6B
102
{ACAD_REACTORS
330
C
102
}
330
C
100
AcDbDictionary
281
     1
  0
DICTIONARY
  5
D
102
{ACAD_REACTORS
330
C
102
}
330
C
100
AcDbDictionary
281
     1
  0
DICTIONARY
  5
1E2
102
{ACAD_REACTORS
330
C
102
}
330
C
100
AcDbDictionary
281
     1
  3
WDVS mit Hartbekleidung_Fläche mit Dehnfuge_6_1.tif
350
216
  0
RASTERVARIABLES
  5
1E3
102
{ACAD_REACTORS
330
C
102
}
330
C
100
AcDbRasterVariables
 90
        0
 70
     1
 71
     1
 72
     1
  0
DICTIONARY
  5
6A
102
{ACAD_REACTORS
330
C
102
}
330
C
100
AcDbDictionary
281
     1
  3
ByBlock
350
ED
  3
ByLayer
350
EC
  3
Global
350
EE
  0
DICTIONARY
  5
12D
102
{ACAD_REACTORS
330
C
102
}
330
C
100
AcDbDictionary
281
     1
  3
Annotative
350
13B
  3
Standard
350
12E
  0
DICTIONARY
  5
17
102
{ACAD_REACTORS
330
C
102
}
330
C
100
AcDbDictionary
281
     1
  3
Standard
350
18
  0
DICTIONARY
  5
19
102
{ACAD_REACTORS
330
C
102
}
330
C
100
AcDbDictionary
281
     1
  0
ACDBDICTIONARYWDFLT
  5
E
102
{ACAD_REACTORS
330
C
102
}
330
C
100
AcDbDictionary
281
     1
  3
Normal
350
F
100
AcDbDictionaryWithDefault
340
F
  0
DICTIONARY
  5
10C
102
{ACAD_REACTORS
330
C
102
}
330
C
100
AcDbDictionary
281
     1
  3
A0
350
10D
  3
A1
350
1BE
  3
A2
350
1BF
  3
A3
350
1C0
  3
A4
350
1C1
  3
A5
350
1C2
  3
A6
350
1C3
  3
A7
350
1C4
  3
A8
350
1C5
  3
A9
350
1C6
  3
B0
350
1C7
  3
B1
350
1C8
  3
B2
350
1C9
  3
B3
350
1CA
  3
B4
350
1CB
  3
B5
350
1CC
  3
B6
350
1CD
  0
DICTIONARY
  5
7E
102
{ACAD_REACTORS
330
C
102
}
330
C
100
AcDbDictionary
281
     1
  3
Standard
350
7F
  0
DICTIONARY
  5
EF
102
{ACAD_REACTORS
330
C
102
}
330
C
100
AcDbDictionary
281
     1
  3
2dWireframe
350
F5
  3
3D Hidden
350
F7
  3
3dWireframe
350
F6
  3
Basic
350
F4
  3
Brighten
350
FB
  3
ColorChange
350
FF
  3
Conceptual
350
F8
  3
Dim
350
FA
  3
Facepattern
350
FE
  3
Flat
350
F0
  3
FlatWithEdges
350
F1
  3
Gouraud
350
F2
  3
GouraudWithEdges
350
F3
  3
Linepattern
350
FD
  3
Realistic
350
F9
  3
Thicken
350
FC
  0
XRECORD
  5
15D
102
{ACAD_REACTORS
330
C
102
}
330
C
100
AcDbXrecord
280
     1
 90
        1
330
7F
  0
DICTIONARY
  5
5E
102
{ACAD_REACTORS
330
C
102
}
330
C
100
AcDbDictionary
281
     1
  3
CANNOSCALE
350
146
  3
CMLEADERSTYLE
350
145
  3
CTABLESTYLE
350
84
  3
DIMASSOC
350
5F
  3
HIDETEXT
350
63
  3
LAYEREVAL
350
1AE
  3
LAYERNOTIFY
350
1AF
  0
MATERIAL
  5
ED
102
{ACAD_REACTORS
330
6A
102
}
330
6A
100
AcDbMaterial
  1
ByBlock
 94
       63
  0
MATERIAL
  5
EC
102
{ACAD_REACTORS
330
6A
102
}
330
6A
100
AcDbMaterial
  1
ByLayer
 94
       63
  0
MATERIAL
  5
EE
102
{ACAD_XDICTIONARY
360
173
102
}
102
{ACAD_REACTORS
330
6A
102
}
330
6A
100
AcDbMaterial
  1
Global
 43
0.0007999999797903
 43
0.0
 43
0.0
 43
0.0
 43
0.0
 43
0.0007999999797903
 43
0.0
 43
0.0
 43
0.0
 43
0.0
 43
1.0
 43
0.0
 43
0.0
 43
0.0
 43
0.0
 43
1.0
 49
0.0007999999797903
 49
0.0
 49
0.0
 49
0.0
 49
0.0
 49
0.0007999999797903
 49
0.0
 49
0.0
 49
0.0
 49
0.0
 49
1.0
 49
0.0
 49
0.0
 49
0.0
 49
0.0
 49
1.0
142
0.0007999999797903
142
0.0
142
0.0
142
0.0
142
0.0
142
0.0007999999797903
142
0.0
142
0.0
142
0.0
142
0.0
142
1.0
142
0.0
142
0.0
142
0.0
142
0.0
142
1.0
144
0.0007999999797903
144
0.0
144
0.0
144
0.0
144
0.0
144
0.0007999999797903
144
0.0
144
0.0
144
0.0
144
0.0
144
1.0
144
0.0
144
0.0
144
0.0
144
0.0
144
1.0
 94
       63
1001
ACAD
1070
    -1
1070
     3
1070
     0
1000

1071
        0
1070
     0
  0
MLINESTYLE
  5
18
102
{ACAD_REACTORS
330
17
102
}
330
17
100
AcDbMlineStyle
  2
STANDARD
 70
     0
  3

 62
   256
 51
90.0
 52
90.0
 71
     2
 49
0.5
 62
   256
  6
BYLAYER
 49
-0.5
 62
   256
  6
BYLAYER
  0
ACDBPLACEHOLDER
  5
F
102
{ACAD_REACTORS
330
E
102
}
330
E
  0
SCALE
  5
10D
102
{ACAD_REACTORS
330
10C
102
}
330
10C
100
AcDbScale
 70
     0
300
1:1
140
1.0
141
1.0
290
     1
  0
SCALE
  5
1BE
102
{ACAD_REACTORS
330
10C
102
}
330
10C
100
AcDbScale
 70
     0
300
1:2
140
1.0
141
2.0
290
     0
  0
SCALE
  5
1BF
102
{ACAD_REACTORS
330
10C
102
}
330
10C
100
AcDbScale
 70
     0
300
1:4
140
1.0
141
4.0
290
     0
  0
SCALE
  5
1C0
102
{ACAD_REACTORS
330
10C
102
}
330
10C
100
AcDbScale
 70
     0
300
1:5
140
1.0
141
5.0
290
     0
  0
SCALE
  5
1C1
102
{ACAD_REACTORS
330
10C
102
}
330
10C
100
AcDbScale
 70
     0
300
1:8
140
1.0
141
8.0
290
     0
  0
SCALE
  5
1C2
102
{ACAD_REACTORS
330
10C
102
}
330
10C
100
AcDbScale
 70
     0
300
1:10
140
1.0
141
10.0
290
     0
  0
SCALE
  5
1C3
102
{ACAD_REACTORS
330
10C
102
}
330
10C
100
AcDbScale
 70
     0
300
1:16
140
1.0
141
16.0
290
     0
  0
SCALE
  5
1C4
102
{ACAD_REACTORS
330
10C
102
}
330
10C
100
AcDbScale
 70
     0
300
1:20
140
1.0
141
20.0
290
     0
  0
SCALE
  5
1C5
102
{ACAD_REACTORS
330
10C
102
}
330
10C
100
AcDbScale
 70
     0
300
1:30
140
1.0
141
30.0
290
     0
  0
SCALE
  5
1C6
102
{ACAD_REACTORS
330
10C
102
}
330
10C
100
AcDbScale
 70
     0
300
1:40
140
1.0
141
40.0
290
     0
  0
SCALE
  5
1C7
102
{ACAD_REACTORS
330
10C
102
}
330
10C
100
AcDbScale
 70
     0
300
1:50
140
1.0
141
50.0
290
     0
  0
SCALE
  5
1C8
102
{ACAD_REACTORS
330
10C
102
}
330
10C
100
AcDbScale
 70
     0
300
1:100
140
1.0
141
100.0
290
     0
  0
SCALE
  5
1C9
102
{ACAD_REACTORS
330
10C
102
}
330
10C
100
AcDbScale
 70
     0
300
2:1
140
2.0
141
1.0
290
     0
  0
SCALE
  5
1CA
102
{ACAD_REACTORS
330
10C
102
}
330
10C
100
AcDbScale
 70
     0
300
4:1
140
4.0
141
1.0
290
     0
  0
SCALE
  5
1CB
102
{ACAD_REACTORS
330
10C
102
}
330
10C
100
AcDbScale
 70
     0
300
8:1
140
8.0
141
1.0
290
     0
  0
SCALE
  5
1CC
102
{ACAD_REACTORS
330
10C
102
}
330
10C
100
AcDbScale
 70
     0
300
10:1
140
10.0
141
1.0
290
     0
  0
SCALE
  5
1CD
102
{ACAD_REACTORS
330
10C
102
}
330
10C
100
AcDbScale
 70
     0
300
100:1
140
100.0
141
1.0
290
     0
  0
TABLESTYLE
  5
7F
102
{ACAD_XDICTIONARY
360
162
102
}
102
{ACAD_REACTORS
330
7E
102
}
330
7E
100
AcDbTableStyle
  3
Standard
 70
     0
 71
     0
 40
1.5
 41
1.5
280
     0
281
     0
  7
Standard
140
4.5
170
     2
 62
     0
 63
     7
283
     0
 90
      512
 91
        0
  1

274
    -2
284
     1
 64
     0
275
    -2
285
     1
 65
     0
276
    -2
286
     1
 66
     0
277
    -2
287
     1
 67
     0
278
    -2
288
     1
 68
     0
279
    -2
289
     1
 69
     0
  7
Standard
140
6.0
170
     5
 62
     0
 63
     7
283
     0
 90
      512
 91
        0
  1

274
    -2
284
     1
 64
     0
275
    -2
285
     1
 65
     0
276
    -2
286
     1
 66
     0
277
    -2
287
     1
 67
     0
278
    -2
288
     1
 68
     0
279
    -2
289
     1
 69
     0
  7
Standard
140
4.5
170
     5
 62
     0
 63
     7
283
     0
 90
      512
 91
        0
  1

274
    -2
284
     1
 64
     0
275
    -2
285
     1
 65
     0
276
    -2
286
     1
 66
     0
277
    -2
287
     1
 67
     0
278
    -2
288
     1
 68
     0
279
    -2
289
     1
 69
     0
  0
VISUALSTYLE
  5
F5
102
{ACAD_REACTORS
330
EF
102
}
330
EF
100
AcDbVisualStyle
  2
2dWireframe
 70
     4
 71
     0
 72
     2
 73
     1
 90
        0
 40
-0.6
 41
-30.0
 62
     5
 63
     7
421
 16777215
 74
     1
 91
        4
 64
     7
 65
   257
 75
     1
175
     1
 42
1.0
 92
        0
 66
   257
 43
1.0
 76
     1
 77
     6
 78
     2
 67
     7
 79
     5
170
     0
171
     0
290
     0
174
     0
 93
        1
 44
0.0
173
     0
291
     0
 45
0.0
  0
VISUALSTYLE
  5
F7
102
{ACAD_REACTORS
330
EF
102
}
330
EF
100
AcDbVisualStyle
  2
3D Hidden
 70
     6
 71
     1
 72
     2
 73
     2
 90
        0
 40
-0.6
 41
-30.0
 62
     5
 63
     7
421
 16777215
 74
     2
 91
        2
 64
     7
 65
   257
 75
     2
175
     1
 42
40.0
 92
        0
 66
   257
 43
1.0
 76
     1
 77
     6
 78
     2
 67
     7
 79
     3
170
     0
171
     0
290
     0
174
     0
 93
        1
 44
0.0
173
     0
291
     0
 45
0.0
  0
VISUALSTYLE
  5
F6
102
{ACAD_REACTORS
330
EF
102
}
330
EF
100
AcDbVisualStyle
  2
3dWireframe
 70
     5
 71
     0
 72
     2
 73
     1
 90
        0
 40
-0.6
 41
-30.0
 62
     5
 63
     7
421
 16777215
 74
     1
 91
        4
 64
     7
 65
   257
 75
     1
175
     1
 42
1.0
 92
        0
 66
   257
 43
1.0
 76
     1
 77
     6
 78
     2
 67
     7
 79
     5
170
     0
171
     0
290
     0
174
     0
 93
        1
 44
0.0
173
     0
291
     0
 45
0.0
  0
VISUALSTYLE
  5
F4
102
{ACAD_REACTORS
330
EF
102
}
330
EF
100
AcDbVisualStyle
  2
Basic
 70
     7
 71
     1
 72
     0
 73
     1
 90
        0
 40
-0.6
 41
-30.0
 62
     5
 63
     7
421
 16777215
 74
     0
 91
        4
 64
     7
 65
   257
 75
     1
175
     1
 42
1.0
 92
        8
 66
     7
 43
1.0
 76
     1
 77
     6
 78
     2
 67
     7
 79
     5
170
     0
171
     0
290
     0
174
     0
 93
        1
 44
0.0
173
     0
291
     1
 45
0.0
  0
VISUALSTYLE
  5
FB
102
{ACAD_REACTORS
330
EF
102
}
330
EF
100
AcDbVisualStyle
  2
Brighten
 70
    12
 71
     2
 72
     2
 73
     1
 90
        0
 40
-0.6
 41
-30.0
 62
     5
 63
     7
421
 16777215
 74
     1
 91
        4
 64
     7
 65
   257
 75
     1
175
     1
 42
1.0
 92
        8
 66
     7
 43
1.0
 76
     1
 77
     6
 78
     2
 67
     7
 79
     5
170
     0
171
     0
290
     0
174
     0
 93
        1
 44
50.0
173
     0
291
     1
 45
0.0
  0
VISUALSTYLE
  5
FF
102
{ACAD_REACTORS
330
EF
102
}
330
EF
100
AcDbVisualStyle
  2
ColorChange
 70
    16
 71
     2
 72
     2
 73
     3
 90
        0
 40
-0.6
 41
-30.0
 62
     5
 63
     8
421
  8421504
 74
     1
 91
        4
 64
     7
 65
   257
 75
     1
175
     1
 42
1.0
 92
        8
 66
     8
424
  8421504
 43
1.0
 76
     1
 77
     6
 78
     2
 67
     7
 79
     5
170
     0
171
     0
290
     0
174
     0
 93
        1
 44
0.0
173
     0
291
     1
 45
0.0
  0
VISUALSTYLE
  5
F8
102
{ACAD_REACTORS
330
EF
102
}
330
EF
100
AcDbVisualStyle
  2
Conceptual
 70
     9
 71
     3
 72
     2
 73
     1
 90
        0
 40
-0.6
 41
-30.0
 62
     5
 63
     7
421
 16777215
 74
     2
 91
        2
 64
     7
 65
   257
 75
     1
175
     1
 42
40.0
 92
        8
 66
     7
 43
1.0
 76
     1
 77
     6
 78
     2
 67
     7
 79
     3
170
     0
171
     0
290
     0
174
     0
 93
        1
 44
0.0
173
     0
291
     0
 45
0.0
  0
VISUALSTYLE
  5
FA
102
{ACAD_REACTORS
330
EF
102
}
330
EF
100
AcDbVisualStyle
  2
Dim
 70
    11
 71
     2
 72
     2
 73
     1
 90
        0
 40
-0.6
 41
-30.0
 62
     5
 63
     7
421
 16777215
 74
     1
 91
        4
 64
     7
 65
   257
 75
     1
175
     1
 42
1.0
 92
        8
 66
     7
 43
1.0
 76
     1
 77
     6
 78
     2
 67
     7
 79
     5
170
     0
171
     0
290
     0
174
     0
 93
        1
 44
-50.0
173
     0
291
     1
 45
0.0
  0
VISUALSTYLE
  5
FE
102
{ACAD_REACTORS
330
EF
102
}
330
EF
100
AcDbVisualStyle
  2
Facepattern
 70
    15
 71
     2
 72
     2
 73
     1
 90
        0
 40
-0.6
 41
-30.0
 62
     5
 63
     7
421
 16777215
 74
     1
 91
        4
 64
     7
 65
   257
 75
     1
175
     1
 42
1.0
 92
        8
 66
     7
 43
1.0
 76
     1
 77
     6
 78
     2
 67
     7
 79
     5
170
     0
171
     0
290
     0
174
     0
 93
        1
 44
0.0
173
     0
291
     1
 45
0.0
  0
VISUALSTYLE
  5
F0
102
{ACAD_REACTORS
330
EF
102
}
330
EF
100
AcDbVisualStyle
  2
Flat
 70
     0
 71
     2
 72
     1
 73
     1
 90
        2
 40
-0.6
 41
30.0
 62
     5
 63
     7
421
 16777215
 74
     0
 91
        4
 64
     7
 65
   257
 75
     1
175
     1
 42
1.0
 92
        8
 66
     7
 43
1.0
 76
     1
 77
     6
 78
     2
 67
     7
 79
     5
170
     0
171
     0
290
     0
174
     0
 93
        1
 44
0.0
173
     0
291
     1
 45
0.0
  0
VISUALSTYLE
  5
F1
102
{ACAD_REACTORS
330
EF
102
}
330
EF
100
AcDbVisualStyle
  2
FlatWithEdges
 70
     1
 71
     2
 72
     1
 73
     1
 90
        2
 40
-0.6
 41
30.0
 62
     5
 63
     7
421
 16777215
 74
     1
 91
        4
 64
     7
 65
   257
 75
     1
175
     1
 42
1.0
 92
        0
 66
   257
 43
1.0
 76
     1
 77
     6
 78
     2
 67
     7
 79
     5
170
     0
171
     0
290
     0
174
     0
 93
        1
 44
0.0
173
     0
291
     1
 45
0.0
  0
VISUALSTYLE
  5
F2
102
{ACAD_REACTORS
330
EF
102
}
330
EF
100
AcDbVisualStyle
  2
Gouraud
 70
     2
 71
     2
 72
     2
 73
     1
 90
        2
 40
-0.6
 41
30.0
 62
     5
 63
     7
421
 16777215
 74
     0
 91
        4
 64
     7
 65
   257
 75
     1
175
     1
 42
1.0
 92
        0
 66
     7
 43
1.0
 76
     1
 77
     6
 78
     2
 67
     7
 79
     5
170
     0
171
     0
290
     0
174
     0
 93
        1
 44
0.0
173
     0
291
     1
 45
0.0
  0
VISUALSTYLE
  5
F3
102
{ACAD_REACTORS
330
EF
102
}
330
EF
100
AcDbVisualStyle
  2
GouraudWithEdges
 70
     3
 71
     2
 72
     2
 73
     1
 90
        2
 40
-0.6
 41
30.0
 62
     5
 63
     7
421
 16777215
 74
     1
 91
        4
 64
     7
 65
   257
 75
     1
175
     1
 42
1.0
 92
        0
 66
   257
 43
1.0
 76
     1
 77
     6
 78
     2
 67
     7
 79
     5
170
     0
171
     0
290
     0
174
     0
 93
        1
 44
0.0
173
     0
291
     1
 45
0.0
  0
VISUALSTYLE
  5
FD
102
{ACAD_REACTORS
330
EF
102
}
330
EF
100
AcDbVisualStyle
  2
Linepattern
 70
    14
 71
     2
 72
     2
 73
     1
 90
        0
 40
-0.6
 41
-30.0
 62
     5
 63
     7
421
 16777215
 74
     1
 91
        4
 64
     7
 65
   257
 75
     7
175
     7
 42
1.0
 92
        8
 66
     7
 43
1.0
 76
     1
 77
     6
 78
     2
 67
     7
 79
     5
170
     0
171
     0
290
     0
174
     0
 93
        1
 44
0.0
173
     0
291
     1
 45
0.0
  0
VISUALSTYLE
  5
F9
102
{ACAD_REACTORS
330
EF
102
}
330
EF
100
AcDbVisualStyle
  2
Realistic
 70
     8
 71
     2
 72
     2
 73
     1
 90
        0
 40
-0.6
 41
-30.0
 62
     5
 63
     7
421
 16777215
 74
     1
 91
        0
 64
     7
 65
   257
 75
     1
175
     1
 42
1.0
 92
        8
 66
     8
424
  7895160
 43
1.0
 76
     1
 77
     6
 78
     2
 67
     7
 79
     5
170
     0
171
     0
290
     0
174
     0
 93
       13
 44
0.0
173
     0
291
     0
 45
0.0
  0
VISUALSTYLE
  5
FC
102
{ACAD_REACTORS
330
EF
102
}
330
EF
100
AcDbVisualStyle
  2
Thicken
 70
    13
 71
     2
 72
     2
 73
     1
 90
        0
 40
-0.6
 41
-30.0
 62
     5
 63
     7
421
 16777215
 74
     1
 91
        4
 64
     7
 65
   257
 75
     1
175
     1
 42
1.0
 92
       12
 66
     7
 43
1.0
 76
     1
 77
     6
 78
     2
 67
     7
 79
     5
170
     0
171
     0
290
     0
174
     0
 93
        1
 44
0.0
173
     0
291
     1
 45
0.0
  0
DICTIONARYVAR
  5
146
102
{ACAD_REACTORS
330
5E
102
}
330
5E
100
DictionaryVariables
280
     0
  1
1:1
  0
DICTIONARYVAR
  5
145
102
{ACAD_REACTORS
330
5E
102
}
330
5E
100
DictionaryVariables
280
     0
  1
STANDARD
  0
DICTIONARYVAR
  5
84
102
{ACAD_REACTORS
330
5E
102
}
330
5E
100
DictionaryVariables
280
     0
  1
STANDARD
  0
DICTIONARYVAR
  5
5F
102
{ACAD_REACTORS
330
5E
102
}
330
5E
100
DictionaryVariables
280
     0
  1
2
  0
DICTIONARYVAR
  5
63
102
{ACAD_REACTORS
330
5E
102
}
330
5E
100
DictionaryVariables
280
     0
  1
1
  0
DICTIONARYVAR
  5
1AE
102
{ACAD_REACTORS
330
5E
102
}
330
5E
100
DictionaryVariables
280
     0
  1
0
  0
DICTIONARYVAR
  5
1AF
102
{ACAD_REACTORS
330
5E
102
}
330
5E
100
DictionaryVariables
280
     0
  1
0
  0
DICTIONARY
  5
173
330
EE
100
AcDbDictionary
280
     1
281
     1
  3
BUMPTILE
360
175
  3
DIFFUSETILE
360
174
  3
OPACITYTILE
360
176
  3
REFLECTIONTILE
360
177
  0
DICTIONARY
  5
162
330
7F
100
AcDbDictionary
280
     1
281
     1
  3
ACAD_ROUNDTRIP_2008_TABLESTYLE_CELLSTYLEMAP
360
1E7
  0
XRECORD
  5
175
102
{ACAD_REACTORS
330
173
102
}
330
173
100
AcDbXrecord
280
     1
270
     1
271
     1
  0
XRECORD
  5
174
102
{ACAD_REACTORS
330
173
102
}
330
173
100
AcDbXrecord
280
     1
270
     1
271
     1
  0
XRECORD
  5
176
102
{ACAD_REACTORS
330
173
102
}
330
173
100
AcDbXrecord
280
     1
270
     1
271
     1
  0
XRECORD
  5
177
102
{ACAD_REACTORS
330
173
102
}
330
173
100
AcDbXrecord
280
     1
270
     1
271
     1
  0
CELLSTYLEMAP
  5
1E7
102
{ACAD_REACTORS
330
162
102
}
330
162
100
AcDbCellStyleMap
 90
        3
300
CELLSTYLE
  1
TABLEFORMAT_BEGIN
 90
        5
170
     1
 91
        0
 92
    32768
 62
   257
 93
        1
300
CONTENTFORMAT
  1
CONTENTFORMAT_BEGIN
 90
        0
 91
        0
 92
      512
 93
        0
300

 40
0.0
140
1.0
 94
        5
 62
     0
340
11
144
6.0
309
CONTENTFORMAT_END
171
     1
301
MARGIN
  1
CELLMARGIN_BEGIN
 40
1.5
 40
1.5
 40
1.5
 40
1.5
 40
4.5
 40
4.5
309
CELLMARGIN_END
 94
        6
 95
        1
302
GRIDFORMAT
  1
GRIDFORMAT_BEGIN
 90
        0
 91
        1
 62
     0
 92
       -2
340
8C3
 93
        0
 40
1.125
309
GRIDFORMAT_END
 95
        2
302
GRIDFORMAT
  1
GRIDFORMAT_BEGIN
 90
        0
 91
        1
 62
     0
 92
       -2
340
8C3
 93
        0
 40
1.125
309
GRIDFORMAT_END
 95
        4
302
GRIDFORMAT
  1
GRIDFORMAT_BEGIN
 90
        0
 91
        1
 62
     0
 92
       -2
340
8C3
 93
        0
 40
1.125
309
GRIDFORMAT_END
 95
        8
302
GRIDFORMAT
  1
GRIDFORMAT_BEGIN
 90
        0
 91
        1
 62
     0
 92
       -2
340
8C3
 93
        0
 40
1.125
309
GRIDFORMAT_END
 95
       16
302
GRIDFORMAT
  1
GRIDFORMAT_BEGIN
 90
        0
 91
        1
 62
     0
 92
       -2
340
8C3
 93
        0
 40
1.125
309
GRIDFORMAT_END
 95
       32
302
GRIDFORMAT
  1
GRIDFORMAT_BEGIN
 90
        0
 91
        1
 62
     0
 92
       -2
340
8C3
 93
        0
 40
1.125
309
GRIDFORMAT_END
309
TABLEFORMAT_END
  1
CELLSTYLE_BEGIN
 90
        1
 91
        1
300
_TITLE
309
CELLSTYLE_END
300
CELLSTYLE
  1
TABLEFORMAT_BEGIN
 90
        5
170
     1
 91
        0
 92
        0
 62
   257
 93
        1
300
CONTENTFORMAT
  1
CONTENTFORMAT_BEGIN
 90
        0
 91
        0
 92
      512
 93
        0
300

 40
0.0
140
1.0
 94
        5
 62
     0
340
11
144
4.5
309
CONTENTFORMAT_END
171
     1
301
MARGIN
  1
CELLMARGIN_BEGIN
 40
1.5
 40
1.5
 40
1.5
 40
1.5
 40
4.5
 40
4.5
309
CELLMARGIN_END
 94
        6
 95
        1
302
GRIDFORMAT
  1
GRIDFORMAT_BEGIN
 90
        0
 91
        1
 62
     0
 92
       -2
340
8C3
 93
        0
 40
1.125
309
GRIDFORMAT_END
 95
        2
302
GRIDFORMAT
  1
GRIDFORMAT_BEGIN
 90
        0
 91
        1
 62
     0
 92
       -2
340
8C3
 93
        0
 40
1.125
309
GRIDFORMAT_END
 95
        4
302
GRIDFORMAT
  1
GRIDFORMAT_BEGIN
 90
        0
 91
        1
 62
     0
 92
       -2
340
8C3
 93
        0
 40
1.125
309
GRIDFORMAT_END
 95
        8
302
GRIDFORMAT
  1
GRIDFORMAT_BEGIN
 90
        0
 91
        1
 62
     0
 92
       -2
340
8C3
 93
        0
 40
1.125
309
GRIDFORMAT_END
 95
       16
302
GRIDFORMAT
  1
GRIDFORMAT_BEGIN
 90
        0
 91
        1
 62
     0
 92
       -2
340
8C3
 93
        0
 40
1.125
309
GRIDFORMAT_END
 95
       32
302
GRIDFORMAT
  1
GRIDFORMAT_BEGIN
 90
        0
 91
        1
 62
     0
 92
       -2
340
8C3
 93
        0
 40
1.125
309
GRIDFORMAT_END
309
TABLEFORMAT_END
  1
CELLSTYLE_BEGIN
 90
        2
 91
        1
300
_HEADER
309
CELLSTYLE_END
300
CELLSTYLE
  1
TABLEFORMAT_BEGIN
 90
        5
170
     1
 91
        0
 92
        0
 62
   257
 93
        1
300
CONTENTFORMAT
  1
CONTENTFORMAT_BEGIN
 90
        0
 91
        0
 92
      512
 93
        0
300

 40
0.0
140
1.0
 94
        2
 62
     0
340
11
144
4.5
309
CONTENTFORMAT_END
171
     1
301
MARGIN
  1
CELLMARGIN_BEGIN
 40
1.5
 40
1.5
 40
1.5
 40
1.5
 40
4.5
 40
4.5
309
CELLMARGIN_END
 94
        6
 95
        1
302
GRIDFORMAT
  1
GRIDFORMAT_BEGIN
 90
        0
 91
        1
 62
     0
 92
       -2
340
8C3
 93
        0
 40
1.125
309
GRIDFORMAT_END
 95
        2
302
GRIDFORMAT
  1
GRIDFORMAT_BEGIN
 90
        0
 91
        1
 62
     0
 92
       -2
340
8C3
 93
        0
 40
1.125
309
GRIDFORMAT_END
 95
        4
302
GRIDFORMAT
  1
GRIDFORMAT_BEGIN
 90
        0
 91
        1
 62
     0
 92
       -2
340
8C3
 93
        0
 40
1.125
309
GRIDFORMAT_END
 95
        8
302
GRIDFORMAT
  1
GRIDFORMAT_BEGIN
 90
        0
 91
        1
 62
     0
 92
       -2
340
8C3
 93
        0
 40
1.125
309
GRIDFORMAT_END
 95
       16
302
GRIDFORMAT
  1
GRIDFORMAT_BEGIN
 90
        0
 91
        1
 62
     0
 92
       -2
340
8C3
 93
        0
 40
1.125
309
GRIDFORMAT_END
 95
       32
302
GRIDFORMAT
  1
GRIDFORMAT_BEGIN
 90
        0
 91
        1
 62
     0
 92
       -2
340
8C3
 93
        0
 40
1.125
309
GRIDFORMAT_END
309
TABLEFORMAT_END
  1
CELLSTYLE_BEGIN
 90
        3
 91
        2
300
_DATA
309
CELLSTYLE_END
  0
IMAGEDEF_REACTOR
  5
217
330
215
100
AcDbRasterImageDefReactor
 90
     2
330
215
  0
IMAGEDEF
  5
216
102
{ACAD_REACTORS
330
5E
330
217
102
}
330
5E
100
AcDbRasterImageDef
 90
     0
  1
WDVS mit Hartbekleidung_Fläche mit Dehnfuge_6_1.tif
 10
395.000000
 20
405.000000
 11
0.002532
 21
0.002469
280
     1
281
     0
  0
ENDSEC
  0
EOF
