  0
SECTION
  2
HEADER
  9
$ACADVER
  1
AC1024
  9
$ACADMAINTVER
 70
     6
  9
$DWGCODEPAGE
  3
ANSI_1252
  9
$INSBASE
 10
0.0
 20
0.0
 30
0.0
  9
$EXTMIN
 10
-262.500018
 20
-371.249941
 30
0.000000
  9
$EXTMAX
 10
237.500023
 20
346.250078
 30
0.000000
  9
$LIMMIN
 10
0.0
 20
0.0
  9
$LIMMAX
 10
420.0
 20
297.0
  9
$ORTHOMODE
 70
     0
  9
$REGENMODE
 70
     1
  9
$FILLMODE
 70
     1
  9
$QTEXTMODE
 70
     0
  9
$MIRRTEXT
 70
     0
  9
$LTSCALE
 40
25.000000
  9
$ATTMODE
 70
     1
  9
$TEXTSIZE
 40
2.5
  9
$TRACEWID
 40
1.0
  9
$TEXTSTYLE
  7
Standard
  9
$CLAYER
  8
0
  9
$CELTYPE
  6
ByLayer
  9
$CECOLOR
 62
   256
  9
$CELTSCALE
 40
1.0
  9
$DISPSILH
 70
     0
  9
$DIMSCALE
 40
1.0
  9
$DIMASZ
 40
2.5
  9
$DIMEXO
 40
0.625
  9
$DIMDLI
 40
3.75
  9
$DIMRND
 40
0.0
  9
$DIMDLE
 40
0.0
  9
$DIMEXE
 40
1.25
  9
$DIMTP
 40
0.0
  9
$DIMTM
 40
0.0
  9
$DIMTXT
 40
2.5
  9
$DIMCEN
 40
2.5
  9
$DIMTSZ
 40
0.0
  9
$DIMTOL
 70
     0
  9
$DIMLIM
 70
     0
  9
$DIMTIH
 70
     0
  9
$DIMTOH
 70
     0
  9
$DIMSE1
 70
     0
  9
$DIMSE2
 70
     0
  9
$DIMTAD
 70
     1
  9
$DIMZIN
 70
     8
  9
$DIMBLK
  1

  9
$DIMASO
 70
     1
  9
$DIMSHO
 70
     1
  9
$DIMPOST
  1

  9
$DIMAPOST
  1

  9
$DIMALT
 70
     0
  9
$DIMALTD
 70
     3
  9
$DIMALTF
 40
0.03937007874016
  9
$DIMLFAC
 40
1.0
  9
$DIMTOFL
 70
     1
  9
$DIMTVP
 40
0.0
  9
$DIMTIX
 70
     0
  9
$DIMSOXD
 70
     0
  9
$DIMSAH
 70
     0
  9
$DIMBLK1
  1

  9
$DIMBLK2
  1

  9
$DIMSTYLE
  2
ISO-25
  9
$DIMCLRD
 70
     0
  9
$DIMCLRE
 70
     0
  9
$DIMCLRT
 70
     0
  9
$DIMTFAC
 40
1.0
  9
$DIMGAP
 40
0.625
  9
$DIMJUST
 70
     0
  9
$DIMSD1
 70
     0
  9
$DIMSD2
 70
     0
  9
$DIMTOLJ
 70
     0
  9
$DIMTZIN
 70
     8
  9
$DIMALTZ
 70
     0
  9
$DIMALTTZ
 70
     0
  9
$DIMUPT
 70
     0
  9
$DIMDEC
 70
     2
  9
$DIMTDEC
 70
     2
  9
$DIMALTU
 70
     2
  9
$DIMALTTD
 70
     3
  9
$DIMTXSTY
  7
Standard
  9
$DIMAUNIT
 70
     0
  9
$DIMADEC
 70
     0
  9
$DIMALTRND
 40
0.0
  9
$DIMAZIN
 70
     0
  9
$DIMDSEP
 70
    44
  9
$DIMATFIT
 70
     3
  9
$DIMFRAC
 70
     0
  9
$DIMLDRBLK
  1

  9
$DIMLUNIT
 70
     2
  9
$DIMLWD
 70
    -2
  9
$DIMLWE
 70
    -2
  9
$DIMTMOVE
 70
     0
  9
$DIMFXL
 40
1.0
  9
$DIMFXLON
 70
     0
  9
$DIMJOGANG
 40
0.7853981633974483
  9
$DIMTFILL
 70
     0
  9
$DIMTFILLCLR
 70
     0
  9
$DIMARCSYM
 70
     0
  9
$DIMLTYPE
  6

  9
$DIMLTEX1
  6

  9
$DIMLTEX2
  6

  9
$DIMTXTDIRECTION
 70
     0
  9
$LUNITS
 70
     2
  9
$LUPREC
 70
     4
  9
$SKETCHINC
 40
1.0
  9
$FILLETRAD
 40
10.0
  9
$AUNITS
 70
     0
  9
$AUPREC
 70
     0
  9
$MENU
  1
.
  9
$ELEVATION
 40
0.0
  9
$PELEVATION
 40
0.0
  9
$THICKNESS
 40
0.0
  9
$LIMCHECK
 70
     0
  9
$CHAMFERA
 40
10.0
  9
$CHAMFERB
 40
10.0
  9
$CHAMFERC
 40
20.0
  9
$CHAMFERD
 40
0.0
  9
$SKPOLY
 70
     0
  9
$TDCREATE
 40
2452006.439837951
  9
$TDUCREATE
 40
2452006.356504618
  9
$TDUPDATE
 40
2452006.439963946
  9
$TDUUPDATE
 40
2452006.356630613
  9
$TDINDWG
 40
0.0001273843
  9
$TDUSRTIMER
 40
0.0001272685
  9
$USRTIMER
 70
     1
  9
$ANGBASE
 50
0.0
  9
$ANGDIR
 70
     0
  9
$PDMODE
 70
     0
  9
$PDSIZE
 40
0.0
  9
$PLINEWID
 40
0.0
  9
$SPLFRAME
 70
     0
  9
$SPLINETYPE
 70
     6
  9
$SPLINESEGS
 70
     8
  9
$HANDSEED
  5
959
  9
$SURFTAB1
 70
     6
  9
$SURFTAB2
 70
     6
  9
$SURFTYPE
 70
     6
  9
$SURFU
 70
     6
  9
$SURFV
 70
     6
  9
$UCSBASE
  2

  9
$UCSNAME
  2

  9
$UCSORG
 10
0.0
 20
0.0
 30
0.0
  9
$UCSXDIR
 10
1.0
 20
0.0
 30
0.0
  9
$UCSYDIR
 10
0.0
 20
1.0
 30
0.0
  9
$UCSORTHOREF
  2

  9
$UCSORTHOVIEW
 70
     0
  9
$UCSORGTOP
 10
0.0
 20
0.0
 30
0.0
  9
$UCSORGBOTTOM
 10
0.0
 20
0.0
 30
0.0
  9
$UCSORGLEFT
 10
0.0
 20
0.0
 30
0.0
  9
$UCSORGRIGHT
 10
0.0
 20
0.0
 30
0.0
  9
$UCSORGFRONT
 10
0.0
 20
0.0
 30
0.0
  9
$UCSORGBACK
 10
0.0
 20
0.0
 30
0.0
  9
$PUCSBASE
  2

  9
$PUCSNAME
  2

  9
$PUCSORG
 10
0.0
 20
0.0
 30
0.0
  9
$PUCSXDIR
 10
1.0
 20
0.0
 30
0.0
  9
$PUCSYDIR
 10
0.0
 20
1.0
 30
0.0
  9
$PUCSORTHOREF
  2

  9
$PUCSORTHOVIEW
 70
     0
  9
$PUCSORGTOP
 10
0.0
 20
0.0
 30
0.0
  9
$PUCSORGBOTTOM
 10
0.0
 20
0.0
 30
0.0
  9
$PUCSORGLEFT
 10
0.0
 20
0.0
 30
0.0
  9
$PUCSORGRIGHT
 10
0.0
 20
0.0
 30
0.0
  9
$PUCSORGFRONT
 10
0.0
 20
0.0
 30
0.0
  9
$PUCSORGBACK
 10
0.0
 20
0.0
 30
0.0
  9
$USERI1
 70
     0
  9
$USERI2
 70
     0
  9
$USERI3
 70
     0
  9
$USERI4
 70
     0
  9
$USERI5
 70
     0
  9
$USERR1
 40
0.0
  9
$USERR2
 40
0.0
  9
$USERR3
 40
0.0
  9
$USERR4
 40
0.0
  9
$USERR5
 40
0.0
  9
$WORLDVIEW
 70
     1
  9
$SHADEDGE
 70
     3
  9
$SHADEDIF
 70
    70
  9
$TILEMODE
 70
     1
  9
$MAXACTVP
 70
    64
  9
$PINSBASE
 10
0.0
 20
0.0
 30
0.0
  9
$PLIMCHECK
 70
     0
  9
$PEXTMIN
 10
1.000000000000000E+20
 20
1.000000000000000E+20
 30
1.000000000000000E+20
  9
$PEXTMAX
 10
-1.000000000000000E+20
 20
-1.000000000000000E+20
 30
-1.000000000000000E+20
  9
$PLIMMIN
 10
0.0
 20
0.0
  9
$PLIMMAX
 10
420.0
 20
297.0
  9
$UNITMODE
 70
     0
  9
$VISRETAIN
 70
     1
  9
$PLINEGEN
 70
     0
  9
$PSLTSCALE
 70
     1
  9
$TREEDEPTH
 70
  3020
  9
$CMLSTYLE
  2
Standard
  9
$CMLJUST
 70
     0
  9
$CMLSCALE
 40
20.0
  9
$PROXYGRAPHICS
 70
     1
  9
$MEASUREMENT
 70
     1
  9
$CELWEIGHT
370
    -1
  9
$ENDCAPS
280
     0
  9
$JOINSTYLE
280
     0
  9
$LWDISPLAY
290
     0
  9
$INSUNITS
 70
     4
  9
$HYPERLINKBASE
  1

  9
$STYLESHEET
  1

  9
$XEDIT
290
     1
  9
$CEPSNTYPE
380
     0
  9
$PSTYLEMODE
290
     1
  9
$FINGERPRINTGUID
  2

  9
$VERSIONGUID
  2

  9
$EXTNAMES
290
     1
  9
$PSVPSCALE
 40
0.0
  9
$OLESTARTUP
290
     0
  9
$SORTENTS
280
   127
  9
$INDEXCTL
280
     0
  9
$HIDETEXT
280
     1
  9
$XCLIPFRAME
280
     2
  9
$HALOGAP
280
     0
  9
$OBSCOLOR
 70
   257
  9
$OBSLTYPE
280
     0
  9
$INTERSECTIONDISPLAY
280
     0
  9
$INTERSECTIONCOLOR
 70
   257
  9
$DIMASSOC
280
     2
  9
$PROJECTNAME
  1

  9
$CAMERADISPLAY
290
     0
  9
$LENSLENGTH
 40
50.0
  9
$CAMERAHEIGHT
 40
0.0
  9
$STEPSPERSEC
 40
2.0
  9
$STEPSIZE
 40
6.0
  9
$3DDWFPREC
 40
2.0
  9
$PSOLWIDTH
 40
5.0
  9
$PSOLHEIGHT
 40
80.0
  9
$LOFTANG1
 40
1.570796326794896
  9
$LOFTANG2
 40
1.570796326794896
  9
$LOFTMAG1
 40
0.0
  9
$LOFTMAG2
 40
0.0
  9
$LOFTPARAM
 70
     7
  9
$LOFTNORMALS
280
     1
  9
$LATITUDE
 40
37.795
  9
$LONGITUDE
 40
-122.394
  9
$NORTHDIRECTION
 40
0.0
  9
$TIMEZONE
 70
 -8000
  9
$LIGHTGLYPHDISPLAY
280
     1
  9
$TILEMODELIGHTSYNCH
280
     1
  9
$CMATERIAL
347
EC
  9
$SOLIDHIST
280
     1
  9
$SHOWHIST
280
     1
  9
$DWFFRAME
280
     2
  9
$DGNFRAME
280
     0
  9
$REALWORLDSCALE
290
     1
  9
$INTERFERECOLOR
 62
     1
  9
$INTERFEREOBJVS
345
F9
  9
$INTERFEREVPVS
346
F6
  9
$CSHADOW
280
     0
  9
$SHADOWPLANELOCATION
 40
0.0
  0
ENDSEC
  0
SECTION
  2
CLASSES
  0
CLASS
  1
ACDBDICTIONARYWDFLT
  2
AcDbDictionaryWithDefault
  3
ObjectDBX Classes
 90
        0
 91
        1
280
     0
281
     0
  0
CLASS
  1
ACDBPLACEHOLDER
  2
AcDbPlaceHolder
  3
ObjectDBX Classes
 90
        0
 91
        1
280
     0
281
     0
  0
CLASS
  1
LAYOUT
  2
AcDbLayout
  3
ObjectDBX Classes
 90
        0
 91
        2
280
     0
281
     0
  0
CLASS
  1
DICTIONARYVAR
  2
AcDbDictionaryVar
  3
ObjectDBX Classes
 90
        0
 91
        7
280
     0
281
     0
  0
CLASS
  1
TABLESTYLE
  2
AcDbTableStyle
  3
ObjectDBX Classes
 90
     4095
 91
        1
280
     0
281
     0
  0
CLASS
  1
MATERIAL
  2
AcDbMaterial
  3
ObjectDBX Classes
 90
     1153
 91
        3
280
     0
281
     0
  0
CLASS
  1
VISUALSTYLE
  2
AcDbVisualStyle
  3
ObjectDBX Classes
 90
     4095
 91
       16
280
     0
281
     0
  0
CLASS
  1
SCALE
  2
AcDbScale
  3
ObjectDBX Classes
 90
     1153
 91
       17
280
     0
281
     0
  0
CLASS
  1
MLEADERSTYLE
  2
AcDbMLeaderStyle
  3
ACDB_MLEADERSTYLE_CLASS
 90
     4095
 91
        1
280
     0
281
     0
  0
CLASS
  1
CELLSTYLEMAP
  2
AcDbCellStyleMap
  3
ObjectDBX Classes
 90
     1152
 91
        2
280
     0
281
     0
  0
CLASS
  1
EXACXREFPANELOBJECT
  2
ExAcXREFPanelObject
  3
EXAC_ESW
 90
    33793
 91
        0
280
     0
281
     0
  0
CLASS
  1
NPOCOLLECTION
  2
AcDbImpNonPersistentObjectsCollection
  3
ObjectDBX Classes
 90
     1153
 91
        0
280
     0
281
     0
  0
CLASS
  1
LAYER_INDEX
  2
AcDbLayerIndex
  3
ObjectDBX Classes
 90
        0
 91
        0
280
     0
281
     0
  0
CLASS
  1
SPATIAL_INDEX
  2
AcDbSpatialIndex
  3
ObjectDBX Classes
 90
        0
 91
        0
280
     0
281
     0
  0
CLASS
  1
IDBUFFER
  2
AcDbIdBuffer
  3
ObjectDBX Classes
 90
        0
 91
        0
280
     0
281
     0
  0
CLASS
  1
RASTERVARIABLES
  2
AcDbRasterVariables
  3
ISM
 90
        0
 91
        2
280
     0
281
     0
  0
CLASS
  1
IMAGEDEF
  2
AcDbRasterImageDef
  3
ISM
 90
        0
 91
        5
280
     0
281
     0
  0
CLASS
  1
IMAGEDEF_REACTOR
  2
AcDbRasterImageDefReactor
  3
ISM
 90
        1
 91
        5
280
     0
281
     0
  0
CLASS
  1
IMAGE
  2
AcDbRasterImage
  3
ISM
 90
     2175
 91
        5
280
     0
281
     1
  0
CLASS
  1
LWPOLYLINE
  2
AcDbPolyline
  3
ObjectDBX Classes
 90
        0
 91
        0
280
     0
281
     1
  0
CLASS
  1
OLE2FRAME
  2
AcDbOle2Frame
  3
ObjectDBX Classes
 90
        0
 91
        0
280
     0
281
     1
  0
CLASS
  1
HATCH
  2
AcDbHatch
  3
ObjectDBX Classes
 90
        0
 91
        0
280
     0
281
     1
  0
CLASS
  1
XRECORD
  2
AcDbXrecord
  3
ObjectDBX Classes
 90
        0
 91
        9
280
     0
281
     0
  0
CLASS
  1
SORTENTSTABLE
  2
AcDbSortentsTable
  3
ObjectDBX Classes
 90
        0
 91
        0
280
     0
281
     0
  0
CLASS
  1
OBJECT_PTR
  2
CAseDLPNTableRecord
  3
"ASE-LPNTableRecord"
 90
    32769
 91
        0
280
     0
281
     0
  0
CLASS
  1
PLOTSETTINGS
  2
AcDbPlotSettings
  3
ObjectDBX Classes
 90
        0
 91
        0
280
     0
281
     0
  0
CLASS
  1
VBA_PROJECT
  2
AcDbVbaProject
  3
acad
 90
        0
 91
        0
280
     0
281
     0
  0
CLASS
  1
WIPEOUT
  2
AcDbWipeout
  3
WipeOut|AutoCAD Express Tool|expresstools@autodesk.com
 90
    32895
 91
        0
280
     0
281
     1
  0
CLASS
  1
WIPEOUTVARIABLES
  2
AcDbWipeoutVariables
  3
WipeOut|AutoCAD Express Tool|expresstools@autodesk.com
 90
    32768
 91
        0
280
     0
281
     0
  0
CLASS
  1
RTEXT
  2
RText
  3
RText|AutoCAD Express Tool|expresstools@autodesk.com
 90
    32768
 91
        0
280
     0
281
     1
  0
CLASS
  1
ARCALIGNEDTEXT
  2
AcDbArcAlignedText
  3
ATEXT|AutoCAD Express Tool|expresstools@autodesk.com
 90
    32768
 91
        0
280
     0
281
     1
  0
ENDSEC
  0
SECTION
  2
TABLES
  0
TABLE
  2
VPORT
  5
8C7
100
AcDbSymbolTable
 70
     1
  0
VPORT
  5
8C8
100
AcDbSymbolTableRecord
100
AcDbViewportTableRecord
  2
*ACTIVE
 70
     0
 10
0.000000
 20
0.000000
 11
1.000000
 21
1.000000
 12
50.000000
 22
50.000000
 13
0.000000
 23
0.000000
 14
1.000000
 24
1.000000
 15
10.000000
 25
10.000000
 16
0.000000
 26
0.000000
 36
1.000000
 17
0.000000
 27
0.000000
 37
0.000000
 40
100.000000
 41
1.387409
 42
50.000000
 43
0.000000
 44
0.000000
 50
0.000000
 51
0.000000
 71
     0
 72
   100
 73
     1
 74
     1
 75
     0
 76
     0
 77
     0
 78
     0
  0
ENDTAB
  0
TABLE
  2
LTYPE
  5
8C9
330
0
100
AcDbSymbolTable
 70
     9
  0
LTYPE
  5
8CA
330
8C9
100
AcDbSymbolTableRecord
100
AcDbLinetypeTableRecord
  2
ByBlock
 70
     0
  3

 72
    65
 73
     0
 40
0.000000
  0
LTYPE
  5
8CB
330
8C9
100
AcDbSymbolTableRecord
100
AcDbLinetypeTableRecord
  2
ByLayer
 70
     0
  3

 72
    65
 73
     0
 40
0.000000
  0
LTYPE
  5
8CC
330
8C9
100
AcDbSymbolTableRecord
100
AcDbLinetypeTableRecord
  2
CONTINUOUS
 70
     0
  3
Solid line
 72
    65
 73
     0
 40
0.000000
  0
LTYPE
  5
8CD
330
8C9
100
AcDbSymbolTableRecord
100
AcDbLinetypeTableRecord
  2
HIDDEN
 70
     0
  3
_ _ _ _ _ _ _ _ _ _ _ _ _ _ _ _ _ _ _ _ _ _ _
 72
    65
 73
     2
 40
0.375000
 49
0.250000
 74
     0
 49
-0.125000
 74
     0
  0
LTYPE
  5
8CE
330
8C9
100
AcDbSymbolTableRecord
100
AcDbLinetypeTableRecord
  2
DOT
 70
     0
  3
...............................................
 72
    65
 73
     2
 40
0.250000
 49
0.000000
 74
     0
 49
-0.250000
 74
     0
  0
LTYPE
  5
8CF
330
8C9
100
AcDbSymbolTableRecord
100
AcDbLinetypeTableRecord
  2
DASHED
 70
     0
  3
__ __ __ __ __ __ __ __ __ __ __ __ __ __ __ 
 72
    65
 73
     2
 40
0.750000
 49
0.500000
 74
     0
 49
-0.250000
 74
     0
  0
LTYPE
  5
8D0
330
8C9
100
AcDbSymbolTableRecord
100
AcDbLinetypeTableRecord
  2
DIVIDE
 70
     0
  3
__ . . __ . . __ . . __ . . __ . . __ . . __
 72
    65
 73
     6
 40
1.250000
 49
0.500000
 74
     0
 49
-0.250000
 74
     0
 49
0.000000
 74
     0
 49
-0.250000
 74
     0
 49
0.000000
 74
     0
 49
-0.250000
 74
     0
  0
LTYPE
  5
8D1
330
8C9
100
AcDbSymbolTableRecord
100
AcDbLinetypeTableRecord
  2
DASHDOT
 70
     0
  3
__ . __ . __ . __ . __ . __ . __ . __ . __ . __
 72
    65
 73
     4
 40
1.000000
 49
0.500000
 74
     0
 49
-0.250000
 74
     0
 49
0.000000
 74
     0
 49
-0.250000
 74
     0
  0
LTYPE
  5
8D2
330
8C9
100
AcDbSymbolTableRecord
100
AcDbLinetypeTableRecord
  2
BORDER
 70
     0
  3
__ __ . __ __ . __ __ . __ __ . __ __ . __ __
 72
    65
 73
     6
 40
1.750000
 49
0.500000
 74
     0
 49
-0.250000
 74
     0
 49
0.500000
 74
     0
 49
-0.250000
 74
     0
 49
0.000000
 74
     0
 49
-0.250000
 74
     0
  0
LTYPE
  5
8D3
330
8C9
100
AcDbSymbolTableRecord
100
AcDbLinetypeTableRecord
  2
CENTER
 70
     0
  3
____ _ ____ _ ____ _ ____ _ ____ _ ____ _ ____
 72
    65
 73
     4
 40
2.000000
 49
1.250000
 74
     0
 49
-0.250000
 74
     0
 49
0.250000
 74
     0
 49
-0.250000
 74
     0
  0
LTYPE
  5
8D4
330
8C9
100
AcDbSymbolTableRecord
100
AcDbLinetypeTableRecord
  2
PHANTOM
 70
     0
  3
_____ _ _ _____ _ _ _____ _ _ _____ _ _ ____
 72
    65
 73
     6
 40
2.500000
 49
1.250000
 74
     0
 49
-0.250000
 74
     0
 49
0.250000
 74
     0
 49
-0.250000
 74
     0
 49
0.250000
 74
     0
 49
-0.250000
 74
     0
  0
ENDTAB
  0
TABLE
  2
LAYER
  5
8D5
100
AcDbSymbolTable
 70
     4
  0
LAYER
  5
8D6
100
AcDbSymbolTableRecord
100
AcDbLayerTableRecord
  2
0
 70
     0
 62
     7
  6
CONTINUOUS
370
    -3
390
     0
  0
LAYER
  5
8D7
100
AcDbSymbolTableRecord
100
AcDbLayerTableRecord
  2
Detail
 70
     0
 62
     7
  6
CONTINUOUS
370
    -3
390
     0
  0
LAYER
  5
8D8
100
AcDbSymbolTableRecord
100
AcDbLayerTableRecord
  2
SCHRAFF
 70
     0
 62
     7
  6
CONTINUOUS
370
    -3
390
     0
  0
LAYER
  5
8D9
100
AcDbSymbolTableRecord
100
AcDbLayerTableRecord
  2
Stahlbau
 70
     0
 62
     7
  6
CONTINUOUS
370
    -3
390
     0
  0
ENDTAB
  0
TABLE
  2
STYLE
  5
8DA
100
AcDbSymbolTable
 70
     2
  0
STYLE
  5
201
100
AcDbSymbolTableRecord
100
AcDbTextStyleTableRecord
  2
STANDARD
 70
     0
 40
0.000000
 41
1.000000
 50
0.000000
 71
     0
 42
3.500000
  3
txt
  4

  0
STYLE
  5
2AC
100
AcDbSymbolTableRecord
100
AcDbTextStyleTableRecord
  2
Arial
 70
     0
 40
0.000000
 41
1.000000
 50
0.000000
 71
     0
 42
3.500000
  3
Arial.ttf
  4

1001
ACAD
1000
Arial
1071
     0
  0
ENDTAB
  0
TABLE
  2
DIMSTYLE
  5
8DB
100
AcDbSymbolTable
 70
     0
100
AcDbDimStyleTable
  0
ENDTAB
  0
TABLE
  2
VIEW
  5
8DC
100
AcDbSymbolTable
 70
     0
  0
ENDTAB
  0
TABLE
  2
UCS
  5
8DD
100
AcDbSymbolTable
 70
     0
  0
ENDTAB
  0
TABLE
  2
APPID
  5
8DE
100
AcDbSymbolTable
 70
     1
  0
APPID
  5
8DF
100
AcDbSymbolTableRecord
100
AcDbRegAppTableRecord
  2
ACAD
 70
     0
  0
ENDTAB
  0
TABLE
  2
BLOCK_RECORD
  5
8E0
100
AcDbSymbolTable
 70
   121
  0
BLOCK_RECORD
  5
202
102
{ACAD_XDICTIONARY
360
203
102
}
100
AcDbSymbolTableRecord
100
AcDbBlockTableRecord
  2
*Model_Space
  0
BLOCK_RECORD
  5
8E1
100
AcDbSymbolTableRecord
100
AcDbBlockTableRecord
  2
*Paper_Space
  0
BLOCK_RECORD
  5
8E2
100
AcDbSymbolTableRecord
100
AcDbBlockTableRecord
  2
*Paper_Space0
  0
BLOCK_RECORD
  5
8E3
100
AcDbSymbolTableRecord
100
AcDbBlockTableRecord
  2
B
  0
BLOCK_RECORD
  5
8E4
100
AcDbSymbolTableRecord
100
AcDbBlockTableRecord
  2
B-2
  0
BLOCK_RECORD
  5
8E5
100
AcDbSymbolTableRecord
100
AcDbBlockTableRecord
  2
B-3
  0
BLOCK_RECORD
  5
8E6
100
AcDbSymbolTableRecord
100
AcDbBlockTableRecord
  2
B-4
  0
BLOCK_RECORD
  5
8E7
100
AcDbSymbolTableRecord
100
AcDbBlockTableRecord
  2
B-5
  0
BLOCK_RECORD
  5
8E8
100
AcDbSymbolTableRecord
100
AcDbBlockTableRecord
  2
B-6
  0
BLOCK_RECORD
  5
8E9
100
AcDbSymbolTableRecord
100
AcDbBlockTableRecord
  2
B-7
  0
BLOCK_RECORD
  5
8EA
100
AcDbSymbolTableRecord
100
AcDbBlockTableRecord
  2
B-8
  0
BLOCK_RECORD
  5
8EB
100
AcDbSymbolTableRecord
100
AcDbBlockTableRecord
  2
B-9
  0
BLOCK_RECORD
  5
8EC
100
AcDbSymbolTableRecord
100
AcDbBlockTableRecord
  2
B-10
  0
BLOCK_RECORD
  5
8ED
100
AcDbSymbolTableRecord
100
AcDbBlockTableRecord
  2
B-11
  0
BLOCK_RECORD
  5
8EE
100
AcDbSymbolTableRecord
100
AcDbBlockTableRecord
  2
B-12
  0
BLOCK_RECORD
  5
8EF
100
AcDbSymbolTableRecord
100
AcDbBlockTableRecord
  2
B-13
  0
BLOCK_RECORD
  5
8F0
100
AcDbSymbolTableRecord
100
AcDbBlockTableRecord
  2
B-14
  0
BLOCK_RECORD
  5
8F1
100
AcDbSymbolTableRecord
100
AcDbBlockTableRecord
  2
B-15
  0
BLOCK_RECORD
  5
8F2
100
AcDbSymbolTableRecord
100
AcDbBlockTableRecord
  2
B-16
  0
BLOCK_RECORD
  5
8F3
100
AcDbSymbolTableRecord
100
AcDbBlockTableRecord
  2
B-17
  0
BLOCK_RECORD
  5
8F4
100
AcDbSymbolTableRecord
100
AcDbBlockTableRecord
  2
B-18
  0
BLOCK_RECORD
  5
8F5
100
AcDbSymbolTableRecord
100
AcDbBlockTableRecord
  2
B-19
  0
BLOCK_RECORD
  5
8F6
100
AcDbSymbolTableRecord
100
AcDbBlockTableRecord
  2
B-20
  0
BLOCK_RECORD
  5
8F7
100
AcDbSymbolTableRecord
100
AcDbBlockTableRecord
  2
B-21
  0
BLOCK_RECORD
  5
8F8
100
AcDbSymbolTableRecord
100
AcDbBlockTableRecord
  2
B-22
  0
BLOCK_RECORD
  5
8F9
100
AcDbSymbolTableRecord
100
AcDbBlockTableRecord
  2
B-23
  0
BLOCK_RECORD
  5
8FA
100
AcDbSymbolTableRecord
100
AcDbBlockTableRecord
  2
B-24
  0
BLOCK_RECORD
  5
8FB
100
AcDbSymbolTableRecord
100
AcDbBlockTableRecord
  2
B-25
  0
BLOCK_RECORD
  5
8FC
100
AcDbSymbolTableRecord
100
AcDbBlockTableRecord
  2
B-26
  0
BLOCK_RECORD
  5
8FD
100
AcDbSymbolTableRecord
100
AcDbBlockTableRecord
  2
B-27
  0
BLOCK_RECORD
  5
8FE
100
AcDbSymbolTableRecord
100
AcDbBlockTableRecord
  2
B-28
  0
BLOCK_RECORD
  5
8FF
100
AcDbSymbolTableRecord
100
AcDbBlockTableRecord
  2
B-29
  0
BLOCK_RECORD
  5
900
100
AcDbSymbolTableRecord
100
AcDbBlockTableRecord
  2
B-30
  0
BLOCK_RECORD
  5
901
100
AcDbSymbolTableRecord
100
AcDbBlockTableRecord
  2
B-31
  0
BLOCK_RECORD
  5
902
100
AcDbSymbolTableRecord
100
AcDbBlockTableRecord
  2
B-32
  0
BLOCK_RECORD
  5
903
100
AcDbSymbolTableRecord
100
AcDbBlockTableRecord
  2
B-33
  0
BLOCK_RECORD
  5
904
100
AcDbSymbolTableRecord
100
AcDbBlockTableRecord
  2
B-34
  0
BLOCK_RECORD
  5
905
100
AcDbSymbolTableRecord
100
AcDbBlockTableRecord
  2
B-35
  0
BLOCK_RECORD
  5
906
100
AcDbSymbolTableRecord
100
AcDbBlockTableRecord
  2
B-36
  0
BLOCK_RECORD
  5
907
100
AcDbSymbolTableRecord
100
AcDbBlockTableRecord
  2
B-37
  0
BLOCK_RECORD
  5
908
100
AcDbSymbolTableRecord
100
AcDbBlockTableRecord
  2
B-38
  0
BLOCK_RECORD
  5
909
100
AcDbSymbolTableRecord
100
AcDbBlockTableRecord
  2
B-39
  0
BLOCK_RECORD
  5
90A
100
AcDbSymbolTableRecord
100
AcDbBlockTableRecord
  2
B-40
  0
BLOCK_RECORD
  5
90B
100
AcDbSymbolTableRecord
100
AcDbBlockTableRecord
  2
B-41
  0
BLOCK_RECORD
  5
90C
100
AcDbSymbolTableRecord
100
AcDbBlockTableRecord
  2
B-42
  0
BLOCK_RECORD
  5
90D
100
AcDbSymbolTableRecord
100
AcDbBlockTableRecord
  2
B-43
  0
BLOCK_RECORD
  5
90E
100
AcDbSymbolTableRecord
100
AcDbBlockTableRecord
  2
B-44
  0
BLOCK_RECORD
  5
90F
100
AcDbSymbolTableRecord
100
AcDbBlockTableRecord
  2
B-45
  0
BLOCK_RECORD
  5
910
100
AcDbSymbolTableRecord
100
AcDbBlockTableRecord
  2
B-46
  0
BLOCK_RECORD
  5
911
100
AcDbSymbolTableRecord
100
AcDbBlockTableRecord
  2
B-47
  0
BLOCK_RECORD
  5
912
100
AcDbSymbolTableRecord
100
AcDbBlockTableRecord
  2
B-48
  0
BLOCK_RECORD
  5
913
100
AcDbSymbolTableRecord
100
AcDbBlockTableRecord
  2
B-49
  0
BLOCK_RECORD
  5
914
100
AcDbSymbolTableRecord
100
AcDbBlockTableRecord
  2
B-50
  0
BLOCK_RECORD
  5
915
100
AcDbSymbolTableRecord
100
AcDbBlockTableRecord
  2
B-51
  0
BLOCK_RECORD
  5
916
100
AcDbSymbolTableRecord
100
AcDbBlockTableRecord
  2
B-52
  0
BLOCK_RECORD
  5
917
100
AcDbSymbolTableRecord
100
AcDbBlockTableRecord
  2
B-53
  0
BLOCK_RECORD
  5
918
100
AcDbSymbolTableRecord
100
AcDbBlockTableRecord
  2
B-55
  0
BLOCK_RECORD
  5
919
100
AcDbSymbolTableRecord
100
AcDbBlockTableRecord
  2
glasleiste
  0
BLOCK_RECORD
  5
91A
100
AcDbSymbolTableRecord
100
AcDbBlockTableRecord
  2
rahmen
  0
BLOCK_RECORD
  5
91B
100
AcDbSymbolTableRecord
100
AcDbBlockTableRecord
  2
fluegel
  0
BLOCK_RECORD
  5
91C
100
AcDbSymbolTableRecord
100
AcDbBlockTableRecord
  2
w-schenkel
  0
BLOCK_RECORD
  5
91D
100
AcDbSymbolTableRecord
100
AcDbBlockTableRecord
  2
glas
  0
BLOCK_RECORD
  5
91E
100
AcDbSymbolTableRecord
100
AcDbBlockTableRecord
  2
B-56
  0
BLOCK_RECORD
  5
91F
100
AcDbSymbolTableRecord
100
AcDbBlockTableRecord
  2
B-57
  0
BLOCK_RECORD
  5
920
100
AcDbSymbolTableRecord
100
AcDbBlockTableRecord
  2
B-58
  0
BLOCK_RECORD
  5
921
100
AcDbSymbolTableRecord
100
AcDbBlockTableRecord
  2
B-59
  0
BLOCK_RECORD
  5
922
100
AcDbSymbolTableRecord
100
AcDbBlockTableRecord
  2
B-60
  0
BLOCK_RECORD
  5
923
100
AcDbSymbolTableRecord
100
AcDbBlockTableRecord
  2
B-61
  0
BLOCK_RECORD
  5
924
100
AcDbSymbolTableRecord
100
AcDbBlockTableRecord
  2
B-62
  0
BLOCK_RECORD
  5
925
100
AcDbSymbolTableRecord
100
AcDbBlockTableRecord
  2
B-63
  0
BLOCK_RECORD
  5
926
100
AcDbSymbolTableRecord
100
AcDbBlockTableRecord
  2
B-64
  0
BLOCK_RECORD
  5
927
100
AcDbSymbolTableRecord
100
AcDbBlockTableRecord
  2
B-65
  0
BLOCK_RECORD
  5
928
100
AcDbSymbolTableRecord
100
AcDbBlockTableRecord
  2
B-66
  0
BLOCK_RECORD
  5
929
100
AcDbSymbolTableRecord
100
AcDbBlockTableRecord
  2
B-67
  0
BLOCK_RECORD
  5
92A
100
AcDbSymbolTableRecord
100
AcDbBlockTableRecord
  2
B-68
  0
BLOCK_RECORD
  5
92B
100
AcDbSymbolTableRecord
100
AcDbBlockTableRecord
  2
B-69
  0
BLOCK_RECORD
  5
92C
100
AcDbSymbolTableRecord
100
AcDbBlockTableRecord
  2
B-70
  0
BLOCK_RECORD
  5
92D
100
AcDbSymbolTableRecord
100
AcDbBlockTableRecord
  2
B-71
  0
BLOCK_RECORD
  5
92E
100
AcDbSymbolTableRecord
100
AcDbBlockTableRecord
  2
B-72
  0
BLOCK_RECORD
  5
92F
100
AcDbSymbolTableRecord
100
AcDbBlockTableRecord
  2
B-73
  0
BLOCK_RECORD
  5
930
100
AcDbSymbolTableRecord
100
AcDbBlockTableRecord
  2
B-74
  0
BLOCK_RECORD
  5
931
100
AcDbSymbolTableRecord
100
AcDbBlockTableRecord
  2
B-75
  0
BLOCK_RECORD
  5
932
100
AcDbSymbolTableRecord
100
AcDbBlockTableRecord
  2
B-76
  0
BLOCK_RECORD
  5
933
100
AcDbSymbolTableRecord
100
AcDbBlockTableRecord
  2
B-77
  0
BLOCK_RECORD
  5
934
100
AcDbSymbolTableRecord
100
AcDbBlockTableRecord
  2
B-78
  0
BLOCK_RECORD
  5
935
100
AcDbSymbolTableRecord
100
AcDbBlockTableRecord
  2
B-79
  0
BLOCK_RECORD
  5
936
100
AcDbSymbolTableRecord
100
AcDbBlockTableRecord
  2
B-80
  0
BLOCK_RECORD
  5
937
100
AcDbSymbolTableRecord
100
AcDbBlockTableRecord
  2
B-81
  0
BLOCK_RECORD
  5
938
100
AcDbSymbolTableRecord
100
AcDbBlockTableRecord
  2
B-82
  0
BLOCK_RECORD
  5
939
100
AcDbSymbolTableRecord
100
AcDbBlockTableRecord
  2
B-83
  0
BLOCK_RECORD
  5
93A
100
AcDbSymbolTableRecord
100
AcDbBlockTableRecord
  2
B-84
  0
BLOCK_RECORD
  5
93B
100
AcDbSymbolTableRecord
100
AcDbBlockTableRecord
  2
B-85
  0
BLOCK_RECORD
  5
93C
100
AcDbSymbolTableRecord
100
AcDbBlockTableRecord
  2
B-86
  0
BLOCK_RECORD
  5
93D
100
AcDbSymbolTableRecord
100
AcDbBlockTableRecord
  2
B-87
  0
BLOCK_RECORD
  5
93E
100
AcDbSymbolTableRecord
100
AcDbBlockTableRecord
  2
B-88
  0
BLOCK_RECORD
  5
93F
100
AcDbSymbolTableRecord
100
AcDbBlockTableRecord
  2
B-89
  0
BLOCK_RECORD
  5
940
100
AcDbSymbolTableRecord
100
AcDbBlockTableRecord
  2
B-90
  0
BLOCK_RECORD
  5
941
100
AcDbSymbolTableRecord
100
AcDbBlockTableRecord
  2
B-91
  0
BLOCK_RECORD
  5
942
100
AcDbSymbolTableRecord
100
AcDbBlockTableRecord
  2
B-92
  0
BLOCK_RECORD
  5
943
100
AcDbSymbolTableRecord
100
AcDbBlockTableRecord
  2
B-93
  0
BLOCK_RECORD
  5
944
100
AcDbSymbolTableRecord
100
AcDbBlockTableRecord
  2
B-94
  0
BLOCK_RECORD
  5
945
100
AcDbSymbolTableRecord
100
AcDbBlockTableRecord
  2
B-95
  0
BLOCK_RECORD
  5
946
100
AcDbSymbolTableRecord
100
AcDbBlockTableRecord
  2
B-96
  0
BLOCK_RECORD
  5
947
100
AcDbSymbolTableRecord
100
AcDbBlockTableRecord
  2
B-97
  0
BLOCK_RECORD
  5
948
100
AcDbSymbolTableRecord
100
AcDbBlockTableRecord
  2
B-98
  0
BLOCK_RECORD
  5
949
100
AcDbSymbolTableRecord
100
AcDbBlockTableRecord
  2
B-99
  0
BLOCK_RECORD
  5
94A
100
AcDbSymbolTableRecord
100
AcDbBlockTableRecord
  2
B-100
  0
BLOCK_RECORD
  5
94B
100
AcDbSymbolTableRecord
100
AcDbBlockTableRecord
  2
B-101
  0
BLOCK_RECORD
  5
94C
100
AcDbSymbolTableRecord
100
AcDbBlockTableRecord
  2
B-102
  0
BLOCK_RECORD
  5
94D
100
AcDbSymbolTableRecord
100
AcDbBlockTableRecord
  2
B-103
  0
BLOCK_RECORD
  5
94E
100
AcDbSymbolTableRecord
100
AcDbBlockTableRecord
  2
B-104
  0
BLOCK_RECORD
  5
94F
100
AcDbSymbolTableRecord
100
AcDbBlockTableRecord
  2
B-105
  0
BLOCK_RECORD
  5
950
100
AcDbSymbolTableRecord
100
AcDbBlockTableRecord
  2
B-106
  0
BLOCK_RECORD
  5
951
100
AcDbSymbolTableRecord
100
AcDbBlockTableRecord
  2
B-107
  0
BLOCK_RECORD
  5
952
100
AcDbSymbolTableRecord
100
AcDbBlockTableRecord
  2
B-108
  0
BLOCK_RECORD
  5
953
100
AcDbSymbolTableRecord
100
AcDbBlockTableRecord
  2
B-109
  0
BLOCK_RECORD
  5
954
100
AcDbSymbolTableRecord
100
AcDbBlockTableRecord
  2
B-110
  0
BLOCK_RECORD
  5
955
100
AcDbSymbolTableRecord
100
AcDbBlockTableRecord
  2
B-111
  0
BLOCK_RECORD
  5
956
100
AcDbSymbolTableRecord
100
AcDbBlockTableRecord
  2
B-112
  0
BLOCK_RECORD
  5
957
100
AcDbSymbolTableRecord
100
AcDbBlockTableRecord
  2
B-115
  0
BLOCK_RECORD
  5
958
100
AcDbSymbolTableRecord
100
AcDbBlockTableRecord
  2
B-117
  0
ENDTAB
  0
ENDSEC
  0
SECTION
  2
BLOCKS
  0
BLOCK
  5
204
100
AcDbEntity
  8
0
100
AcDbBlockBegin
  2
*Model_Space
 70
     0
 10
0.000000
 20
0.000000
 30
0.000000
  3
*Model_Space
  1

  0
ENDBLK
  5
205
100
AcDbEntity
  8
0
100
AcDbBlockEnd
  0
BLOCK
  5
206
100
AcDbEntity
 67
     1
  8
0
100
AcDbBlockBegin
  2
*Paper_Space
 70
     0
 10
0.000000
 20
0.000000
 30
0.000000
  3
*Paper_Space
  1

  0
ENDBLK
  5
207
100
AcDbEntity
 67
     1
  8
0
100
AcDbBlockEnd
  0
BLOCK
  5
208
100
AcDbEntity
 67
     1
  8
0
100
AcDbBlockBegin
  2
*Paper_Space0
 70
     0
 10
0.000000
 20
0.000000
 30
0.000000
  3
*Paper_Space0
  1

  0
ENDBLK
  5
209
100
AcDbEntity
 67
     1
  8
0
100
AcDbBlockEnd
  0
BLOCK
  5
20A
100
AcDbEntity
  8
SCHRAFF
100
AcDbBlockBegin
  2
B
 70
    66
 10
0.000000
 20
0.000000
 30
0.000000
  0
HATCH
  5
20B
100
AcDbEntity
  8
SCHRAFF
 62
     8
440
     0
100
AcDbHatch
 10
0.000000
 20
0.000000
 30
0.000000
210
0.000000
220
0.000000
230
1.000000
  2
SOLID
 70
     1
 71
     1
 91
     1
 92
    18
 72
     1
 73
     0
 93
     8
 10
159.500023
 20
257.560668
 42
0.000000
 10
167.500023
 20
257.560668
 42
-0.398560
 10
167.500023
 20
267.610544
 42
0.000000
 10
155.194639
 20
268.841082
 42
-0.342388
 10
159.500023
 20
263.290856
 42
-0.414214
 10
153.769835
 20
257.560668
 42
0.000000
 10
157.500023
 20
257.560668
 42
0.000000
 10
159.500023
 20
257.560668
 42
0.000000
 97
     0
 75
     0
 76
     1
 98
     0
  0
ENDBLK
  5
20C
100
AcDbEntity
  8
0
100
AcDbBlockEnd
  0
BLOCK
  5
20D
100
AcDbEntity
  8
SCHRAFF
100
AcDbBlockBegin
  2
B-2
 70
    66
 10
0.000000
 20
0.000000
 30
0.000000
  0
HATCH
  5
20E
100
AcDbEntity
  8
SCHRAFF
 62
     9
440
     0
100
AcDbHatch
 10
0.000000
 20
0.000000
 30
0.000000
210
0.000000
220
0.000000
230
1.000000
  2
SOLID
 70
     1
 71
     1
 91
     1
 92
    18
 72
     1
 73
     0
 93
     3
 10
159.500023
 20
263.290856
 42
1.000000
 10
148.039648
 20
263.290856
 42
1.000000
 10
159.500025
 20
263.290856
 42
0.000000
 97
     0
 75
     0
 76
     1
 98
     0
  0
CIRCLE
  5
20F
100
AcDbEntity
  8
Detail
  6
CONTINUOUS
 62
     4
100
AcDbCircle
 10
153.769835
 20
263.290856
 40
5.730190
  0
ENDBLK
  5
210
100
AcDbEntity
  8
0
100
AcDbBlockEnd
  0
BLOCK
  5
211
100
AcDbEntity
  8
SCHRAFF
100
AcDbBlockBegin
  2
B-3
 70
    66
 10
0.000000
 20
0.000000
 30
0.000000
  0
HATCH
  5
212
100
AcDbEntity
  8
SCHRAFF
 62
   161
440
     0
100
AcDbHatch
 10
0.000000
 20
0.000000
 30
0.000000
210
0.000000
220
0.000000
230
1.000000
  2
SOLID
 70
     1
 71
     1
 91
     1
 92
    18
 72
     1
 73
     0
 93
     5
 10
159.500023
 20
257.560668
 42
0.000000
 10
167.500023
 20
257.560668
 42
0.000000
 10
167.500023
 20
231.625506
 42
0.000000
 10
159.500023
 20
231.625506
 42
0.000000
 10
159.500023
 20
257.560668
 42
0.000000
 97
     0
 75
     0
 76
     1
 98
     0
  0
ENDBLK
  5
213
100
AcDbEntity
  8
0
100
AcDbBlockEnd
  0
BLOCK
  5
214
100
AcDbEntity
  8
SCHRAFF
100
AcDbBlockBegin
  2
B-4
 70
    66
 10
0.000000
 20
0.000000
 30
0.000000
  0
HATCH
  5
215
100
AcDbEntity
  8
SCHRAFF
 62
     8
440
     0
100
AcDbHatch
 10
0.000000
 20
0.000000
 30
0.000000
210
0.000000
220
0.000000
230
1.000000
  2
SOLID
 70
     1
 71
     1
 91
     1
 92
    18
 72
     1
 73
     0
 93
     5
 10
22.500003
 20
150.433052
 42
0.000000
 10
2.500003
 20
152.433052
 42
0.000000
 10
14.500003
 20
144.633052
 42
0.000000
 10
22.500003
 20
144.633052
 42
-0.500000
 10
22.500003
 20
150.433052
 42
0.000000
 97
     0
 75
     0
 76
     1
 98
     0
  0
ENDBLK
  5
216
100
AcDbEntity
  8
0
100
AcDbBlockEnd
  0
BLOCK
  5
217
100
AcDbEntity
  8
SCHRAFF
100
AcDbBlockBegin
  2
B-5
 70
    66
 10
0.000000
 20
0.000000
 30
0.000000
  0
HATCH
  5
218
100
AcDbEntity
  8
SCHRAFF
 62
     8
440
     0
100
AcDbHatch
 10
0.000000
 20
0.000000
 30
0.000000
210
0.000000
220
0.000000
230
1.000000
  2
SOLID
 70
     1
 71
     1
 91
     1
 92
    18
 72
     1
 73
     0
 93
     5
 10
14.500003
 20
-59.749922
 42
0.000000
 10
14.500003
 20
-69.749922
 42
0.000000
 10
22.500003
 20
-69.749922
 42
-0.400000
 10
22.500003
 20
-59.749922
 42
0.000000
 10
14.500003
 20
-59.749922
 42
0.000000
 97
     0
 75
     0
 76
     1
 98
     0
  0
ENDBLK
  5
219
100
AcDbEntity
  8
0
100
AcDbBlockEnd
  0
BLOCK
  5
21A
100
AcDbEntity
  8
SCHRAFF
100
AcDbBlockBegin
  2
B-6
 70
    66
 10
0.000000
 20
0.000000
 30
0.000000
  0
IMAGE
  5
21B
100
AcDbEntity
  8
SCHRAFF
100
AcDbRasterImage
 10
140.969928
 20
-349.249941
 30
0.000000
 11
0.204938
 21
-0.000000
 31
0.000000
 12
-0.000000
 22
0.204938
 32
-0.000000
 13
395.000000
 23
405.000000
340
21C
 70
     7
280
     0
281
    50
282
    50
283
     0
360
21D
 71
     1
 91
     2
 14
-0.500000
 24
-0.500000
 14
394.500000
 24
404.500000
  0
ENDBLK
  5
21E
100
AcDbEntity
  8
0
100
AcDbBlockEnd
  0
BLOCK
  5
21F
100
AcDbEntity
  8
SCHRAFF
100
AcDbBlockBegin
  2
B-7
 70
    66
 10
0.000000
 20
0.000000
 30
0.000000
  0
HATCH
  5
220
100
AcDbEntity
  8
SCHRAFF
 62
   254
440
     0
100
AcDbHatch
 10
0.000000
 20
0.000000
 30
0.000000
210
0.000000
220
0.000000
230
1.000000
  2
SOLID
 70
     1
 71
     1
 91
     1
 92
    18
 72
     1
 73
     0
 93
     7
 10
-132.499997
 20
130.250078
 42
0.000000
 10
-77.499997
 20
130.250078
 42
0.000000
 10
-77.499997
 20
-196.249941
 42
0.000000
 10
-82.499997
 20
-196.249941
 42
0.000000
 10
-82.499997
 20
125.250078
 42
0.000000
 10
-132.499997
 20
125.250078
 42
0.000000
 10
-132.499997
 20
130.250078
 42
0.000000
 97
     0
 75
     0
 76
     1
 98
     0
  0
ENDBLK
  5
221
100
AcDbEntity
  8
0
100
AcDbBlockEnd
  0
BLOCK
  5
222
100
AcDbEntity
  8
SCHRAFF
100
AcDbBlockBegin
  2
B-8
 70
    66
 10
0.000000
 20
0.000000
 30
0.000000
  0
HATCH
  5
223
100
AcDbEntity
  8
SCHRAFF
 62
    51
440
     0
100
AcDbHatch
 10
0.000000
 20
0.000000
 30
0.000000
210
0.000000
220
0.000000
230
1.000000
  2
SOLID
 70
     1
 71
     1
 91
     1
 92
    18
 72
     1
 73
     0
 93
     5
 10
-77.499997
 20
155.408114
 42
0.000000
 10
2.500003
 20
147.408114
 42
0.000000
 10
2.500003
 20
-196.249941
 42
0.000000
 10
-77.499997
 20
-196.249941
 42
0.000000
 10
-77.499997
 20
155.408114
 42
0.000000
 97
     0
 75
     0
 76
     1
 98
     0
  0
ENDBLK
  5
224
100
AcDbEntity
  8
0
100
AcDbBlockEnd
  0
BLOCK
  5
225
100
AcDbEntity
  8
SCHRAFF
100
AcDbBlockBegin
  2
B-9
 70
    66
 10
0.000000
 20
0.000000
 30
0.000000
  0
HATCH
  5
226
100
AcDbEntity
  8
SCHRAFF
  6
CONTINUOUS
 62
     9
100
AcDbHatch
 10
0.000000
 20
0.000000
 30
0.000000
210
0.000000
220
0.000000
230
1.000000
  2
_U
 70
     0
 71
     1
 91
     1
 92
    18
 72
     1
 73
     0
 93
     5
 10
-77.499997
 20
155.408114
 42
0.000000
 10
2.500003
 20
147.408114
 42
0.000000
 10
2.500003
 20
-196.249941
 42
0.000000
 10
-77.499997
 20
-196.249941
 42
0.000000
 10
-77.499997
 20
155.408114
 42
0.000000
 97
     0
 75
     0
 76
     0
 52
0.000000
 41
1.000000
 77
     0
 78
     1
 53
90.000000
 43
-0.000000
 44
0.000000
 45
-13.750000
 46
0.000000
 79
     0
 98
     0
  0
ENDBLK
  5
227
100
AcDbEntity
  8
0
100
AcDbBlockEnd
  0
BLOCK
  5
228
100
AcDbEntity
  8
Detail
100
AcDbBlockBegin
  2
B-10
 70
    66
 10
0.000000
 20
0.000000
 30
0.000000
  0
LWPOLYLINE
  5
229
100
AcDbEntity
  8
Detail
  6
CONTINUOUS
 62
     9
100
AcDbPolyline
 90
     3
 10
60.694758
 20
150.308882
 42
0.000000
 10
22.500003
 20
168.522828
 42
0.000000
 10
-122.509919
 20
183.023820
 42
0.000000
  0
ENDBLK
  5
22D
100
AcDbEntity
  8
0
100
AcDbBlockEnd
  0
BLOCK
  5
22E
100
AcDbEntity
  8
SCHRAFF
100
AcDbBlockBegin
  2
B-11
 70
    66
 10
0.000000
 20
0.000000
 30
0.000000
  0
HATCH
  5
22F
100
AcDbEntity
  8
SCHRAFF
 62
     8
440
     0
100
AcDbHatch
 10
0.000000
 20
0.000000
 30
0.000000
210
0.000000
220
0.000000
230
1.000000
  2
SOLID
 70
     1
 71
     1
 91
     1
 92
    18
 72
     1
 73
     0
 93
    10
 10
-132.499992
 20
185.522826
 42
0.000000
 10
-132.499992
 20
173.522828
 42
0.000000
 10
-130.499993
 20
173.522828
 42
0.000000
 10
-130.499993
 20
183.522828
 42
0.000000
 10
-127.499993
 20
183.522828
 42
0.000000
 10
-127.499994
 20
178.522828
 42
0.000000
 10
-126.499994
 20
178.522828
 42
0.000000
 10
-125.499993
 20
184.183080
 42
0.000000
 10
-130.499995
 20
185.522826
 42
0.000000
 10
-132.499992
 20
185.522826
 42
0.000000
 97
     0
 75
     0
 76
     1
 98
     0
  0
ENDBLK
  5
230
100
AcDbEntity
  8
0
100
AcDbBlockEnd
  0
BLOCK
  5
231
100
AcDbEntity
  8
Detail
100
AcDbBlockBegin
  2
B-12
 70
    66
 10
0.000000
 20
0.000000
 30
0.000000
  0
LWPOLYLINE
  5
232
100
AcDbEntity
  8
Detail
  6
CONTINUOUS
 62
     4
100
AcDbPolyline
 90
    10
 10
-130.499993
 20
183.522828
 42
0.000000
 10
-127.499993
 20
183.522828
 42
0.000000
 10
-127.499994
 20
178.522828
 42
0.000000
 10
-126.499994
 20
178.522828
 42
0.000000
 10
-125.499993
 20
184.183080
 42
0.000000
 10
-130.499995
 20
185.522826
 42
0.000000
 10
-132.499992
 20
185.522826
 42
0.000000
 10
-132.499991
 20
173.522828
 42
0.000000
 10
-130.499993
 20
173.522828
 42
0.000000
 10
-130.499993
 20
183.522828
 42
0.000000
  0
ENDBLK
  5
23D
100
AcDbEntity
  8
0
100
AcDbBlockEnd
  0
BLOCK
  5
23E
100
AcDbEntity
  8
SCHRAFF
100
AcDbBlockBegin
  2
B-13
 70
    66
 10
0.000000
 20
0.000000
 30
0.000000
  0
HATCH
  5
23F
100
AcDbEntity
  8
SCHRAFF
 62
   254
440
     0
100
AcDbHatch
 10
0.000000
 20
0.000000
 30
0.000000
210
0.000000
220
0.000000
230
1.000000
  2
SOLID
 70
     1
 71
     1
 91
     1
 92
    18
 72
     1
 73
     0
 93
     5
 10
-77.499997
 20
157.920263
 42
0.000000
 10
-77.499997
 20
130.250078
 42
0.000000
 10
-82.499997
 20
130.250078
 42
0.000000
 10
-82.499997
 20
158.420263
 42
0.000000
 10
-77.499997
 20
157.920263
 42
0.000000
 97
     0
 75
     0
 76
     1
 98
     0
  0
ENDBLK
  5
240
100
AcDbEntity
  8
0
100
AcDbBlockEnd
  0
BLOCK
  5
241
100
AcDbEntity
  8
Detail
100
AcDbBlockBegin
  2
B-14
 70
    66
 10
0.000000
 20
0.000000
 30
0.000000
  0
LWPOLYLINE
  5
242
100
AcDbEntity
  8
Detail
  6
CONTINUOUS
 62
     6
100
AcDbPolyline
 90
     5
 10
-82.499997
 20
130.250078
 42
0.000000
 10
-77.499997
 20
130.250078
 42
0.000000
 10
-77.499997
 20
157.920263
 42
0.000000
 10
-82.499997
 20
158.420263
 42
0.000000
 10
-82.499997
 20
130.250078
 42
0.000000
  0
ENDBLK
  5
248
100
AcDbEntity
  8
0
100
AcDbBlockEnd
  0
BLOCK
  5
249
100
AcDbEntity
  8
SCHRAFF
100
AcDbBlockBegin
  2
B-15
 70
    66
 10
0.000000
 20
0.000000
 30
0.000000
  0
HATCH
  5
24A
100
AcDbEntity
  8
SCHRAFF
 62
   250
440
     0
100
AcDbHatch
 10
0.000000
 20
0.000000
 30
0.000000
210
0.000000
220
0.000000
230
1.000000
  2
SOLID
 70
     1
 71
     1
 91
     1
 92
    18
 72
     1
 73
     0
 93
    11
 10
62.500003
 20
149.448015
 42
0.000000
 10
-127.499994
 20
168.448015
 42
0.000000
 10
-127.499993
 20
183.522828
 42
0.000000
 10
-130.499993
 20
183.522828
 42
0.000000
 10
-130.499996
 20
165.733052
 42
0.000000
 10
59.500003
 20
146.733052
 42
0.000000
 10
59.500003
 20
126.690656
 42
0.000000
 10
54.550255
 20
131.640403
 42
0.000000
 10
52.428935
 20
129.519083
 42
0.000000
 10
62.500003
 20
119.448015
 42
0.000000
 10
62.500003
 20
149.448015
 42
0.000000
 97
     0
 75
     0
 76
     1
 98
     0
  0
ENDBLK
  5
24B
100
AcDbEntity
  8
0
100
AcDbBlockEnd
  0
BLOCK
  5
24C
100
AcDbEntity
  8
SCHRAFF
100
AcDbBlockBegin
  2
B-16
 70
    66
 10
0.000000
 20
0.000000
 30
0.000000
  0
HATCH
  5
24D
100
AcDbEntity
  8
SCHRAFF
 62
   253
440
     0
100
AcDbHatch
 10
0.000000
 20
0.000000
 30
0.000000
210
0.000000
220
0.000000
230
1.000000
  2
SOLID
 70
     1
 71
     1
 91
     1
 92
    18
 72
     1
 73
     0
 93
     5
 10
14.500003
 20
144.633052
 42
0.000000
 10
14.500003
 20
-196.249941
 42
0.000000
 10
12.500003
 20
-196.249941
 42
0.000000
 10
12.500003
 20
145.933052
 42
0.000000
 10
14.500003
 20
144.633052
 42
0.000000
 97
     0
 75
     0
 76
     1
 98
     0
  0
HATCH
  5
24E
100
AcDbEntity
  8
SCHRAFF
 62
     9
440
     0
100
AcDbHatch
 10
0.000000
 20
0.000000
 30
0.000000
210
0.000000
220
0.000000
230
1.000000
  2
SOLID
 70
     1
 71
     1
 91
     1
 92
    18
 72
     1
 73
     0
 93
     5
 10
8.500003
 20
-196.249941
 42
0.000000
 10
8.500003
 20
148.533052
 42
0.000000
 10
12.500003
 20
145.933052
 42
0.000000
 10
12.500003
 20
-196.249941
 42
0.000000
 10
8.500003
 20
-196.249941
 42
0.000000
 97
     0
 75
     0
 76
     1
 98
     0
  0
ENDBLK
  5
24F
100
AcDbEntity
  8
0
100
AcDbBlockEnd
  0
BLOCK
  5
250
100
AcDbEntity
  8
SCHRAFF
100
AcDbBlockBegin
  2
B-17
 70
    66
 10
0.000000
 20
0.000000
 30
0.000000
  0
HATCH
  5
251
100
AcDbEntity
  8
SCHRAFF
 62
     9
440
     0
100
AcDbHatch
 10
0.000000
 20
0.000000
 30
0.000000
210
0.000000
220
0.000000
230
1.000000
  2
SOLID
 70
     1
 71
     1
 91
     1
 92
    18
 72
     1
 73
     0
 93
     5
 10
2.500003
 20
152.433052
 42
0.000000
 10
8.500003
 20
148.533052
 42
0.000000
 10
8.500003
 20
-196.249941
 42
0.000000
 10
2.500003
 20
-196.249941
 42
0.000000
 10
2.500003
 20
152.433052
 42
0.000000
 97
     0
 75
     0
 76
     1
 98
     0
  0
ENDBLK
  5
252
100
AcDbEntity
  8
0
100
AcDbBlockEnd
  0
BLOCK
  5
253
100
AcDbEntity
  8
SCHRAFF
100
AcDbBlockBegin
  2
B-18
 70
    66
 10
0.000000
 20
0.000000
 30
0.000000
  0
HATCH
  5
254
100
AcDbEntity
  8
SCHRAFF
 62
   161
440
     0
100
AcDbHatch
 10
0.000000
 20
0.000000
 30
0.000000
210
0.000000
220
0.000000
230
1.000000
  2
SOLID
 70
     1
 71
     1
 91
     1
 92
    18
 72
     1
 73
     0
 93
     5
 10
14.500003
 20
144.633052
 42
0.000000
 10
22.500003
 20
144.633052
 42
0.000000
 10
22.500003
 20
-59.749922
 42
0.000000
 10
14.500003
 20
-59.749922
 42
0.000000
 10
14.500003
 20
144.633052
 42
0.000000
 97
     0
 75
     0
 76
     1
 98
     0
  0
HATCH
  5
255
100
AcDbEntity
  8
SCHRAFF
 62
   161
440
     0
100
AcDbHatch
 10
0.000000
 20
0.000000
 30
0.000000
210
0.000000
220
0.000000
230
1.000000
  2
SOLID
 70
     1
 71
     1
 91
     1
 92
    18
 72
     1
 73
     0
 93
     5
 10
14.500003
 20
-69.749922
 42
0.000000
 10
22.500003
 20
-69.749922
 42
0.000000
 10
22.500003
 20
-196.249941
 42
0.000000
 10
14.500003
 20
-196.249941
 42
0.000000
 10
14.500003
 20
-69.749922
 42
0.000000
 97
     0
 75
     0
 76
     1
 98
     0
  0
ENDBLK
  5
256
100
AcDbEntity
  8
0
100
AcDbBlockEnd
  0
BLOCK
  5
257
100
AcDbEntity
  8
SCHRAFF
100
AcDbBlockBegin
  2
B-19
 70
    66
 10
0.000000
 20
0.000000
 30
0.000000
  0
HATCH
  5
258
100
AcDbEntity
  8
SCHRAFF
 62
    51
440
     0
100
AcDbHatch
 10
0.000000
 20
0.000000
 30
0.000000
210
0.000000
220
0.000000
230
1.000000
  2
SOLID
 70
     1
 71
     1
 91
     1
 92
    18
 72
     1
 73
     0
 93
     5
 10
-132.499996
 20
165.933052
 42
0.000000
 10
-82.499997
 20
160.933052
 42
0.000000
 10
-82.499997
 20
130.250078
 42
0.000000
 10
-132.499997
 20
130.250078
 42
0.000000
 10
-132.499996
 20
165.933052
 42
0.000000
 97
     0
 75
     0
 76
     1
 98
     0
  0
ENDBLK
  5
259
100
AcDbEntity
  8
0
100
AcDbBlockEnd
  0
BLOCK
  5
25A
100
AcDbEntity
  8
Detail
100
AcDbBlockBegin
  2
B-20
 70
    66
 10
0.000000
 20
0.000000
 30
0.000000
  0
LWPOLYLINE
  5
25B
100
AcDbEntity
  8
Detail
  6
CONTINUOUS
 62
     6
100
AcDbPolyline
 90
     6
 10
-82.499997
 20
-196.249941
 42
0.000000
 10
-82.499997
 20
125.250078
 42
0.000000
 10
-132.499997
 20
125.250078
 42
0.000000
 10
-132.499997
 20
130.250078
 42
0.000000
 10
-77.499997
 20
130.250078
 42
0.000000
 10
-77.499997
 20
-196.249941
 42
0.000000
  0
ENDBLK
  5
262
100
AcDbEntity
  8
0
100
AcDbBlockEnd
  0
BLOCK
  5
263
100
AcDbEntity
  8
Detail
100
AcDbBlockBegin
  2
B-21
 70
    66
 10
0.000000
 20
0.000000
 30
0.000000
  0
LWPOLYLINE
  5
264
100
AcDbEntity
  8
Detail
  6
CONTINUOUS
 62
     6
100
AcDbPolyline
 90
     4
 10
8.500003
 20
-196.249941
 42
0.000000
 10
8.500003
 20
148.533052
 42
0.000000
 10
12.500003
 20
145.933052
 42
0.000000
 10
12.500003
 20
-196.249941
 42
0.000000
  0
ENDBLK
  5
269
100
AcDbEntity
  8
0
100
AcDbBlockEnd
  0
BLOCK
  5
26A
100
AcDbEntity
  8
Detail
100
AcDbBlockBegin
  2
B-22
 70
    66
 10
0.000000
 20
0.000000
 30
0.000000
  0
LWPOLYLINE
  5
26B
100
AcDbEntity
  8
Detail
  6
CONTINUOUS
 62
     6
100
AcDbPolyline
 90
     4
 10
12.500003
 20
-196.249941
 42
0.000000
 10
12.500003
 20
145.933052
 42
0.000000
 10
14.500003
 20
144.633052
 42
0.000000
 10
14.500003
 20
-196.249941
 42
0.000000
  0
ENDBLK
  5
270
100
AcDbEntity
  8
0
100
AcDbBlockEnd
  0
BLOCK
  5
271
100
AcDbEntity
  8
Detail
100
AcDbBlockBegin
  2
B-23
 70
    66
 10
0.000000
 20
0.000000
 30
0.000000
  0
LWPOLYLINE
  5
272
100
AcDbEntity
  8
Detail
  6
CONTINUOUS
 62
     6
100
AcDbPolyline
 90
     4
 10
2.500003
 20
-196.249941
 42
0.000000
 10
2.500003
 20
152.433052
 42
0.000000
 10
12.500003
 20
145.933052
 42
0.000000
 10
12.500003
 20
-196.249941
 42
0.000000
  0
ENDBLK
  5
277
100
AcDbEntity
  8
0
100
AcDbBlockEnd
  0
BLOCK
  5
278
100
AcDbEntity
  8
SCHRAFF
100
AcDbBlockBegin
  2
B-24
 70
    66
 10
0.000000
 20
0.000000
 30
0.000000
  0
HATCH
  5
279
100
AcDbEntity
  8
SCHRAFF
  6
CONTINUOUS
 62
     9
100
AcDbHatch
 10
0.000000
 20
0.000000
 30
0.000000
210
0.000000
220
0.000000
230
1.000000
  2
_U
 70
     0
 71
     1
 91
     1
 92
    18
 72
     1
 73
     0
 93
     5
 10
-212.500018
 20
125.250078
 42
0.000000
 10
-82.499997
 20
125.250078
 42
0.000000
 10
-82.499997
 20
-196.249941
 42
0.000000
 10
-212.500018
 20
-196.249941
 42
0.000000
 10
-212.500018
 20
125.250078
 42
0.000000
 97
     0
 75
     0
 76
     0
 52
0.000000
 41
1.000000
 77
     0
 78
     1
 53
45.000000
 43
-0.000000
 44
0.000000
 45
-17.677670
 46
17.677670
 79
     0
 98
     0
  0
ENDBLK
  5
27A
100
AcDbEntity
  8
0
100
AcDbBlockEnd
  0
BLOCK
  5
27B
100
AcDbEntity
  8
Detail
100
AcDbBlockBegin
  2
B-25
 70
    66
 10
0.000000
 20
0.000000
 30
0.000000
  0
LWPOLYLINE
  5
27C
100
AcDbEntity
  8
Detail
  6
CONTINUOUS
 62
     3
100
AcDbPolyline
 90
     5
 10
-82.499997
 20
130.250078
 42
0.000000
 10
-132.499997
 20
130.250078
 42
0.000000
 10
-132.499996
 20
165.933052
 42
0.000000
 10
-82.499997
 20
160.933052
 42
0.000000
 10
-82.499997
 20
130.250078
 42
0.000000
  0
ENDBLK
  5
282
100
AcDbEntity
  8
0
100
AcDbBlockEnd
  0
BLOCK
  5
283
100
AcDbEntity
  8
Detail
100
AcDbBlockBegin
  2
B-26
 70
    66
 10
0.000000
 20
0.000000
 30
0.000000
  0
LWPOLYLINE
  5
284
100
AcDbEntity
  8
Detail
  6
HIDDEN
 62
     9
100
AcDbPolyline
 90
     2
 10
7.500003
 20
149.183052
 42
0.000000
 10
7.500003
 20
-196.249941
 42
0.000000
  0
LWPOLYLINE
  5
287
100
AcDbEntity
  8
Detail
  6
CONTINUOUS
 62
     3
100
AcDbPolyline
 90
     4
 10
14.500003
 20
-196.249941
 42
0.000000
 10
14.500003
 20
-69.749922
 42
0.000000
 10
22.500003
 20
-69.749922
 42
0.000000
 10
22.500003
 20
-196.249941
 42
0.000000
  0
ENDBLK
  5
28C
100
AcDbEntity
  8
0
100
AcDbBlockEnd
  0
BLOCK
  5
28D
100
AcDbEntity
  8
SCHRAFF
100
AcDbBlockBegin
  2
B-27
 70
    66
 10
0.000000
 20
0.000000
 30
0.000000
  0
HATCH
  5
28E
100
AcDbEntity
  8
SCHRAFF
  6
CONTINUOUS
 62
     9
100
AcDbHatch
 10
0.000000
 20
0.000000
 30
0.000000
210
0.000000
220
0.000000
230
1.000000
  2
_U
 70
     0
 71
     1
 91
     1
 92
    18
 72
     1
 73
     0
 93
     5
 10
-132.499996
 20
165.933052
 42
0.000000
 10
-82.499997
 20
160.933052
 42
0.000000
 10
-82.499997
 20
130.250078
 42
0.000000
 10
-132.499997
 20
130.250078
 42
0.000000
 10
-132.499996
 20
165.933052
 42
0.000000
 97
     0
 75
     0
 76
     0
 52
0.000000
 41
1.000000
 77
     0
 78
     1
 53
90.000000
 43
-0.000000
 44
0.000000
 45
-6.875000
 46
0.000000
 79
     0
 98
     0
  0
ENDBLK
  5
28F
100
AcDbEntity
  8
0
100
AcDbBlockEnd
  0
BLOCK
  5
290
100
AcDbEntity
  8
Detail
100
AcDbBlockBegin
  2
B-28
 70
    66
 10
0.000000
 20
0.000000
 30
0.000000
  0
LWPOLYLINE
  5
291
100
AcDbEntity
  8
Detail
  6
CONTINUOUS
 62
     6
100
AcDbPolyline
 90
    24
 10
-212.500018
 20
135.715824
 42
0.000000
 10
-212.431509
 20
135.750078
 42
0.000000
 10
-211.431509
 20
135.250078
 42
0.000000
 10
-210.431509
 20
135.250078
 42
0.000000
 10
-209.431509
 20
134.750078
 42
0.000000
 10
-208.431509
 20
135.250078
 42
0.000000
 10
-207.431509
 20
135.250078
 42
0.000000
 10
-206.431509
 20
135.750078
 42
0.000000
 10
-205.431509
 20
135.250078
 42
0.000000
 10
-204.431509
 20
135.250078
 42
0.000000
 10
-203.431509
 20
134.750078
 42
0.000000
 10
-202.431509
 20
135.250078
 42
0.000000
 10
-201.431509
 20
135.250078
 42
0.000000
 10
-200.431509
 20
135.750078
 42
0.000000
 10
-199.431509
 20
135.250078
 42
0.000000
 10
-198.431509
 20
135.250078
 42
0.000000
 10
-197.431509
 20
134.750078
 42
0.000000
 10
-196.431509
 20
135.250078
 42
0.000000
 10
-195.431509
 20
135.250078
 42
0.000000
 10
-194.431509
 20
135.750078
 42
0.000000
 10
-193.431509
 20
135.250078
 42
0.000000
 10
-192.431509
 20
135.250078
 42
0.000000
 10
-191.431509
 20
134.750078
 42
0.000000
 10
-190.431509
 20
135.250078
 42
0.000000
  0
ENDBLK
  5
2AA
100
AcDbEntity
  8
0
100
AcDbBlockEnd
  0
BLOCK
  5
2AB
100
AcDbEntity
  8
Detail
100
AcDbBlockBegin
  2
B-29
 70
    66
 10
0.000000
 20
0.000000
 30
0.000000
  0
MTEXT
  5
2AD
100
AcDbEntity
  8
Detail
 62
     7
100
AcDbMText
 10
79.375023
 20
112.750178
 30
0.000000
 40
5.000000
 41
48.510000
 71
     1
 72
     5
  1
Montagewinkel
  7
Arial
 50
0.000000
  0
ENDBLK
  5
2AE
100
AcDbEntity
  8
0
100
AcDbBlockEnd
  0
BLOCK
  5
2AF
100
AcDbEntity
  8
SCHRAFF
100
AcDbBlockBegin
  2
B-30
 70
    66
 10
0.000000
 20
0.000000
 30
0.000000
  0
HATCH
  5
2B0
100
AcDbEntity
  8
SCHRAFF
 62
     7
440
     0
100
AcDbHatch
 10
0.000000
 20
0.000000
 30
0.000000
210
0.000000
220
0.000000
230
1.000000
  2
SOLID
 70
     1
 71
     1
 91
     1
 92
    18
 72
     1
 73
     0
 93
     3
 10
18.000003
 20
-64.749922
 42
1.000000
 10
17.000003
 20
-64.749922
 42
1.000000
 10
18.000003
 20
-64.749922
 42
0.000000
 97
     0
 75
     0
 76
     1
 98
     0
  0
CIRCLE
  5
2B1
100
AcDbEntity
  8
Detail
  6
CONTINUOUS
 62
     7
100
AcDbCircle
 10
17.500003
 20
-64.749922
 40
0.500000
  0
ENDBLK
  5
2B2
100
AcDbEntity
  8
0
100
AcDbBlockEnd
  0
BLOCK
  5
2B3
100
AcDbEntity
  8
SCHRAFF
100
AcDbBlockBegin
  2
B-31
 70
    66
 10
0.000000
 20
0.000000
 30
0.000000
  0
HATCH
  5
2B4
100
AcDbEntity
  8
SCHRAFF
 62
     7
440
     0
100
AcDbHatch
 10
0.000000
 20
0.000000
 30
0.000000
210
0.000000
220
0.000000
230
1.000000
  2
SOLID
 70
     1
 71
     1
 91
     1
 92
    18
 72
     1
 73
     0
 93
     3
 10
14.000003
 20
35.250078
 42
1.000000
 10
13.000003
 20
35.250078
 42
1.000000
 10
14.000003
 20
35.250078
 42
0.000000
 97
     0
 75
     0
 76
     1
 98
     0
  0
CIRCLE
  5
2B5
100
AcDbEntity
  8
Detail
  6
CONTINUOUS
 62
     7
100
AcDbCircle
 10
13.500003
 20
35.250078
 40
0.500000
  0
ENDBLK
  5
2B6
100
AcDbEntity
  8
0
100
AcDbBlockEnd
  0
BLOCK
  5
2B7
100
AcDbEntity
  8
Detail
100
AcDbBlockBegin
  2
B-32
 70
    66
 10
0.000000
 20
0.000000
 30
0.000000
  0
MTEXT
  5
2B8
100
AcDbEntity
  8
Detail
 62
     7
100
AcDbMText
 10
79.375023
 20
87.750178
 30
0.000000
 40
5.000000
 41
31.185000
 71
     1
 72
     5
  1
Schraube
  7
Arial
 50
0.000000
  0
ENDBLK
  5
2B9
100
AcDbEntity
  8
0
100
AcDbBlockEnd
  0
BLOCK
  5
2BA
100
AcDbEntity
  8
SCHRAFF
100
AcDbBlockBegin
  2
B-33
 70
    66
 10
0.000000
 20
0.000000
 30
0.000000
  0
HATCH
  5
2BB
100
AcDbEntity
  8
SCHRAFF
 62
     7
440
     0
100
AcDbHatch
 10
0.000000
 20
0.000000
 30
0.000000
210
0.000000
220
0.000000
230
1.000000
  2
SOLID
 70
     1
 71
     1
 91
     1
 92
    18
 72
     1
 73
     0
 93
     3
 10
19.000003
 20
60.250078
 42
1.000000
 10
18.000003
 20
60.250078
 42
1.000000
 10
19.000003
 20
60.250078
 42
0.000000
 97
     0
 75
     0
 76
     1
 98
     0
  0
CIRCLE
  5
2BC
100
AcDbEntity
  8
Detail
  6
CONTINUOUS
 62
     7
100
AcDbCircle
 10
18.500003
 20
60.250078
 40
0.500000
  0
ENDBLK
  5
2BD
100
AcDbEntity
  8
0
100
AcDbBlockEnd
  0
BLOCK
  5
2BE
100
AcDbEntity
  8
Detail
100
AcDbBlockBegin
  2
B-34
 70
    66
 10
0.000000
 20
0.000000
 30
0.000000
  0
MTEXT
  5
2BF
100
AcDbEntity
  8
Detail
 62
     7
100
AcDbMText
 10
79.375023
 20
62.750178
 30
0.000000
 40
5.000000
 41
48.982500
 71
     1
 72
     5
  1
Hartbekleidung
  7
Arial
 50
0.000000
  0
ENDBLK
  5
2C0
100
AcDbEntity
  8
0
100
AcDbBlockEnd
  0
BLOCK
  5
2C1
100
AcDbEntity
  8
Detail
100
AcDbBlockBegin
  2
B-35
 70
    66
 10
0.000000
 20
0.000000
 30
0.000000
  0
MTEXT
  5
2C2
100
AcDbEntity
  8
Detail
 62
     7
100
AcDbMText
 10
79.375023
 20
37.750178
 30
0.000000
 40
5.000000
 41
44.940000
 71
     1
 72
     5
  1
Verlegemörtel
  7
Arial
 50
0.000000
  0
ENDBLK
  5
2C3
100
AcDbEntity
  8
0
100
AcDbBlockEnd
  0
BLOCK
  5
2C4
100
AcDbEntity
  8
SCHRAFF
100
AcDbBlockBegin
  2
B-36
 70
    66
 10
0.000000
 20
0.000000
 30
0.000000
  0
HATCH
  5
2C5
100
AcDbEntity
  8
SCHRAFF
 62
     7
440
     0
100
AcDbHatch
 10
0.000000
 20
0.000000
 30
0.000000
210
0.000000
220
0.000000
230
1.000000
  2
SOLID
 70
     1
 71
     1
 91
     1
 92
    18
 72
     1
 73
     0
 93
     3
 10
-75.499997
 20
85.250078
 42
1.000000
 10
-76.499997
 20
85.250078
 42
1.000000
 10
-75.499997
 20
85.250078
 42
0.000000
 97
     0
 75
     0
 76
     1
 98
     0
  0
CIRCLE
  5
2C6
100
AcDbEntity
  8
Detail
  6
CONTINUOUS
 62
     7
100
AcDbCircle
 10
-75.999997
 20
85.250078
 40
0.500000
  0
ENDBLK
  5
2C7
100
AcDbEntity
  8
0
100
AcDbBlockEnd
  0
BLOCK
  5
2C8
100
AcDbEntity
  8
Detail
100
AcDbBlockBegin
  2
B-37
 70
    66
 10
0.000000
 20
0.000000
 30
0.000000
  0
MTEXT
  5
2C9
100
AcDbEntity
  8
Detail
 62
     7
100
AcDbMText
 10
79.375023
 20
7.750178
 30
0.000000
 40
5.000000
 41
69.930000
 71
     7
 72
     5
  1
Ausgleichsschicht mit
  7
Arial
 50
0.000000
  0
MTEXT
  5
2CA
100
AcDbEntity
  8
Detail
 62
     7
100
AcDbMText
 10
79.375023
 20
0.250178
 30
0.000000
 40
5.000000
 41
68.827500
 71
     7
 72
     5
  1
Ceratherm Mörtel DP
  7
Arial
 50
0.000000
  0
ENDBLK
  5
2CB
100
AcDbEntity
  8
0
100
AcDbBlockEnd
  0
BLOCK
  5
2CC
100
AcDbEntity
  8
SCHRAFF
100
AcDbBlockBegin
  2
B-38
 70
    66
 10
0.000000
 20
0.000000
 30
0.000000
  0
HATCH
  5
2CD
100
AcDbEntity
  8
SCHRAFF
 62
     7
440
     0
100
AcDbHatch
 10
0.000000
 20
0.000000
 30
0.000000
210
0.000000
220
0.000000
230
1.000000
  2
SOLID
 70
     1
 71
     1
 91
     1
 92
    18
 72
     1
 73
     0
 93
     3
 10
11.000003
 20
10.250078
 42
1.000000
 10
10.000003
 20
10.250078
 42
1.000000
 10
11.000003
 20
10.250078
 42
0.000000
 97
     0
 75
     0
 76
     1
 98
     0
  0
CIRCLE
  5
2CE
100
AcDbEntity
  8
Detail
  6
CONTINUOUS
 62
     7
100
AcDbCircle
 10
10.500003
 20
10.250078
 40
0.500000
  0
ENDBLK
  5
2CF
100
AcDbEntity
  8
0
100
AcDbBlockEnd
  0
BLOCK
  5
2D0
100
AcDbEntity
  8
Detail
100
AcDbBlockBegin
  2
B-39
 70
    66
 10
0.000000
 20
0.000000
 30
0.000000
  0
MTEXT
  5
2D1
100
AcDbEntity
  8
Detail
 62
     7
100
AcDbMText
 10
79.375023
 20
-17.249822
 30
0.000000
 40
5.000000
 41
71.872500
 71
     7
 72
     5
  1
Armierungsschicht mit
  7
Arial
 50
0.000000
  0
MTEXT
  5
2D2
100
AcDbEntity
  8
Detail
 62
     7
100
AcDbMText
 10
79.375023
 20
-24.749822
 30
0.000000
 40
5.000000
 41
68.827500
 71
     7
 72
     5
  1
Ceratherm Mörtel DP
  7
Arial
 50
0.000000
  0
ENDBLK
  5
2D3
100
AcDbEntity
  8
0
100
AcDbBlockEnd
  0
BLOCK
  5
2D4
100
AcDbEntity
  8
SCHRAFF
100
AcDbBlockBegin
  2
B-40
 70
    66
 10
0.000000
 20
0.000000
 30
0.000000
  0
HATCH
  5
2D5
100
AcDbEntity
  8
SCHRAFF
 62
     7
440
     0
100
AcDbHatch
 10
0.000000
 20
0.000000
 30
0.000000
210
0.000000
220
0.000000
230
1.000000
  2
SOLID
 70
     1
 71
     1
 91
     1
 92
    18
 72
     1
 73
     0
 93
     3
 10
6.000003
 20
-14.749922
 42
1.000000
 10
5.000003
 20
-14.749922
 42
1.000000
 10
6.000003
 20
-14.749922
 42
0.000000
 97
     0
 75
     0
 76
     1
 98
     0
  0
CIRCLE
  5
2D6
100
AcDbEntity
  8
Detail
  6
CONTINUOUS
 62
     7
100
AcDbCircle
 10
5.500003
 20
-14.749922
 40
0.500000
  0
ENDBLK
  5
2D7
100
AcDbEntity
  8
0
100
AcDbBlockEnd
  0
BLOCK
  5
2D8
100
AcDbEntity
  8
SCHRAFF
100
AcDbBlockBegin
  2
B-41
 70
    66
 10
0.000000
 20
0.000000
 30
0.000000
  0
HATCH
  5
2D9
100
AcDbEntity
  8
SCHRAFF
 62
     7
440
     0
100
AcDbHatch
 10
0.000000
 20
0.000000
 30
0.000000
210
0.000000
220
0.000000
230
1.000000
  2
SOLID
 70
     1
 71
     1
 91
     1
 92
    18
 72
     1
 73
     0
 93
     3
 10
9.500003
 20
-39.749922
 42
1.000000
 10
8.500003
 20
-39.749922
 42
1.000000
 10
9.500003
 20
-39.749922
 42
0.000000
 97
     0
 75
     0
 76
     1
 98
     0
  0
CIRCLE
  5
2DA
100
AcDbEntity
  8
Detail
  6
CONTINUOUS
 62
     7
100
AcDbCircle
 10
9.000003
 20
-39.749922
 40
0.500000
  0
ENDBLK
  5
2DB
100
AcDbEntity
  8
0
100
AcDbBlockEnd
  0
BLOCK
  5
2DC
100
AcDbEntity
  8
Detail
100
AcDbBlockBegin
  2
B-42
 70
    66
 10
0.000000
 20
0.000000
 30
0.000000
  0
MTEXT
  5
2DD
100
AcDbEntity
  8
Detail
 62
     7
100
AcDbMText
 10
79.375023
 20
-42.249822
 30
0.000000
 40
5.000000
 41
61.110000
 71
     7
 72
     5
  1
Verdübelung durch
  7
Arial
 50
0.000000
  0
MTEXT
  5
2DE
100
AcDbEntity
  8
Detail
 62
     7
100
AcDbMText
 10
79.375023
 20
-49.749822
 30
0.000000
 40
5.000000
 41
59.797500
 71
     7
 72
     5
  1
Gewebearmierung
  7
Arial
 50
0.000000
  0
ENDBLK
  5
2DF
100
AcDbEntity
  8
0
100
AcDbBlockEnd
  0
BLOCK
  5
2E0
100
AcDbEntity
  8
Detail
100
AcDbBlockBegin
  2
B-43
 70
    66
 10
0.000000
 20
0.000000
 30
0.000000
  0
MTEXT
  5
2E1
100
AcDbEntity
  8
Detail
 62
     7
100
AcDbMText
 10
79.375023
 20
-62.249822
 30
0.000000
 40
5.000000
 41
40.897500
 71
     1
 72
     5
  1
Fugenmörtel
  7
Arial
 50
0.000000
  0
ENDBLK
  5
2E2
100
AcDbEntity
  8
0
100
AcDbBlockEnd
  0
BLOCK
  5
2E3
100
AcDbEntity
  8
Detail
100
AcDbBlockBegin
  2
B-44
 70
    66
 10
0.000000
 20
0.000000
 30
0.000000
  0
MTEXT
  5
2E4
100
AcDbEntity
  8
Detail
 62
     7
100
AcDbMText
 10
79.375023
 20
-87.249822
 30
0.000000
 40
5.000000
 41
59.482500
 71
     1
 72
     5
  1
WDVS-Dämmstoff
  7
Arial
 50
0.000000
  0
ENDBLK
  5
2E5
100
AcDbEntity
  8
0
100
AcDbBlockEnd
  0
BLOCK
  5
2E6
100
AcDbEntity
  8
SCHRAFF
100
AcDbBlockBegin
  2
B-45
 70
    66
 10
0.000000
 20
0.000000
 30
0.000000
  0
HATCH
  5
2E7
100
AcDbEntity
  8
SCHRAFF
 62
     7
440
     0
100
AcDbHatch
 10
0.000000
 20
0.000000
 30
0.000000
210
0.000000
220
0.000000
230
1.000000
  2
SOLID
 70
     1
 71
     1
 91
     1
 92
    18
 72
     1
 73
     0
 93
     3
 10
-36.999997
 20
-89.749922
 42
1.000000
 10
-37.999997
 20
-89.749922
 42
1.000000
 10
-36.999997
 20
-89.749922
 42
0.000000
 97
     0
 75
     0
 76
     1
 98
     0
  0
CIRCLE
  5
2E8
100
AcDbEntity
  8
Detail
  6
CONTINUOUS
 62
     7
100
AcDbCircle
 10
-37.499997
 20
-89.749922
 40
0.500000
  0
ENDBLK
  5
2E9
100
AcDbEntity
  8
0
100
AcDbBlockEnd
  0
BLOCK
  5
2EA
100
AcDbEntity
  8
Detail
100
AcDbBlockBegin
  2
B-46
 70
    66
 10
0.000000
 20
0.000000
 30
0.000000
  0
MTEXT
  5
2EB
100
AcDbEntity
  8
Detail
 62
     7
100
AcDbMText
 10
79.375023
 20
-112.249822
 30
0.000000
 40
5.000000
 41
38.902500
 71
     1
 72
     5
  1
Klebemörtel
  7
Arial
 50
0.000000
  0
ENDBLK
  5
2EC
100
AcDbEntity
  8
0
100
AcDbBlockEnd
  0
BLOCK
  5
2ED
100
AcDbEntity
  8
SCHRAFF
100
AcDbBlockBegin
  2
B-47
 70
    66
 10
0.000000
 20
0.000000
 30
0.000000
  0
HATCH
  5
2EE
100
AcDbEntity
  8
SCHRAFF
 62
     7
440
     0
100
AcDbHatch
 10
0.000000
 20
0.000000
 30
0.000000
210
0.000000
220
0.000000
230
1.000000
  2
SOLID
 70
     1
 71
     1
 91
     1
 92
    18
 72
     1
 73
     0
 93
     3
 10
-79.499997
 20
-114.749922
 42
1.000000
 10
-80.499997
 20
-114.749922
 42
1.000000
 10
-79.499997
 20
-114.749922
 42
0.000000
 97
     0
 75
     0
 76
     1
 98
     0
  0
CIRCLE
  5
2EF
100
AcDbEntity
  8
Detail
  6
CONTINUOUS
 62
     7
100
AcDbCircle
 10
-79.999997
 20
-114.749922
 40
0.500000
  0
ENDBLK
  5
2F0
100
AcDbEntity
  8
0
100
AcDbBlockEnd
  0
BLOCK
  5
2F1
100
AcDbEntity
  8
Detail
100
AcDbBlockBegin
  2
B-48
 70
    66
 10
0.000000
 20
0.000000
 30
0.000000
  0
LWPOLYLINE
  5
2F2
100
AcDbEntity
  8
Detail
  6
CONTINUOUS
 62
     9
100
AcDbPolyline
 90
    17
 10
-187.999995
 20
127.750078
 42
0.262676
 10
-187.568430
 20
126.985279
 42
0.082357
 10
-185.049744
 20
125.982311
 42
0.034537
 10
-181.781897
 20
125.440379
 42
0.024669
 10
-177.927208
 20
125.250078
 42
0.024669
 10
-174.072520
 20
125.440379
 42
0.034537
 10
-170.804672
 20
125.982311
 42
0.082357
 10
-168.285987
 20
126.985279
 42
0.262676
 10
-167.854421
 20
127.750078
 42
0.262676
 10
-168.285987
 20
128.514877
 42
0.082357
 10
-170.804672
 20
129.517845
 42
0.034537
 10
-174.072520
 20
130.059777
 42
0.024669
 10
-177.927208
 20
130.250078
 42
0.024669
 10
-181.781897
 20
130.059777
 42
0.034537
 10
-185.049744
 20
129.517845
 42
0.082357
 10
-187.568430
 20
128.514877
 42
0.262676
 10
-187.999995
 20
127.750078
 42
0.000000
  0
ENDBLK
  5
304
100
AcDbEntity
  8
0
100
AcDbBlockEnd
  0
BLOCK
  5
305
100
AcDbEntity
  8
Detail
100
AcDbBlockBegin
  2
B-49
 70
    66
 10
0.000000
 20
0.000000
 30
0.000000
  0
LWPOLYLINE
  5
306
100
AcDbEntity
  8
Detail
  6
CONTINUOUS
 62
     9
100
AcDbPolyline
 90
    17
 10
-184.373792
 20
127.750078
 42
0.262676
 10
-184.097590
 20
127.260606
 42
0.082357
 10
-182.485631
 20
126.618707
 42
0.034537
 10
-180.394209
 20
126.271871
 42
0.024669
 10
-177.927208
 20
126.150078
 42
0.024669
 10
-175.460208
 20
126.271871
 42
0.034537
 10
-173.368785
 20
126.618707
 42
0.082357
 10
-171.756827
 20
127.260606
 42
0.262676
 10
-171.480625
 20
127.750078
 42
0.262676
 10
-171.756827
 20
128.239549
 42
0.082357
 10
-173.368785
 20
128.881449
 42
0.034537
 10
-175.460208
 20
129.228285
 42
0.024669
 10
-177.927208
 20
129.350078
 42
0.024669
 10
-180.394209
 20
129.228285
 42
0.034537
 10
-182.485631
 20
128.881449
 42
0.082357
 10
-184.097590
 20
128.239549
 42
0.262676
 10
-184.373792
 20
127.750078
 42
0.000000
  0
ENDBLK
  5
318
100
AcDbEntity
  8
0
100
AcDbBlockEnd
  0
BLOCK
  5
319
100
AcDbEntity
  8
Detail
100
AcDbBlockBegin
  2
B-50
 70
    66
 10
0.000000
 20
0.000000
 30
0.000000
  0
LWPOLYLINE
  5
31A
100
AcDbEntity
  8
Detail
  6
CONTINUOUS
 62
     9
100
AcDbPolyline
 90
    17
 10
-138.626201
 20
127.750078
 42
-0.262676
 10
-138.902403
 20
127.260606
 42
-0.082357
 10
-140.514361
 20
126.618707
 42
-0.034537
 10
-142.605784
 20
126.271871
 42
-0.024669
 10
-145.072784
 20
126.150078
 42
-0.024669
 10
-147.539785
 20
126.271871
 42
-0.034537
 10
-149.631208
 20
126.618707
 42
-0.082357
 10
-151.243166
 20
127.260606
 42
-0.262676
 10
-151.519368
 20
127.750078
 42
-0.262676
 10
-151.243166
 20
128.239549
 42
-0.082357
 10
-149.631208
 20
128.881449
 42
-0.034537
 10
-147.539785
 20
129.228285
 42
-0.024669
 10
-145.072784
 20
129.350078
 42
-0.024669
 10
-142.605784
 20
129.228285
 42
-0.034537
 10
-140.514361
 20
128.881449
 42
-0.082357
 10
-138.902403
 20
128.239549
 42
-0.262676
 10
-138.626201
 20
127.750078
 42
0.000000
  0
ENDBLK
  5
32C
100
AcDbEntity
  8
0
100
AcDbBlockEnd
  0
BLOCK
  5
32D
100
AcDbEntity
  8
Detail
100
AcDbBlockBegin
  2
B-51
 70
    66
 10
0.000000
 20
0.000000
 30
0.000000
  0
LWPOLYLINE
  5
32E
100
AcDbEntity
  8
Detail
  6
CONTINUOUS
 62
     9
100
AcDbPolyline
 90
    17
 10
-134.999997
 20
127.750078
 42
-0.262676
 10
-135.431563
 20
126.985279
 42
-0.082357
 10
-137.950248
 20
125.982311
 42
-0.034537
 10
-141.218096
 20
125.440379
 42
-0.024669
 10
-145.072784
 20
125.250078
 42
-0.024669
 10
-148.927473
 20
125.440379
 42
-0.034537
 10
-152.195320
 20
125.982311
 42
-0.082357
 10
-154.714006
 20
126.985279
 42
-0.262676
 10
-155.145571
 20
127.750078
 42
-0.262676
 10
-154.714006
 20
128.514877
 42
-0.082357
 10
-152.195320
 20
129.517845
 42
-0.034537
 10
-148.927473
 20
130.059777
 42
-0.024669
 10
-145.072784
 20
130.250078
 42
-0.024669
 10
-141.218096
 20
130.059777
 42
-0.034537
 10
-137.950248
 20
129.517845
 42
-0.082357
 10
-135.431563
 20
128.514877
 42
-0.262676
 10
-134.999997
 20
127.750078
 42
0.000000
  0
ENDBLK
  5
340
100
AcDbEntity
  8
0
100
AcDbBlockEnd
  0
BLOCK
  5
341
100
AcDbEntity
  8
Detail
100
AcDbBlockBegin
  2
B-52
 70
    66
 10
0.000000
 20
0.000000
 30
0.000000
  0
ENDBLK
  5
342
100
AcDbEntity
  8
0
100
AcDbBlockEnd
  0
BLOCK
  5
343
100
AcDbEntity
  8
Detail
100
AcDbBlockBegin
  2
B-53
 70
    66
 10
0.000000
 20
0.000000
 30
0.000000
  0
LWPOLYLINE
  5
344
100
AcDbEntity
  8
Detail
  6
CONTINUOUS
 62
     9
100
AcDbPolyline
 90
     2
 10
-20.999997
 20
-46.749922
 42
0.000000
 10
-20.999997
 20
-32.770509
 42
0.000000
  0
LWPOLYLINE
  5
347
100
AcDbEntity
  8
Detail
  6
CONTINUOUS
 62
     9
100
AcDbPolyline
 90
   203
 10
-130.999997
 20
-39.749922
 42
0.000000
 10
-128.886922
 20
-40.625187
 42
0.000000
 10
-128.385347
 20
-41.493941
 42
0.000000
 10
-127.996672
 20
-40.993941
 42
0.000000
 10
-126.916335
 20
-41.441431
 42
0.000000
 10
-126.414760
 20
-42.310185
 42
0.000000
 10
-126.026085
 20
-41.810185
 42
0.000000
 10
-125.447308
 20
-42.049922
 42
0.000000
 10
-124.846269
 20
-42.049922
 42
0.000000
 10
-124.557594
 20
-42.549922
 42
0.000000
 10
-124.168919
 20
-42.049922
 42
0.000000
 10
-123.036269
 20
-42.049922
 42
0.000000
 10
-122.747594
 20
-42.549922
 42
0.000000
 10
-122.358919
 20
-42.049922
 42
0.000000
 10
-121.226269
 20
-42.049922
 42
0.000000
 10
-120.937594
 20
-42.549922
 42
0.000000
 10
-120.548919
 20
-42.049922
 42
0.000000
 10
-119.416269
 20
-42.049922
 42
0.000000
 10
-119.127594
 20
-42.549922
 42
0.000000
 10
-118.738919
 20
-42.049922
 42
0.000000
 10
-117.606269
 20
-42.049922
 42
0.000000
 10
-117.317594
 20
-42.549922
 42
0.000000
 10
-116.928919
 20
-42.049922
 42
0.000000
 10
-115.796269
 20
-42.049922
 42
0.000000
 10
-115.507594
 20
-42.549922
 42
0.000000
 10
-115.118919
 20
-42.049922
 42
0.000000
 10
-113.986269
 20
-42.049922
 42
0.000000
 10
-113.697594
 20
-42.549922
 42
0.000000
 10
-113.308919
 20
-42.049922
 42
0.000000
 10
-112.176269
 20
-42.049922
 42
0.000000
 10
-111.887594
 20
-42.549922
 42
0.000000
 10
-111.498919
 20
-42.049922
 42
0.000000
 10
-110.366269
 20
-42.049922
 42
0.000000
 10
-110.077594
 20
-42.549922
 42
0.000000
 10
-109.688919
 20
-42.049922
 42
0.000000
 10
-108.556269
 20
-42.049922
 42
0.000000
 10
-108.267594
 20
-42.549922
 42
0.000000
 10
-107.878919
 20
-42.049922
 42
0.000000
 10
-106.746269
 20
-42.049922
 42
0.000000
 10
-106.457594
 20
-42.549922
 42
0.000000
 10
-106.068919
 20
-42.049922
 42
0.000000
 10
-104.936269
 20
-42.049922
 42
0.000000
 10
-104.647594
 20
-42.549922
 42
0.000000
 10
-104.258919
 20
-42.049922
 42
0.000000
 10
-103.126269
 20
-42.049922
 42
0.000000
 10
-102.837594
 20
-42.549922
 42
0.000000
 10
-102.448919
 20
-42.049922
 42
0.000000
 10
-101.316269
 20
-42.049922
 42
0.000000
 10
-101.027594
 20
-42.549922
 42
0.000000
 10
-100.638919
 20
-42.049922
 42
0.000000
 10
-99.506269
 20
-42.049922
 42
0.000000
 10
-99.217594
 20
-42.549922
 42
0.000000
 10
-98.828919
 20
-42.049922
 42
0.000000
 10
-97.696269
 20
-42.049922
 42
0.000000
 10
-97.407594
 20
-42.549922
 42
0.000000
 10
-97.018919
 20
-42.049922
 42
0.000000
 10
-95.886269
 20
-42.049922
 42
0.000000
 10
-95.597594
 20
-42.549922
 42
0.000000
 10
-95.186404
 20
-42.049922
 42
0.000000
 10
-94.076269
 20
-42.049922
 42
0.000000
 10
-93.787594
 20
-42.549922
 42
0.000000
 10
-93.398919
 20
-42.049922
 42
0.000000
 10
-92.266269
 20
-42.049922
 42
0.000000
 10
-91.977594
 20
-42.549922
 42
0.000000
 10
-91.588919
 20
-42.049922
 42
0.000000
 10
-90.456269
 20
-42.049922
 42
0.000000
 10
-90.167594
 20
-42.549922
 42
0.000000
 10
-89.778919
 20
-42.049922
 42
0.000000
 10
-88.646269
 20
-42.049922
 42
0.000000
 10
-88.357594
 20
-42.549922
 42
0.000000
 10
-87.968919
 20
-42.049922
 42
0.000000
 10
-86.836269
 20
-42.049922
 42
0.000000
 10
-86.547594
 20
-42.549922
 42
0.000000
 10
-86.158919
 20
-42.049922
 42
0.000000
 10
-85.026269
 20
-42.049922
 42
0.000000
 10
-84.737594
 20
-42.549922
 42
0.000000
 10
-84.348919
 20
-42.049922
 42
0.000000
 10
-83.216269
 20
-42.049922
 42
0.000000
 10
-82.927594
 20
-42.549922
 42
0.000000
 10
-82.538919
 20
-42.049922
 42
0.000000
 10
-81.406269
 20
-42.049922
 42
0.000000
 10
-81.117594
 20
-42.549922
 42
0.000000
 10
-80.728919
 20
-42.049922
 42
0.000000
 10
-79.596269
 20
-42.049922
 42
0.000000
 10
-79.307594
 20
-42.549922
 42
0.000000
 10
-78.918919
 20
-42.049922
 42
0.000000
 10
-77.786269
 20
-42.049922
 42
0.000000
 10
-77.497594
 20
-42.549922
 42
0.000000
 10
-77.108919
 20
-42.049922
 42
0.000000
 10
-75.976269
 20
-42.049922
 42
0.000000
 10
-75.687594
 20
-42.549922
 42
0.000000
 10
-75.298919
 20
-42.049922
 42
0.000000
 10
-74.166269
 20
-42.049922
 42
0.000000
 10
-73.877594
 20
-42.549922
 42
0.000000
 10
-73.488919
 20
-42.049922
 42
0.000000
 10
-72.356269
 20
-42.049922
 42
0.000000
 10
-72.067594
 20
-42.549922
 42
0.000000
 10
-71.678919
 20
-42.049922
 42
0.000000
 10
-70.999997
 20
-42.049922
 42
0.000000
 10
-70.826792
 20
-42.149922
 42
0.000000
 10
-26.999997
 20
-44.249922
 42
0.000000
 10
-26.999997
 20
-35.249922
 42
0.000000
 10
-70.826792
 20
-37.349922
 42
0.000000
 10
-70.999997
 20
-37.449922
 42
0.000000
 10
-71.162594
 20
-36.949922
 42
0.000000
 10
-71.451269
 20
-37.449922
 42
0.000000
 10
-72.583919
 20
-37.449922
 42
0.000000
 10
-72.972594
 20
-36.949922
 42
0.000000
 10
-73.261269
 20
-37.449922
 42
0.000000
 10
-74.393919
 20
-37.449922
 42
0.000000
 10
-74.782594
 20
-36.949922
 42
0.000000
 10
-75.071269
 20
-37.449922
 42
0.000000
 10
-76.203919
 20
-37.449922
 42
0.000000
 10
-76.592594
 20
-36.949922
 42
0.000000
 10
-76.881269
 20
-37.449922
 42
0.000000
 10
-78.013919
 20
-37.449922
 42
0.000000
 10
-78.402594
 20
-36.949922
 42
0.000000
 10
-78.691269
 20
-37.449922
 42
0.000000
 10
-79.823919
 20
-37.449922
 42
0.000000
 10
-80.212594
 20
-36.949922
 42
0.000000
 10
-80.501269
 20
-37.449922
 42
0.000000
 10
-81.633919
 20
-37.449922
 42
0.000000
 10
-82.022594
 20
-36.949922
 42
0.000000
 10
-82.311269
 20
-37.449922
 42
0.000000
 10
-83.443919
 20
-37.449922
 42
0.000000
 10
-83.832594
 20
-36.949922
 42
0.000000
 10
-84.121269
 20
-37.449922
 42
0.000000
 10
-85.253919
 20
-37.449922
 42
0.000000
 10
-85.642594
 20
-36.949922
 42
0.000000
 10
-85.931269
 20
-37.449922
 42
0.000000
 10
-87.063919
 20
-37.449922
 42
0.000000
 10
-87.452594
 20
-36.949922
 42
0.000000
 10
-87.741269
 20
-37.449922
 42
0.000000
 10
-88.873919
 20
-37.449922
 42
0.000000
 10
-89.262594
 20
-36.949922
 42
0.000000
 10
-89.551269
 20
-37.449922
 42
0.000000
 10
-90.683919
 20
-37.449922
 42
0.000000
 10
-91.072594
 20
-36.949922
 42
0.000000
 10
-91.361269
 20
-37.449922
 42
0.000000
 10
-92.493919
 20
-37.449922
 42
0.000000
 10
-92.882594
 20
-36.949922
 42
0.000000
 10
-93.171269
 20
-37.449922
 42
0.000000
 10
-94.303919
 20
-37.449922
 42
0.000000
 10
-94.692594
 20
-36.949922
 42
0.000000
 10
-94.981269
 20
-37.449922
 42
0.000000
 10
-96.113919
 20
-37.449922
 42
0.000000
 10
-96.502594
 20
-36.949922
 42
0.000000
 10
-96.791269
 20
-37.449922
 42
0.000000
 10
-97.923919
 20
-37.449922
 42
0.000000
 10
-98.312594
 20
-36.949922
 42
0.000000
 10
-98.601269
 20
-37.449922
 42
0.000000
 10
-99.733919
 20
-37.449922
 42
0.000000
 10
-100.122594
 20
-36.949922
 42
0.000000
 10
-100.411269
 20
-37.449922
 42
0.000000
 10
-101.543919
 20
-37.449922
 42
0.000000
 10
-101.932594
 20
-36.949922
 42
0.000000
 10
-102.221269
 20
-37.449922
 42
0.000000
 10
-103.353919
 20
-37.449922
 42
0.000000
 10
-103.742594
 20
-36.949922
 42
0.000000
 10
-104.031269
 20
-37.449922
 42
0.000000
 10
-105.163919
 20
-37.449922
 42
0.000000
 10
-105.552594
 20
-36.949922
 42
0.000000
 10
-105.841269
 20
-37.449922
 42
0.000000
 10
-106.973919
 20
-37.449922
 42
0.000000
 10
-107.362594
 20
-36.949922
 42
0.000000
 10
-107.651269
 20
-37.449922
 42
0.000000
 10
-108.783919
 20
-37.449922
 42
0.000000
 10
-109.172594
 20
-36.949922
 42
0.000000
 10
-109.461269
 20
-37.449922
 42
0.000000
 10
-110.593919
 20
-37.449922
 42
0.000000
 10
-110.982594
 20
-36.949922
 42
0.000000
 10
-111.271269
 20
-37.449922
 42
0.000000
 10
-112.403919
 20
-37.449922
 42
0.000000
 10
-112.792594
 20
-36.949922
 42
0.000000
 10
-113.081269
 20
-37.449922
 42
0.000000
 10
-114.213919
 20
-37.449922
 42
0.000000
 10
-114.602594
 20
-36.949922
 42
0.000000
 10
-114.891269
 20
-37.449922
 42
0.000000
 10
-116.023919
 20
-37.449922
 42
0.000000
 10
-116.412594
 20
-36.949922
 42
0.000000
 10
-116.701269
 20
-37.449922
 42
0.000000
 10
-117.833919
 20
-37.449922
 42
0.000000
 10
-118.222594
 20
-36.949922
 42
0.000000
 10
-118.511269
 20
-37.449922
 42
0.000000
 10
-119.643919
 20
-37.449922
 42
0.000000
 10
-120.032594
 20
-36.949922
 42
0.000000
 10
-120.321269
 20
-37.449922
 42
0.000000
 10
-121.453919
 20
-37.449922
 42
0.000000
 10
-121.842594
 20
-36.949922
 42
0.000000
 10
-122.131269
 20
-37.449922
 42
0.000000
 10
-123.263919
 20
-37.449922
 42
0.000000
 10
-123.652594
 20
-36.949922
 42
0.000000
 10
-123.941269
 20
-37.449922
 42
0.000000
 10
-125.073919
 20
-37.449922
 42
0.000000
 10
-125.462594
 20
-36.949922
 42
0.000000
 10
-125.846808
 20
-37.615401
 42
0.000000
 10
-126.775668
 20
-38.000148
 42
0.000000
 10
-127.164343
 20
-37.500148
 42
0.000000
 10
-127.665918
 20
-38.368901
 42
0.000000
 10
-128.449282
 20
-38.693381
 42
0.000000
 10
-128.837957
 20
-38.193381
 42
0.000000
 10
-129.339532
 20
-39.062135
 42
0.000000
 10
-130.999997
 20
-39.749922
 42
0.000000
  0
LWPOLYLINE
  5
413
100
AcDbEntity
  8
Detail
  6
CONTINUOUS
 62
     9
100
AcDbPolyline
 90
    83
 10
7.500003
 20
-9.749922
 42
0.000000
 10
8.000003
 20
-9.749922
 42
0.000000
 10
9.000003
 20
-14.749922
 42
0.000000
 10
9.000003
 20
-64.749922
 42
0.000000
 10
8.000003
 20
-69.749922
 42
0.000000
 10
7.500003
 20
-69.749922
 42
0.000000
 10
7.500003
 20
-52.749922
 42
0.000000
 10
6.250003
 20
-48.999922
 42
0.000000
 10
2.500003
 20
-47.749922
 42
0.000000
 10
-20.999997
 20
-46.749922
 42
0.000000
 10
-26.999997
 20
-44.249922
 42
0.000000
 10
-89.462194
 20
-43.709922
 42
0.000000
 10
-90.828137
 20
-43.462913
 42
0.000000
 10
-90.903891
 20
-43.709922
 42
0.000000
 10
-93.686194
 20
-43.709922
 42
0.000000
 10
-95.052137
 20
-43.462913
 42
0.000000
 10
-95.127891
 20
-43.709922
 42
0.000000
 10
-97.910194
 20
-43.709922
 42
0.000000
 10
-99.276137
 20
-43.462913
 42
0.000000
 10
-99.351807
 20
-43.705122
 42
0.000000
 10
-102.134194
 20
-43.709922
 42
0.000000
 10
-103.500137
 20
-43.462913
 42
0.000000
 10
-103.575891
 20
-43.709922
 42
0.000000
 10
-106.358194
 20
-43.709922
 42
0.000000
 10
-107.724137
 20
-43.462913
 42
0.000000
 10
-107.799891
 20
-43.709922
 42
0.000000
 10
-110.582194
 20
-43.709922
 42
0.000000
 10
-111.948137
 20
-43.462913
 42
0.000000
 10
-112.023891
 20
-43.709922
 42
0.000000
 10
-114.806194
 20
-43.709922
 42
0.000000
 10
-116.172137
 20
-43.462913
 42
0.000000
 10
-116.247891
 20
-43.709922
 42
0.000000
 10
-119.030194
 20
-43.709922
 42
0.000000
 10
-120.396137
 20
-43.462913
 42
0.000000
 10
-120.471891
 20
-43.709922
 42
0.000000
 10
-123.254194
 20
-43.709922
 42
0.000000
 10
-124.458351
 20
-43.427490
 42
0.000000
 10
-124.917334
 20
-43.589921
 42
0.000000
 10
-125.894194
 20
-43.155666
 42
0.000000
 10
-126.134194
 20
-42.629922
 42
0.000000
 10
-126.902194
 20
-42.629922
 42
0.000000
 10
-128.420088
 20
-42.088954
 42
0.000000
 10
-129.253704
 20
-40.709922
 42
0.000000
 10
-130.999997
 20
-39.749922
 42
0.000000
 10
-129.253704
 20
-38.789922
 42
0.000000
 10
-128.420088
 20
-37.410890
 42
0.000000
 10
-127.157393
 20
-36.883529
 42
0.000000
 10
-126.134194
 20
-36.869922
 42
0.000000
 10
-125.894194
 20
-36.344178
 42
0.000000
 10
-125.142038
 20
-35.909922
 42
0.000000
 10
-124.692626
 20
-35.909922
 42
0.000000
 10
-124.458351
 20
-36.072354
 42
0.000000
 10
-123.254194
 20
-35.789922
 42
0.000000
 10
-120.471891
 20
-35.789922
 42
0.000000
 10
-120.396137
 20
-36.036931
 42
0.000000
 10
-119.030194
 20
-35.789922
 42
0.000000
 10
-116.247891
 20
-35.789922
 42
0.000000
 10
-116.172137
 20
-36.036931
 42
0.000000
 10
-114.806194
 20
-35.789922
 42
0.000000
 10
-112.023891
 20
-35.789922
 42
0.000000
 10
-111.948137
 20
-36.036931
 42
0.000000
 10
-110.582194
 20
-35.789922
 42
0.000000
 10
-107.799891
 20
-35.789922
 42
0.000000
 10
-107.724137
 20
-36.036931
 42
0.000000
 10
-106.358194
 20
-35.789922
 42
0.000000
 10
-103.575891
 20
-35.789922
 42
0.000000
 10
-103.500137
 20
-36.036931
 42
0.000000
 10
-102.134194
 20
-35.789922
 42
0.000000
 10
-99.351807
 20
-35.794722
 42
0.000000
 10
-99.276137
 20
-36.036931
 42
0.000000
 10
-97.910194
 20
-35.789922
 42
0.000000
 10
-95.127891
 20
-35.789922
 42
0.000000
 10
-95.052137
 20
-36.036931
 42
0.000000
 10
-93.686194
 20
-35.789922
 42
0.000000
 10
-90.903891
 20
-35.789922
 42
0.000000
 10
-90.828137
 20
-36.036931
 42
0.000000
 10
-89.462194
 20
-35.789922
 42
0.000000
 10
-26.999997
 20
-35.249922
 42
0.000000
 10
-20.999997
 20
-32.749922
 42
0.000000
 10
2.500003
 20
-31.749922
 42
0.000000
 10
6.250003
 20
-30.499922
 42
0.000000
 10
7.500003
 20
-26.749922
 42
0.000000
 10
7.500003
 20
-9.749922
 42
0.000000
  0
ENDBLK
  5
467
100
AcDbEntity
  8
0
100
AcDbBlockEnd
  0
BLOCK
  5
468
100
AcDbEntity
  8
Detail
100
AcDbBlockBegin
  2
B-55
 70
    66
 10
0.000000
 20
0.000000
 30
0.000000
  0
LWPOLYLINE
  5
469
100
AcDbEntity
  8
Detail
  6
CONTINUOUS
 62
     4
100
AcDbPolyline
 90
    11
 10
-127.499993
 20
183.522828
 42
0.000000
 10
-130.499993
 20
183.522828
 42
0.000000
 10
-130.499996
 20
165.733052
 42
0.000000
 10
59.500003
 20
146.733052
 42
0.000000
 10
59.500003
 20
126.690656
 42
0.000000
 10
54.550255
 20
131.640403
 42
0.000000
 10
52.428935
 20
129.519083
 42
0.000000
 10
62.500003
 20
119.448015
 42
0.000000
 10
62.500003
 20
149.448015
 42
0.000000
 10
-127.499994
 20
168.448015
 42
0.000000
 10
-127.499993
 20
183.522828
 42
0.000000
  0
ENDBLK
  5
475
100
AcDbEntity
  8
0
100
AcDbBlockEnd
  0
BLOCK
  5
476
100
AcDbEntity
  8
SCHRAFF
100
AcDbBlockBegin
  2
glasleiste
 70
    66
 10
0.000000
 20
0.000000
 30
0.000000
  0
HATCH
  5
477
100
AcDbEntity
  8
SCHRAFF
  6
CONTINUOUS
 62
     9
100
AcDbHatch
 10
0.000000
 20
0.000000
 30
0.000000
210
0.000000
220
0.000000
230
1.000000
  2
_U
 70
     0
 71
     1
 91
     1
 92
    18
 72
     1
 73
     0
 93
    15
 10
-190.292221
 20
265.250078
 42
0.000000
 10
-208.009857
 20
260.502652
 42
0.339455
 10
-209.492219
 20
258.570800
 42
0.000000
 10
-209.492219
 20
249.250078
 42
0.414214
 10
-207.492219
 20
247.250078
 42
0.000000
 10
-206.492219
 20
247.250079
 42
0.000000
 10
-185.292221
 20
247.250078
 42
0.000000
 10
-185.292221
 20
257.250078
 42
0.000000
 10
-185.492221
 20
257.250078
 42
0.000000
 10
-189.492221
 20
257.250078
 42
0.000000
 10
-190.992221
 20
259.250078
 42
0.000000
 10
-190.992221
 20
261.250078
 42
0.000000
 10
-189.492221
 20
261.250078
 42
0.000000
 10
-189.492221
 20
264.270283
 42
0.356393
 10
-190.292221
 20
265.250078
 42
0.000000
 97
     0
 75
     0
 76
     0
 52
0.000000
 41
1.000000
 77
     0
 78
     1
 53
45.000001
 43
-0.000000
 44
0.000000
 45
-2.209709
 46
2.209709
 79
     0
 98
     0
  0
LWPOLYLINE
  5
478
100
AcDbEntity
  8
Detail
  6
CONTINUOUS
 62
     3
100
AcDbPolyline
 90
     2
 10
-208.009858
 20
260.502652
 42
0.000000
 10
-190.292221
 20
265.250078
 42
0.000000
  0
LWPOLYLINE
  5
47B
100
AcDbEntity
  8
Detail
  6
CONTINUOUS
 62
     4
100
AcDbPolyline
 90
     2
 10
-184.492221
 20
267.250078
 42
0.000000
 10
-190.292221
 20
265.250078
 42
0.000000
  0
LWPOLYLINE
  5
47E
100
AcDbEntity
  8
Detail
  6
CONTINUOUS
 62
     4
100
AcDbPolyline
 90
     2
 10
-184.492221
 20
258.250078
 42
0.000000
 10
-184.492221
 20
267.250078
 42
0.000000
  0
LWPOLYLINE
  5
481
100
AcDbEntity
  8
Detail
  6
CONTINUOUS
 62
     3
100
AcDbPolyline
 90
     2
 10
-185.292221
 20
257.250078
 42
0.000000
 10
-185.292221
 20
247.250078
 42
0.000000
  0
LWPOLYLINE
  5
484
100
AcDbEntity
  8
Detail
  6
CONTINUOUS
 62
     4
100
AcDbPolyline
 90
     2
 10
-185.492221
 20
257.250078
 42
0.414214
 10
-184.492221
 20
258.250078
 42
0.000000
  0
LWPOLYLINE
  5
487
100
AcDbEntity
  8
Detail
  6
CONTINUOUS
 62
     3
100
AcDbPolyline
 90
     2
 10
-189.492221
 20
257.250078
 42
0.000000
 10
-185.292221
 20
257.250078
 42
0.000000
  0
LWPOLYLINE
  5
48A
100
AcDbEntity
  8
Detail
  6
CONTINUOUS
 62
     3
100
AcDbPolyline
 90
     2
 10
-190.992221
 20
259.250078
 42
0.000000
 10
-189.492221
 20
257.250078
 42
0.000000
  0
LWPOLYLINE
  5
48D
100
AcDbEntity
  8
Detail
  6
CONTINUOUS
 62
     3
100
AcDbPolyline
 90
     2
 10
-190.992221
 20
261.250078
 42
0.000000
 10
-190.992221
 20
259.250078
 42
0.000000
  0
LWPOLYLINE
  5
490
100
AcDbEntity
  8
Detail
  6
CONTINUOUS
 62
     3
100
AcDbPolyline
 90
     3
 10
-189.492221
 20
264.270282
 42
0.000000
 10
-189.492221
 20
261.250078
 42
0.000000
 10
-190.992221
 20
261.250078
 42
0.000000
  0
LWPOLYLINE
  5
494
100
AcDbEntity
  8
Detail
  6
CONTINUOUS
 62
     3
100
AcDbPolyline
 90
     2
 10
-190.292221
 20
265.250078
 42
-0.356394
 10
-189.492221
 20
264.270283
 42
0.000000
  0
LWPOLYLINE
  5
497
100
AcDbEntity
  8
Detail
  6
CONTINUOUS
 62
     3
100
AcDbPolyline
 90
     3
 10
-209.492220
 20
249.250078
 42
0.000000
 10
-209.492220
 20
258.570800
 42
-0.339454
 10
-208.009858
 20
260.502650
 42
0.000000
  0
LWPOLYLINE
  5
49B
100
AcDbEntity
  8
Detail
  6
CONTINUOUS
 62
     3
100
AcDbPolyline
 90
     2
 10
-207.492220
 20
247.250078
 42
-0.414214
 10
-209.492220
 20
249.250078
 42
0.000000
  0
LWPOLYLINE
  5
49E
100
AcDbEntity
  8
Detail
  6
CONTINUOUS
 62
     3
100
AcDbPolyline
 90
     2
 10
-185.292221
 20
247.250078
 42
0.000000
 10
-207.492220
 20
247.250078
 42
0.000000
  0
ENDBLK
  5
4A1
100
AcDbEntity
  8
0
100
AcDbBlockEnd
  0
BLOCK
  5
4A2
100
AcDbEntity
  8
SCHRAFF
100
AcDbBlockBegin
  2
rahmen
 70
    66
 10
0.000000
 20
0.000000
 30
0.000000
  0
HATCH
  5
4A3
100
AcDbEntity
  8
SCHRAFF
  6
CONTINUOUS
 62
     9
100
AcDbHatch
 10
0.000000
 20
0.000000
 30
0.000000
210
0.000000
220
0.000000
230
1.000000
  2
_U
 70
     0
 71
     1
 91
     1
 92
    18
 72
     1
 73
     0
 93
    32
 10
-132.499998
 20
183.250079
 42
0.000000
 10
-132.499998
 20
131.750079
 42
0.000000
 10
-133.999998
 20
130.250079
 42
0.000000
 10
-188.999997
 20
130.250079
 42
0.000000
 10
-190.499997
 20
131.750079
 42
0.000000
 10
-190.499997
 20
198.750077
 42
-0.414213
 10
-188.999997
 20
200.250079
 42
0.000000
 10
-184.499997
 20
200.250079
 42
-0.414214
 10
-183.499997
 20
199.250079
 42
0.000000
 10
-183.499997
 20
196.250079
 42
0.000000
 10
-175.499997
 20
196.250079
 42
0.000000
 10
-175.499997
 20
199.250079
 42
-0.414212
 10
-174.499997
 20
200.250079
 42
0.000000
 10
-171.499997
 20
200.250079
 42
0.414214
 10
-169.499997
 20
202.250079
 42
0.000000
 10
-169.499997
 20
206.750079
 42
-0.414213
 10
-167.999997
 20
208.250079
 42
0.000000
 10
-164.199997
 20
208.250079
 42
0.000000
 10
-163.699997
 20
207.750079
 42
0.000000
 10
-163.699997
 20
198.621859
 42
0.113237
 10
-163.499997
 20
197.750079
 42
0.000000
 10
-163.499997
 20
186.250079
 42
0.000000
 10
-159.499997
 20
186.250079
 42
0.000000
 10
-159.499997
 20
197.250079
 42
0.000000
 10
-158.999997
 20
197.750079
 42
0.000000
 10
-151.499997
 20
197.750079
 42
0.000000
 10
-150.999997
 20
197.250079
 42
0.000000
 10
-150.999997
 20
188.750079
 42
0.000000
 10
-144.299998
 20
188.750079
 42
0.000000
 10
-136.794223
 20
185.250079
 42
0.000000
 10
-134.499998
 20
185.250079
 42
-0.414214
 10
-132.499998
 20
183.250079
 42
0.000000
 97
     0
 75
     0
 76
     0
 52
0.000000
 41
1.000000
 77
     0
 78
     1
 53
44.999994
 43
-0.000000
 44
0.000000
 45
-2.209703
 46
2.209704
 79
     0
 98
     0
  0
LWPOLYLINE
  5
4A4
100
AcDbEntity
  8
Detail
  6
CONTINUOUS
 62
     3
100
AcDbPolyline
 90
    32
 10
-132.499997
 20
131.750078
 42
0.000000
 10
-133.999997
 20
130.250078
 42
0.000000
 10
-188.999997
 20
130.250078
 42
0.000000
 10
-190.499997
 20
131.750078
 42
0.000000
 10
-190.499997
 20
198.750076
 42
-0.414214
 10
-188.999997
 20
200.250076
 42
0.000000
 10
-184.499997
 20
200.250078
 42
-0.414213
 10
-183.499995
 20
199.250078
 42
0.000000
 10
-183.499997
 20
196.250078
 42
0.000000
 10
-175.499997
 20
196.250078
 42
0.000000
 10
-175.499997
 20
199.250078
 42
-0.414213
 10
-174.499997
 20
200.250076
 42
0.000000
 10
-171.499997
 20
200.250078
 42
0.414214
 10
-169.500000
 20
202.250078
 42
0.000000
 10
-169.499997
 20
206.750078
 42
-0.414213
 10
-167.999997
 20
208.250076
 42
0.000000
 10
-164.199997
 20
208.250078
 42
0.000000
 10
-163.699997
 20
207.750078
 42
0.000000
 10
-163.699997
 20
198.621858
 42
0.113237
 10
-163.499998
 20
197.750078
 42
0.000000
 10
-163.499997
 20
186.250078
 42
0.000000
 10
-159.499997
 20
186.250078
 42
0.000000
 10
-159.499997
 20
197.250078
 42
0.000000
 10
-158.999997
 20
197.750078
 42
0.000000
 10
-151.499997
 20
197.750078
 42
0.000000
 10
-150.999997
 20
197.250078
 42
0.000000
 10
-150.999997
 20
188.750078
 42
0.000000
 10
-144.299997
 20
188.750078
 42
0.000000
 10
-136.794222
 20
185.250078
 42
0.000000
 10
-134.499997
 20
185.250078
 42
-0.414214
 10
-132.499995
 20
183.250076
 42
0.000000
 10
-132.499997
 20
131.750078
 42
0.000000
  0
ENDBLK
  5
4C5
100
AcDbEntity
  8
0
100
AcDbBlockEnd
  0
BLOCK
  5
4C6
100
AcDbEntity
  8
SCHRAFF
100
AcDbBlockBegin
  2
fluegel
 70
    66
 10
0.000000
 20
0.000000
 30
0.000000
  0
HATCH
  5
4C7
100
AcDbEntity
  8
SCHRAFF
  6
CONTINUOUS
 62
     9
100
AcDbHatch
 10
0.000000
 20
0.000000
 30
0.000000
210
0.000000
220
0.000000
230
1.000000
  2
_U
 70
     0
 71
     1
 91
     1
 92
    18
 72
     1
 73
     0
 93
    56
 10
-142.500032
 20
257.968448
 42
0.000000
 10
-142.499997
 20
238.722553
 42
-0.339454
 10
-143.982357
 20
236.790698
 42
0.000000
 10
-144.517636
 20
236.647273
 42
0.339454
 10
-145.999996
 20
234.715423
 42
0.000000
 10
-145.999996
 20
225.750078
 42
-0.414214
 10
-147.499996
 20
224.250078
 42
0.000000
 10
-149.349006
 20
224.250078
 42
-0.339454
 10
-150.797896
 20
225.361848
 42
0.000000
 10
-151.541846
 20
228.138303
 42
0.339453
 10
-152.990731
 20
229.250078
 42
0.000000
 10
-155.509261
 20
229.250078
 42
0.339455
 10
-156.958146
 20
228.138303
 42
0.000000
 10
-157.702096
 20
225.361848
 42
-0.339455
 10
-159.150986
 20
224.250078
 42
0.000000
 10
-161.499996
 20
224.250078
 42
0.414214
 10
-163.499996
 20
222.250078
 42
0.000000
 10
-163.499996
 20
213.750078
 42
-0.414214
 10
-164.999996
 20
212.250078
 42
0.000000
 10
-188.499996
 20
212.250078
 42
0.414214
 10
-190.499996
 20
210.250078
 42
0.000000
 10
-190.499996
 20
193.750078
 42
-0.414214
 10
-191.999996
 20
192.250078
 42
0.000000
 10
-208.000031
 20
192.250078
 42
-0.414214
 10
-210.500031
 20
194.750078
 42
0.000000
 10
-210.500031
 20
244.750078
 42
-0.414213
 10
-208.000031
 20
247.250078
 42
0.000000
 10
-206.500031
 20
247.250078
 42
-0.414212
 10
-205.500031
 20
246.250078
 42
0.000000
 10
-205.500031
 20
243.250078
 42
0.000000
 10
-200.000031
 20
243.250078
 42
0.000000
 10
-200.000031
 20
246.250078
 42
-0.414212
 10
-199.000031
 20
247.250078
 42
0.000000
 10
-175.767361
 20
247.250078
 42
-0.339456
 10
-174.801436
 20
246.508893
 42
0.000000
 10
-173.789536
 20
242.732438
 42
0.339454
 10
-171.857686
 20
241.250078
 42
0.000000
 10
-168.642381
 20
241.250078
 42
0.339454
 10
-166.710531
 20
242.732438
 42
0.000000
 10
-165.698631
 20
246.508893
 42
-0.339454
 10
-164.732706
 20
247.250078
 42
0.000000
 10
-162.748366
 20
247.250078
 42
0.576922
 10
-160.500031
 20
248.550078
 42
0.000000
 10
-160.500031
 20
256.750078
 42
0.000000
 10
-160.000031
 20
257.250078
 42
0.000000
 10
-156.632416
 20
257.250078
 42
0.263447
 10
-154.917426
 20
258.221083
 42
0.000000
 10
-154.000031
 20
259.750078
 42
0.000000
 10
-154.000031
 20
260.750078
 42
0.414211
 10
-154.500031
 20
261.250078
 42
0.000000
 10
-155.000031
 20
261.250078
 42
-0.414216
 10
-155.500031
 20
261.750078
 42
0.000000
 10
-155.500031
 20
264.270278
 42
-0.356394
 10
-154.700031
 20
265.250078
 42
0.000000
 10
-143.943487
 20
260.234218
 42
-0.291473
 10
-142.500032
 20
257.968448
 42
0.000000
 97
     0
 75
     0
 76
     0
 52
0.000000
 41
1.000000
 77
     0
 78
     1
 53
45.000000
 43
-0.000000
 44
0.000000
 45
-2.209705
 46
2.209705
 79
     0
 98
     0
  0
POLYLINE
  5
4C8
100
AcDbEntity
  8
Detail
 66
     1
  6
CONTINUOUS
 62
     3
100
AcDb2dPolyline
  0
VERTEX
  5
4C9
100
AcDbEntity
  8
Detail
100
AcDbVertex
100
AcDb2dVertex
 10
-142.500032
 20
257.968448
 42
0.291473
  0
VERTEX
  5
4CA
100
AcDbEntity
  8
Detail
100
AcDbVertex
100
AcDb2dVertex
 10
-143.943487
 20
260.234218
 42
0.000000
  0
VERTEX
  5
4CB
100
AcDbEntity
  8
Detail
100
AcDbVertex
100
AcDb2dVertex
 10
-154.700032
 20
265.250078
 42
0.356395
  0
VERTEX
  5
4CC
100
AcDbEntity
  8
Detail
100
AcDbVertex
100
AcDb2dVertex
 10
-155.500036
 20
264.270278
 42
0.000000
  0
VERTEX
  5
4CD
100
AcDbEntity
  8
Detail
100
AcDbVertex
100
AcDb2dVertex
 10
-155.500032
 20
261.750078
 42
0.414216
  0
VERTEX
  5
4CE
100
AcDbEntity
  8
Detail
100
AcDbVertex
100
AcDb2dVertex
 10
-155.000032
 20
261.250078
 42
0.000000
  0
VERTEX
  5
4CF
100
AcDbEntity
  8
Detail
100
AcDbVertex
100
AcDb2dVertex
 10
-154.500032
 20
261.250078
 42
-0.414211
  0
VERTEX
  5
4D0
100
AcDbEntity
  8
Detail
100
AcDbVertex
100
AcDb2dVertex
 10
-154.000032
 20
260.750078
 42
0.000000
  0
VERTEX
  5
4D1
100
AcDbEntity
  8
Detail
100
AcDbVertex
100
AcDb2dVertex
 10
-154.000032
 20
259.750078
 42
0.000000
  0
VERTEX
  5
4D2
100
AcDbEntity
  8
Detail
100
AcDbVertex
100
AcDb2dVertex
 10
-154.917427
 20
258.221083
 42
-0.263447
  0
VERTEX
  5
4D3
100
AcDbEntity
  8
Detail
100
AcDbVertex
100
AcDb2dVertex
 10
-156.632417
 20
257.250073
 42
0.000000
  0
VERTEX
  5
4D4
100
AcDbEntity
  8
Detail
100
AcDbVertex
100
AcDb2dVertex
 10
-160.000032
 20
257.250078
 42
0.000000
  0
VERTEX
  5
4D5
100
AcDbEntity
  8
Detail
100
AcDbVertex
100
AcDb2dVertex
 10
-160.500032
 20
256.750078
 42
0.000000
  0
VERTEX
  5
4D6
100
AcDbEntity
  8
Detail
100
AcDbVertex
100
AcDb2dVertex
 10
-160.500032
 20
248.550078
 42
-0.576923
  0
VERTEX
  5
4D7
100
AcDbEntity
  8
Detail
100
AcDbVertex
100
AcDb2dVertex
 10
-162.748369
 20
247.250075
 42
0.000000
  0
VERTEX
  5
4D8
100
AcDbEntity
  8
Detail
100
AcDbVertex
100
AcDb2dVertex
 10
-164.732707
 20
247.250078
 42
0.339455
  0
VERTEX
  5
4D9
100
AcDbEntity
  8
Detail
100
AcDbVertex
100
AcDb2dVertex
 10
-165.698636
 20
246.508894
 42
0.000000
  0
VERTEX
  5
4DA
100
AcDbEntity
  8
Detail
100
AcDbVertex
100
AcDb2dVertex
 10
-166.710532
 20
242.732438
 42
-0.339454
  0
VERTEX
  5
4DB
100
AcDbEntity
  8
Detail
100
AcDbVertex
100
AcDb2dVertex
 10
-168.642382
 20
241.250076
 42
0.000000
  0
VERTEX
  5
4DC
100
AcDbEntity
  8
Detail
100
AcDbVertex
100
AcDb2dVertex
 10
-171.857687
 20
241.250078
 42
-0.339454
  0
VERTEX
  5
4DD
100
AcDbEntity
  8
Detail
100
AcDbVertex
100
AcDb2dVertex
 10
-173.789535
 20
242.732439
 42
0.000000
  0
VERTEX
  5
4DE
100
AcDbEntity
  8
Detail
100
AcDbVertex
100
AcDb2dVertex
 10
-174.801437
 20
246.508893
 42
0.339455
  0
VERTEX
  5
4DF
100
AcDbEntity
  8
Detail
100
AcDbVertex
100
AcDb2dVertex
 10
-175.767362
 20
247.250074
 42
0.000000
  0
VERTEX
  5
4E0
100
AcDbEntity
  8
Detail
100
AcDbVertex
100
AcDb2dVertex
 10
-199.000032
 20
247.250078
 42
0.414213
  0
VERTEX
  5
4E1
100
AcDbEntity
  8
Detail
100
AcDbVertex
100
AcDb2dVertex
 10
-200.000037
 20
246.250078
 42
0.000000
  0
VERTEX
  5
4E2
100
AcDbEntity
  8
Detail
100
AcDbVertex
100
AcDb2dVertex
 10
-200.000032
 20
243.250078
 42
0.000000
  0
VERTEX
  5
4E3
100
AcDbEntity
  8
Detail
100
AcDbVertex
100
AcDb2dVertex
 10
-205.500032
 20
243.250078
 42
0.000000
  0
VERTEX
  5
4E4
100
AcDbEntity
  8
Detail
100
AcDbVertex
100
AcDb2dVertex
 10
-205.500032
 20
246.250078
 42
0.414212
  0
VERTEX
  5
4E5
100
AcDbEntity
  8
Detail
100
AcDbVertex
100
AcDb2dVertex
 10
-206.500032
 20
247.250078
 42
0.000000
  0
VERTEX
  5
4E6
100
AcDbEntity
  8
Detail
100
AcDbVertex
100
AcDb2dVertex
 10
-208.000032
 20
247.250078
 42
0.414214
  0
VERTEX
  5
4E7
100
AcDbEntity
  8
Detail
100
AcDbVertex
100
AcDb2dVertex
 10
-210.500037
 20
244.750078
 42
0.000000
  0
VERTEX
  5
4E8
100
AcDbEntity
  8
Detail
100
AcDbVertex
100
AcDb2dVertex
 10
-210.500032
 20
194.750078
 42
0.414214
  0
VERTEX
  5
4E9
100
AcDbEntity
  8
Detail
100
AcDbVertex
100
AcDb2dVertex
 10
-208.000032
 20
192.250078
 42
0.000000
  0
VERTEX
  5
4EA
100
AcDbEntity
  8
Detail
100
AcDbVertex
100
AcDb2dVertex
 10
-191.999997
 20
192.250078
 42
0.414214
  0
VERTEX
  5
4EB
100
AcDbEntity
  8
Detail
100
AcDbVertex
100
AcDb2dVertex
 10
-190.500000
 20
193.750078
 42
0.000000
  0
VERTEX
  5
4EC
100
AcDbEntity
  8
Detail
100
AcDbVertex
100
AcDb2dVertex
 10
-190.499997
 20
210.250078
 42
-0.414213
  0
VERTEX
  5
4ED
100
AcDbEntity
  8
Detail
100
AcDbVertex
100
AcDb2dVertex
 10
-188.499997
 20
212.250076
 42
0.000000
  0
VERTEX
  5
4EE
100
AcDbEntity
  8
Detail
100
AcDbVertex
100
AcDb2dVertex
 10
-164.999997
 20
212.250078
 42
0.414214
  0
VERTEX
  5
4EF
100
AcDbEntity
  8
Detail
100
AcDbVertex
100
AcDb2dVertex
 10
-163.500000
 20
213.750078
 42
0.000000
  0
VERTEX
  5
4F0
100
AcDbEntity
  8
Detail
100
AcDbVertex
100
AcDb2dVertex
 10
-163.499997
 20
222.250078
 42
-0.414213
  0
VERTEX
  5
4F1
100
AcDbEntity
  8
Detail
100
AcDbVertex
100
AcDb2dVertex
 10
-161.499997
 20
224.250076
 42
0.000000
  0
VERTEX
  5
4F2
100
AcDbEntity
  8
Detail
100
AcDbVertex
100
AcDb2dVertex
 10
-159.150987
 20
224.250078
 42
0.339454
  0
VERTEX
  5
4F3
100
AcDbEntity
  8
Detail
100
AcDbVertex
100
AcDb2dVertex
 10
-157.702101
 20
225.361849
 42
0.000000
  0
VERTEX
  5
4F4
100
AcDbEntity
  8
Detail
100
AcDbVertex
100
AcDb2dVertex
 10
-156.958147
 20
228.138303
 42
-0.339454
  0
VERTEX
  5
4F5
100
AcDbEntity
  8
Detail
100
AcDbVertex
100
AcDb2dVertex
 10
-155.509262
 20
229.250073
 42
0.000000
  0
VERTEX
  5
4F6
100
AcDbEntity
  8
Detail
100
AcDbVertex
100
AcDb2dVertex
 10
-152.990732
 20
229.250078
 42
-0.339454
  0
VERTEX
  5
4F7
100
AcDbEntity
  8
Detail
100
AcDbVertex
100
AcDb2dVertex
 10
-151.541843
 20
228.138304
 42
0.000000
  0
VERTEX
  5
4F8
100
AcDbEntity
  8
Detail
100
AcDbVertex
100
AcDb2dVertex
 10
-150.797897
 20
225.361848
 42
0.339454
  0
VERTEX
  5
4F9
100
AcDbEntity
  8
Detail
100
AcDbVertex
100
AcDb2dVertex
 10
-149.349007
 20
224.250074
 42
0.000000
  0
VERTEX
  5
4FA
100
AcDbEntity
  8
Detail
100
AcDbVertex
100
AcDb2dVertex
 10
-147.499997
 20
224.250078
 42
0.414214
  0
VERTEX
  5
4FB
100
AcDbEntity
  8
Detail
100
AcDbVertex
100
AcDb2dVertex
 10
-146.000000
 20
225.750078
 42
0.000000
  0
VERTEX
  5
4FC
100
AcDbEntity
  8
Detail
100
AcDbVertex
100
AcDb2dVertex
 10
-145.999997
 20
234.715423
 42
-0.339454
  0
VERTEX
  5
4FD
100
AcDbEntity
  8
Detail
100
AcDbVertex
100
AcDb2dVertex
 10
-144.517637
 20
236.647273
 42
0.000000
  0
VERTEX
  5
4FE
100
AcDbEntity
  8
Detail
 62
     2
100
AcDbVertex
100
AcDb2dVertex
 10
-143.982357
 20
236.790698
 42
0.339454
  0
VERTEX
  5
4FF
100
AcDbEntity
  8
Detail
100
AcDbVertex
100
AcDb2dVertex
 10
-142.499995
 20
238.722553
 42
0.000000
  0
VERTEX
  5
500
100
AcDbEntity
  8
Detail
100
AcDbVertex
100
AcDb2dVertex
 10
-142.500032
 20
257.968448
 42
0.000000
  0
SEQEND
  5
501
100
AcDbEntity
  8
Detail
  0
LWPOLYLINE
  5
502
100
AcDbEntity
  8
Detail
  6
CONTINUOUS
 62
     4
100
AcDbPolyline
 90
     4
 10
-154.700032
 20
265.250078
 42
0.000000
 10
-160.500032
 20
267.250078
 42
0.000000
 10
-160.500032
 20
258.250078
 42
0.414215
 10
-159.500032
 20
257.250078
 42
0.000000
  0
ENDBLK
  5
507
100
AcDbEntity
  8
0
100
AcDbBlockEnd
  0
BLOCK
  5
508
100
AcDbEntity
  8
Detail
100
AcDbBlockBegin
  2
w-schenkel
 70
    66
 10
0.000000
 20
0.000000
 30
0.000000
  0
LWPOLYLINE
  5
509
100
AcDbEntity
  8
Detail
  6
CONTINUOUS
 62
     4
100
AcDbPolyline
 90
    41
 10
-129.905232
 20
185.430638
 42
0.000000
 10
-127.524097
 20
184.805848
 42
0.876982
 10
-127.237812
 20
185.507289
 42
0.000000
 10
-128.801427
 20
186.399243
 42
-0.876979
 10
-128.426777
 20
187.317180
 42
0.000000
 10
-95.296483
 20
178.624103
 42
-0.339454
 10
-94.102586
 20
177.084804
 42
0.000000
 10
-94.078663
 20
172.478274
 42
-0.668178
 10
-94.760022
 20
172.191890
 42
0.000000
 10
-95.397628
 20
172.822899
 42
0.668178
 10
-96.078986
 20
172.536514
 42
0.000000
 10
-96.071708
 20
171.134584
 42
0.267949
 10
-95.970813
 20
170.961899
 42
0.000000
 10
-93.062153
 20
169.302664
 42
0.577351
 10
-92.463960
 20
169.652189
 42
0.000000
 10
-92.502608
 20
177.093114
 42
0.339454
 10
-94.890410
 20
180.171714
 42
0.000000
 10
-145.205506
 20
193.373917
 42
-0.339455
 10
-146.697886
 20
195.298047
 42
0.000000
 10
-146.721591
 20
199.863332
 42
0.414214
 10
-146.922631
 20
200.062293
 42
0.000000
 10
-148.522606
 20
200.053977
 42
0.414220
 10
-148.721564
 20
199.852942
 42
0.000000
 10
-148.717841
 20
199.135967
 42
0.198912
 10
-148.658530
 20
198.994853
 42
0.000000
 10
-148.474741
 20
198.812957
 42
-0.414208
 10
-148.473273
 20
198.530124
 42
0.000000
 10
-148.655161
 20
198.346332
 42
0.198916
 10
-148.713005
 20
198.204607
 42
0.000000
 10
-148.706416
 20
196.935997
 42
0.198912
 10
-148.647106
 20
196.794883
 42
0.000000
 10
-148.463316
 20
196.612987
 42
-0.414210
 10
-148.461848
 20
196.330154
 42
0.000000
 10
-148.643736
 20
196.146362
 42
0.198915
 10
-148.701581
 20
196.004637
 42
0.000000
 10
-148.697856
 20
195.287657
 42
0.339454
 10
-145.713107
 20
191.439406
 42
0.000000
 10
-131.028212
 20
187.586228
 42
-0.339454
 10
-130.655120
 20
187.105198
 42
0.000000
 10
-130.651417
 20
186.392698
 42
0.339453
 10
-129.905232
 20
185.430638
 42
0.000000
  0
LWPOLYLINE
  5
533
100
AcDbEntity
  8
Detail
  6
CONTINUOUS
 62
     4
100
AcDbPolyline
 90
   126
 10
-151.473826
 20
201.705722
 42
0.000000
 10
-153.010286
 20
201.786242
 42
-0.198916
 10
-153.148452
 20
201.852142
 42
0.000000
 10
-153.321471
 20
202.044302
 42
0.414216
 10
-153.603928
 20
202.059109
 42
0.000000
 10
-153.796091
 20
201.886082
 42
-0.198906
 10
-153.940381
 20
201.834986
 42
0.000000
 10
-155.207271
 20
201.901382
 42
-0.198916
 10
-155.345436
 20
201.967282
 42
0.000000
 10
-155.518456
 20
202.159442
 42
0.414214
 10
-155.800913
 20
202.174249
 42
0.000000
 10
-155.993076
 20
202.001222
 42
-0.198907
 10
-156.137366
 20
201.950126
 42
0.000000
 10
-157.673826
 20
202.030647
 42
0.429637
 10
-158.199995
 20
201.531332
 42
0.000000
 10
-158.199996
 20
199.530917
 42
0.339453
 10
-157.829406
 20
199.047957
 42
0.000000
 10
-156.670586
 20
198.737452
 42
-0.339454
 10
-156.299996
 20
198.254487
 42
0.000000
 10
-156.299996
 20
197.950077
 42
-0.414214
 10
-156.499996
 20
197.750075
 42
0.000000
 10
-158.585851
 20
197.750077
 42
-0.201515
 10
-158.942926
 20
197.900077
 42
0.881407
 10
-159.733012
 20
197.300077
 42
0.000000
 10
-159.566981
 20
197.012512
 42
-0.131652
 10
-159.499994
 20
196.762512
 42
0.000000
 10
-159.499996
 20
195.817062
 42
-0.131652
 10
-159.633971
 20
195.317062
 42
0.000000
 10
-160.116021
 20
194.482127
 42
0.131653
 10
-160.249996
 20
193.982127
 42
0.000000
 10
-160.249996
 20
191.734197
 42
0.341998
 10
-159.874997
 20
191.250076
 42
-0.341998
 10
-159.499996
 20
190.765953
 42
0.000000
 10
-159.499996
 20
189.518023
 42
-0.131652
 10
-159.633972
 20
189.018023
 42
0.000000
 10
-160.366021
 20
187.750078
 42
-0.267949
 10
-161.232046
 20
187.250076
 42
0.000000
 10
-162.187561
 20
187.250078
 42
-0.267950
 10
-163.053586
 20
187.750078
 42
0.000000
 10
-163.659806
 20
188.800078
 42
-0.637069
 10
-163.347901
 20
189.245518
 42
0.000000
 10
-163.109081
 20
189.203408
 42
0.637070
 10
-162.589245
 20
189.945811
 42
0.000000
 10
-163.659806
 20
191.800077
 42
-0.637070
 10
-163.347901
 20
192.245518
 42
0.000000
 10
-163.109081
 20
192.203407
 42
0.637069
 10
-162.589244
 20
192.945810
 42
0.000000
 10
-163.659806
 20
194.800077
 42
-0.637070
 10
-163.347901
 20
195.245518
 42
0.000000
 10
-163.109081
 20
195.203407
 42
0.637069
 10
-162.589244
 20
195.945810
 42
0.000000
 10
-163.133011
 20
196.887637
 42
-0.131652
 10
-163.200000
 20
197.137637
 42
0.000000
 10
-163.199996
 20
198.250077
 42
-0.414213
 10
-162.699996
 20
198.750075
 42
0.000000
 10
-161.563966
 20
198.750077
 42
0.176327
 10
-160.921181
 20
198.984032
 42
0.000000
 10
-160.057206
 20
199.708987
 42
0.221694
 10
-159.699994
 20
200.475032
 42
0.000000
 10
-159.699996
 20
207.967232
 42
-0.198914
 10
-159.641418
 20
208.108654
 42
0.000000
 10
-159.558576
 20
208.191497
 42
0.198911
 10
-159.499998
 20
208.332917
 42
0.000000
 10
-159.499996
 20
211.250077
 42
-0.414213
 10
-158.499996
 20
212.250075
 42
0.000000
 10
-156.999996
 20
212.250077
 42
-0.414212
 10
-156.499996
 20
211.750077
 42
0.000000
 10
-156.499996
 20
211.435662
 42
-0.339453
 10
-156.870587
 20
210.952699
 42
0.000000
 10
-157.629406
 20
210.749372
 42
0.339454
 10
-157.999994
 20
210.266412
 42
0.000000
 10
-157.999996
 20
204.224557
 42
0.398958
 10
-157.526166
 20
203.725244
 42
0.000000
 10
-135.526167
 20
202.572272
 42
0.429635
 10
-134.999997
 20
203.071587
 42
0.000000
 10
-134.999997
 20
220.079702
 42
0.291474
 10
-135.288687
 20
220.532858
 42
0.000000
 10
-143.288686
 20
224.263317
 42
0.548620
 10
-143.999995
 20
223.810167
 42
0.000000
 10
-143.999996
 20
221.711812
 42
0.113936
 10
-143.949393
 20
221.492626
 42
0.000000
 10
-142.727101
 20
218.986552
 42
-0.999999
 10
-144.075289
 20
218.328993
 42
0.000000
 10
-145.095171
 20
220.420062
 42
-0.113936
 10
-145.499996
 20
222.173547
 42
0.000000
 10
-145.499996
 20
229.500077
 42
-0.999998
 10
-143.999996
 20
229.500077
 42
0.000000
 10
-143.999996
 20
226.568612
 42
0.291474
 10
-143.711306
 20
226.115458
 42
0.000000
 10
-134.366072
 20
221.757702
 42
-0.291474
 10
-133.499998
 20
220.398237
 42
0.000000
 10
-133.499997
 20
199.750077
 42
-0.414214
 10
-133.999997
 20
199.250076
 42
0.000000
 10
-134.499997
 20
199.250077
 42
-0.414214
 10
-134.999996
 20
199.750077
 42
0.000000
 10
-134.999997
 20
200.367882
 42
0.398958
 10
-135.473827
 20
200.867196
 42
0.000000
 10
-148.973826
 20
201.574702
 42
0.429635
 10
-149.499998
 20
201.075387
 42
0.000000
 10
-149.499996
 20
200.031327
 42
0.043659
 10
-149.492400
 20
199.944507
 42
0.000000
 10
-148.162591
 20
192.402777
 42
0.363970
 10
-146.192976
 20
190.750075
 42
0.000000
 10
-143.208366
 20
190.750078
 42
-0.096290
 10
-143.021061
 20
190.713670
 42
0.000000
 10
-133.812692
 20
186.993248
 42
-0.305731
 10
-133.499994
 20
186.529653
 42
0.000000
 10
-133.499997
 20
185.750078
 42
-0.414215
 10
-133.999997
 20
185.250076
 42
0.000000
 10
-135.505557
 20
185.250078
 42
-0.464665
 10
-135.998422
 20
185.834238
 42
0.352599
 10
-136.303987
 20
186.381994
 42
0.000000
 10
-143.312631
 20
189.213668
 42
0.096290
 10
-143.499936
 20
189.250076
 42
0.000000
 10
-146.799026
 20
189.250078
 42
-0.153915
 10
-147.946181
 20
189.611773
 42
0.000000
 10
-150.786786
 20
191.600782
 42
-0.244697
 10
-150.999999
 20
192.010357
 42
0.000000
 10
-150.999996
 20
193.250077
 42
-0.414213
 10
-150.499996
 20
193.750075
 42
0.000000
 10
-150.399996
 20
193.750077
 42
0.466304
 10
-150.006075
 20
194.219531
 42
0.000000
 10
-150.992401
 20
199.813272
 42
-0.043661
 10
-150.999998
 20
199.900097
 42
0.000000
 10
-150.999996
 20
201.206407
 42
0.398957
 10
-151.473826
 20
201.705722
 42
0.000000
  0
POLYLINE
  5
5B2
100
AcDbEntity
  8
Detail
 66
     1
  6
CONTINUOUS
 62
     4
100
AcDb2dPolyline
  0
VERTEX
  5
5B3
100
AcDbEntity
  8
Detail
100
AcDbVertex
100
AcDb2dVertex
 10
-161.400161
 20
217.804567
 42
-0.203482
  0
VERTEX
  5
5B4
100
AcDbEntity
  8
Detail
100
AcDbVertex
100
AcDb2dVertex
 10
-161.450169
 20
218.584533
 42
0.308189
  0
VERTEX
  5
5B5
100
AcDbEntity
  8
Detail
100
AcDbVertex
100
AcDb2dVertex
 10
-161.282239
 20
218.858472
 42
0.887234
  0
VERTEX
  5
5B6
100
AcDbEntity
  8
Detail
100
AcDbVertex
100
AcDb2dVertex
 10
-162.274091
 20
218.813272
 42
0.000000
  0
VERTEX
  5
5B7
100
AcDbEntity
  8
Detail
100
AcDbVertex
100
AcDb2dVertex
 10
-162.698646
 20
212.779403
 42
-0.679249
  0
VERTEX
  5
5B8
100
AcDbEntity
  8
Detail
100
AcDbVertex
100
AcDb2dVertex
 10
-163.408309
 20
212.557036
 42
-0.150742
  0
VERTEX
  5
5B9
100
AcDbEntity
  8
Detail
100
AcDbVertex
100
AcDb2dVertex
 10
-163.507183
 20
212.803233
 42
0.000000
  0
VERTEX
  5
5BA
100
AcDbEntity
  8
Detail
100
AcDbVertex
100
AcDb2dVertex
 10
-163.272776
 20
218.866012
 42
-0.210504
  0
VERTEX
  5
5BB
100
AcDbEntity
  8
Detail
100
AcDbVertex
100
AcDb2dVertex
 10
-162.719946
 20
219.941701
 42
-0.183556
  0
VERTEX
  5
5BC
100
AcDbEntity
  8
Detail
100
AcDbVertex
100
AcDb2dVertex
 10
-162.188686
 20
220.226172
 42
-0.320371
  0
VERTEX
  5
5BD
100
AcDbEntity
  8
Detail
100
AcDbVertex
100
AcDb2dVertex
 10
-160.612415
 20
219.481558
 42
0.000000
  0
VERTEX
  5
5BE
100
AcDbEntity
  8
Detail
100
AcDbVertex
100
AcDb2dVertex
 10
-157.966462
 20
215.307868
 42
0.000000
  0
VERTEX
  5
5BF
100
AcDbEntity
  8
Detail
 62
     3
100
AcDbVertex
100
AcDb2dVertex
 10
-157.757112
 20
214.921273
 42
0.000000
  0
VERTEX
  5
5C0
100
AcDbEntity
  8
Detail
100
AcDbVertex
100
AcDb2dVertex
 10
-156.721662
 20
212.779933
 42
-0.082846
  0
VERTEX
  5
5C1
100
AcDbEntity
  8
Detail
 62
     3
100
AcDbVertex
100
AcDb2dVertex
 10
-156.699997
 20
212.650078
 42
-0.718683
  0
VERTEX
  5
5C2
100
AcDbEntity
  8
Detail
100
AcDbVertex
100
AcDb2dVertex
 10
-157.418679
 20
212.408327
 42
0.000000
  0
VERTEX
  5
5C3
100
AcDbEntity
  8
Detail
 62
     3
100
AcDbVertex
100
AcDb2dVertex
 10
-157.469502
 20
212.475323
 42
0.234622
  0
VERTEX
  5
5C4
100
AcDbEntity
  8
Detail
100
AcDbVertex
100
AcDb2dVertex
 10
-158.425541
 20
212.850075
 42
0.000000
  0
VERTEX
  5
5C5
100
AcDbEntity
  8
Detail
 62
     3
100
AcDbVertex
100
AcDb2dVertex
 10
-158.509636
 20
212.850078
 42
0.500491
  0
VERTEX
  5
5C6
100
AcDbEntity
  8
Detail
100
AcDbVertex
100
AcDb2dVertex
 10
-159.699998
 20
210.403852
 42
0.000000
  0
VERTEX
  5
5C7
100
AcDbEntity
  8
Detail
100
AcDbVertex
100
AcDb2dVertex
 10
-159.699996
 20
202.000078
 42
-0.414214
  0
VERTEX
  5
5C8
100
AcDbEntity
  8
Detail
100
AcDbVertex
100
AcDb2dVertex
 10
-160.949996
 20
200.750075
 42
-0.198912
  0
VERTEX
  5
5C9
100
AcDbEntity
  8
Detail
100
AcDbVertex
100
AcDb2dVertex
 10
-161.907103
 20
201.042966
 42
0.000000
  0
VERTEX
  5
5CA
100
AcDbEntity
  8
Detail
100
AcDbVertex
100
AcDb2dVertex
 10
-163.699996
 20
202.835863
 42
0.000000
  0
VERTEX
  5
5CB
100
AcDbEntity
  8
Detail
100
AcDbVertex
100
AcDb2dVertex
 10
-163.699996
 20
203.542968
 42
0.000000
  0
VERTEX
  5
5CC
100
AcDbEntity
  8
Detail
100
AcDbVertex
100
AcDb2dVertex
 10
-162.002641
 20
202.493048
 42
0.723528
  0
VERTEX
  5
5CD
100
AcDbEntity
  8
Detail
100
AcDbVertex
100
AcDb2dVertex
 10
-161.711740
 20
202.737438
 42
0.231341
  0
VERTEX
  5
5CE
100
AcDbEntity
  8
Detail
100
AcDbVertex
100
AcDb2dVertex
 10
-163.664216
 20
206.367549
 42
-0.095441
  0
VERTEX
  5
5CF
100
AcDbEntity
  8
Detail
100
AcDbVertex
100
AcDb2dVertex
 10
-163.699996
 20
206.553293
 42
0.000000
  0
VERTEX
  5
5D0
100
AcDbEntity
  8
Detail
100
AcDbVertex
100
AcDb2dVertex
 10
-163.699996
 20
207.008458
 42
-0.305613
  0
VERTEX
  5
5D1
100
AcDbEntity
  8
Detail
100
AcDbVertex
100
AcDb2dVertex
 10
-163.512496
 20
207.286563
 42
0.724201
  0
VERTEX
  5
5D2
100
AcDbEntity
  8
Detail
100
AcDbVertex
100
AcDb2dVertex
 10
-163.699997
 20
208.250077
 42
0.000000
  0
VERTEX
  5
5D3
100
AcDbEntity
  8
Detail
100
AcDbVertex
100
AcDb2dVertex
 10
-165.299996
 20
208.250078
 42
-0.373803
  0
VERTEX
  5
5D4
100
AcDbEntity
  8
Detail
100
AcDbVertex
100
AcDb2dVertex
 10
-165.696086
 20
208.594293
 42
-0.146796
  0
VERTEX
  5
5D5
100
AcDbEntity
  8
Detail
100
AcDbVertex
100
AcDb2dVertex
 10
-165.678726
 20
208.707933
 42
-0.243289
  0
VERTEX
  5
5D6
100
AcDbEntity
  8
Detail
100
AcDbVertex
100
AcDb2dVertex
 10
-164.330741
 20
209.569232
 42
0.000000
  0
VERTEX
  5
5D7
100
AcDbEntity
  8
Detail
100
AcDbVertex
100
AcDb2dVertex
 10
-162.807711
 20
209.826048
 42
0.308709
  0
VERTEX
  5
5D8
100
AcDbEntity
  8
Detail
100
AcDbVertex
100
AcDb2dVertex
 10
-162.157649
 20
210.451248
 42
0.000000
  0
VERTEX
  5
5D9
100
AcDbEntity
  8
Detail
100
AcDbVertex
100
AcDb2dVertex
 10
-161.751861
 20
212.392798
 42
-0.305486
  0
VERTEX
  5
5DA
100
AcDbEntity
  8
Detail
100
AcDbVertex
100
AcDb2dVertex
 10
-160.550406
 20
213.562001
 42
0.446187
  0
VERTEX
  5
5DB
100
AcDbEntity
  8
Detail
100
AcDbVertex
100
AcDb2dVertex
 10
-159.925373
 20
214.575513
 42
0.000000
  0
VERTEX
  5
5DC
100
AcDbEntity
  8
Detail
100
AcDbVertex
100
AcDb2dVertex
 10
-161.400161
 20
217.804567
 42
0.000000
  0
SEQEND
  5
5DD
100
AcDbEntity
  8
Detail
  0
ENDBLK
  5
5DE
100
AcDbEntity
  8
0
100
AcDbBlockEnd
  0
BLOCK
  5
5DF
100
AcDbEntity
  8
Detail
100
AcDbBlockBegin
  2
glas
 70
    66
 10
0.000000
 20
0.000000
 30
0.000000
  0
LWPOLYLINE
  5
5E0
100
AcDbEntity
  8
Detail
  6
CONTINUOUS
 62
     4
100
AcDbPolyline
 90
     2
 10
-164.500032
 20
252.250078
 42
0.000000
 10
-164.500032
 20
292.988672
 42
0.000000
  0
LWPOLYLINE
  5
5E3
100
AcDbEntity
  8
Detail
  6
CONTINUOUS
 62
     4
100
AcDbPolyline
 90
     2
 10
-180.492220
 20
252.250080
 42
0.000000
 10
-180.492220
 20
292.988674
 42
0.000000
  0
LWPOLYLINE
  5
5E6
100
AcDbEntity
  8
Detail
  6
CONTINUOUS
 62
     4
100
AcDbPolyline
 90
     2
 10
-164.500032
 20
266.250078
 42
0.000000
 10
-164.500032
 20
252.250078
 42
0.000000
  0
LWPOLYLINE
  5
5E9
100
AcDbEntity
  8
Detail
  6
CONTINUOUS
 62
     4
100
AcDbPolyline
 90
     3
 10
-180.492220
 20
252.250080
 42
0.000000
 10
-180.492220
 20
266.250080
 42
0.000000
 10
-164.500032
 20
266.250078
 42
0.000000
  0
LWPOLYLINE
  5
5ED
100
AcDbEntity
  8
Detail
  6
CONTINUOUS
 62
     4
100
AcDbPolyline
 90
     2
 10
-184.492221
 20
292.988675
 42
0.000000
 10
-184.492221
 20
252.250081
 42
0.000000
  0
LWPOLYLINE
  5
5F0
100
AcDbEntity
  8
Detail
  6
CONTINUOUS
 62
     4
100
AcDbPolyline
 90
     2
 10
-160.500033
 20
252.250079
 42
0.000000
 10
-160.500033
 20
292.988673
 42
0.000000
  0
LWPOLYLINE
  5
5F3
100
AcDbEntity
  8
Detail
  6
CONTINUOUS
 62
     4
100
AcDbPolyline
 90
     2
 10
-184.492221
 20
252.250081
 42
0.000000
 10
-180.492220
 20
252.250080
 42
0.000000
  0
LWPOLYLINE
  5
5F6
100
AcDbEntity
  8
Detail
  6
CONTINUOUS
 62
     4
100
AcDbPolyline
 90
     2
 10
-164.500032
 20
252.250078
 42
0.000000
 10
-160.500033
 20
252.250079
 42
0.000000
  0
LWPOLYLINE
  5
5F9
100
AcDbEntity
  8
Detail
  6
CONTINUOUS
 62
     4
100
AcDbPolyline
 90
     2
 10
-164.500032
 20
252.250078
 42
0.000000
 10
-180.492220
 20
252.250080
 42
0.000000
  0
LWPOLYLINE
  5
5FC
100
AcDbEntity
  8
Detail
  6
CONTINUOUS
 62
     4
100
AcDbPolyline
 90
     2
 10
-164.500032
 20
256.250078
 42
0.000000
 10
-180.492220
 20
256.250080
 42
0.000000
  0
ENDBLK
  5
5FF
100
AcDbEntity
  8
0
100
AcDbBlockEnd
  0
BLOCK
  5
600
100
AcDbEntity
  8
Detail
100
AcDbBlockBegin
  2
B-56
 70
    66
 10
0.000000
 20
0.000000
 30
0.000000
  0
MTEXT
  5
601
100
AcDbEntity
  8
Detail
 62
     7
100
AcDbMText
 10
79.375023
 20
212.750179
 30
0.000000
 40
4.999995
 41
40.162460
 71
     1
 72
     5
  1
Abdichtprofil
  7
Arial
 50
0.000000
  0
ENDBLK
  5
602
100
AcDbEntity
  8
0
100
AcDbBlockEnd
  0
BLOCK
  5
603
100
AcDbEntity
  8
Detail
100
AcDbBlockBegin
  2
B-57
 70
    66
 10
0.000000
 20
0.000000
 30
0.000000
  0
LWPOLYLINE
  5
604
100
AcDbEntity
  8
Detail
  6
CONTINUOUS
 62
     7
100
AcDbPolyline
 90
     3
 10
77.500023
 20
210.250078
 42
0.000000
 10
-128.999993
 20
210.250078
 42
0.000000
 10
-128.999993
 20
184.321865
 42
0.000000
  0
ENDBLK
  5
608
100
AcDbEntity
  8
0
100
AcDbBlockEnd
  0
BLOCK
  5
609
100
AcDbEntity
  8
Detail
100
AcDbBlockBegin
  2
B-58
 70
    66
 10
0.000000
 20
0.000000
 30
0.000000
  0
MTEXT
  5
60A
100
AcDbEntity
  8
Detail
 62
     7
100
AcDbMText
 10
79.375023
 20
187.750179
 30
0.000000
 40
4.999995
 41
63.577436
 71
     1
 72
     5
  1
Fensterbanksystem
  7
Arial
 50
0.000000
  0
ENDBLK
  5
60B
100
AcDbEntity
  8
0
100
AcDbBlockEnd
  0
BLOCK
  5
60C
100
AcDbEntity
  8
Detail
100
AcDbBlockBegin
  2
B-59
 70
    66
 10
0.000000
 20
0.000000
 30
0.000000
  0
MTEXT
  5
60D
100
AcDbEntity
  8
Detail
 62
     7
100
AcDbMText
 10
79.375023
 20
162.750179
 30
0.000000
 40
4.999995
 41
63.577436
 71
     1
 72
     5
  1
Fugendichtband 2D
  7
Arial
 50
0.000000
  0
ENDBLK
  5
60E
100
AcDbEntity
  8
0
100
AcDbBlockEnd
  0
BLOCK
  5
60F
100
AcDbEntity
  8
Detail
100
AcDbBlockBegin
  2
B-60
 70
    66
 10
0.000000
 20
0.000000
 30
0.000000
  0
MTEXT
  5
610
100
AcDbEntity
  8
Detail
 62
     7
100
AcDbMText
 10
79.375023
 20
137.750178
 30
0.000000
 40
5.000000
 41
67.305000
 71
     1
 72
     5
  1
elastischer Dichtstoff
  7
Arial
 50
0.000000
  0
ENDBLK
  5
611
100
AcDbEntity
  8
0
100
AcDbBlockEnd
  0
BLOCK
  5
612
100
AcDbEntity
  8
SCHRAFF
100
AcDbBlockBegin
  2
B-61
 70
    66
 10
0.000000
 20
0.000000
 30
0.000000
  0
HATCH
  5
613
100
AcDbEntity
  8
SCHRAFF
 62
     7
440
     0
100
AcDbHatch
 10
0.000000
 20
0.000000
 30
0.000000
210
0.000000
220
0.000000
230
1.000000
  2
SOLID
 70
     1
 71
     1
 91
     1
 92
    18
 72
     1
 73
     0
 93
     3
 10
17.798209
 20
146.661752
 42
1.000000
 10
16.798209
 20
146.661752
 42
1.000000
 10
17.798209
 20
146.661752
 42
0.000000
 97
     0
 75
     0
 76
     1
 98
     0
  0
CIRCLE
  5
614
100
AcDbEntity
  8
Detail
  6
CONTINUOUS
 62
     7
100
AcDbCircle
 10
17.298209
 20
146.661752
 40
0.500000
  0
ENDBLK
  5
615
100
AcDbEntity
  8
0
100
AcDbBlockEnd
  0
BLOCK
  5
616
100
AcDbEntity
  8
SCHRAFF
100
AcDbBlockBegin
  2
B-62
 70
    66
 10
0.000000
 20
0.000000
 30
0.000000
  0
HATCH
  5
617
100
AcDbEntity
  8
SCHRAFF
 62
     7
440
     0
100
AcDbHatch
 10
0.000000
 20
0.000000
 30
0.000000
210
0.000000
220
0.000000
230
1.000000
  2
SOLID
 70
     1
 71
     1
 91
     1
 92
    18
 72
     1
 73
     0
 93
     3
 10
-22.999996
 20
156.040533
 42
1.000000
 10
-23.999996
 20
156.040533
 42
1.000000
 10
-22.999996
 20
156.040533
 42
0.000000
 97
     0
 75
     0
 76
     1
 98
     0
  0
CIRCLE
  5
618
100
AcDbEntity
  8
Detail
  6
CONTINUOUS
 62
     7
100
AcDbCircle
 10
-23.499996
 20
156.040533
 40
0.500000
  0
ENDBLK
  5
619
100
AcDbEntity
  8
0
100
AcDbBlockEnd
  0
BLOCK
  5
61A
100
AcDbEntity
  8
SCHRAFF
100
AcDbBlockBegin
  2
B-63
 70
    66
 10
0.000000
 20
0.000000
 30
0.000000
  0
HATCH
  5
61B
100
AcDbEntity
  8
SCHRAFF
 62
     7
440
     0
100
AcDbHatch
 10
0.000000
 20
0.000000
 30
0.000000
210
0.000000
220
0.000000
230
1.000000
  2
SOLID
 70
     1
 71
     1
 91
     1
 92
    18
 72
     1
 73
     0
 93
     3
 10
-128.499993
 20
184.321865
 42
1.000000
 10
-129.499993
 20
184.321865
 42
1.000000
 10
-128.499993
 20
184.321865
 42
0.000000
 97
     0
 75
     0
 76
     1
 98
     0
  0
CIRCLE
  5
61C
100
AcDbEntity
  8
Detail
  6
CONTINUOUS
 62
     7
100
AcDbCircle
 10
-128.999993
 20
184.321865
 40
0.500000
  0
ENDBLK
  5
61D
100
AcDbEntity
  8
0
100
AcDbBlockEnd
  0
BLOCK
  5
61E
100
AcDbEntity
  8
Detail
100
AcDbBlockBegin
  2
B-64
 70
    66
 10
0.000000
 20
0.000000
 30
0.000000
  0
LWPOLYLINE
  5
61F
100
AcDbEntity
  8
Detail
  6
CONTINUOUS
 62
     7
100
AcDbPolyline
 90
     2
 10
77.500023
 20
-64.749922
 42
0.000000
 10
17.500003
 20
-64.749922
 42
0.000000
  0
ENDBLK
  5
622
100
AcDbEntity
  8
0
100
AcDbBlockEnd
  0
BLOCK
  5
623
100
AcDbEntity
  8
Detail
100
AcDbBlockBegin
  2
B-65
 70
    66
 10
0.000000
 20
0.000000
 30
0.000000
  0
LWPOLYLINE
  5
624
100
AcDbEntity
  8
Detail
  6
CONTINUOUS
 62
     7
100
AcDbPolyline
 90
     2
 10
77.500023
 20
-114.749922
 42
0.000000
 10
-79.999997
 20
-114.749922
 42
0.000000
  0
ENDBLK
  5
627
100
AcDbEntity
  8
0
100
AcDbBlockEnd
  0
BLOCK
  5
628
100
AcDbEntity
  8
Detail
100
AcDbBlockBegin
  2
B-66
 70
    66
 10
0.000000
 20
0.000000
 30
0.000000
  0
LWPOLYLINE
  5
629
100
AcDbEntity
  8
Detail
  6
CONTINUOUS
 62
     7
100
AcDbPolyline
 90
     2
 10
77.500023
 20
-89.749922
 42
0.000000
 10
-37.499997
 20
-89.749922
 42
0.000000
  0
LWPOLYLINE
  5
62C
100
AcDbEntity
  8
Detail
  6
CONTINUOUS
 62
     7
100
AcDbPolyline
 90
     2
 10
77.500023
 20
-39.749922
 42
0.000000
 10
9.000003
 20
-39.749922
 42
0.000000
  0
LWPOLYLINE
  5
62F
100
AcDbEntity
  8
Detail
  6
CONTINUOUS
 62
     7
100
AcDbPolyline
 90
     2
 10
77.500023
 20
-14.749922
 42
0.000000
 10
5.500003
 20
-14.749922
 42
0.000000
  0
LWPOLYLINE
  5
632
100
AcDbEntity
  8
Detail
  6
CONTINUOUS
 62
     7
100
AcDbPolyline
 90
     2
 10
77.500023
 20
85.250078
 42
0.000000
 10
-75.999997
 20
85.250078
 42
0.000000
  0
LWPOLYLINE
  5
635
100
AcDbEntity
  8
Detail
  6
CONTINUOUS
 62
     7
100
AcDbPolyline
 90
     3
 10
77.500023
 20
185.250078
 42
0.000000
 10
-23.499996
 20
185.250078
 42
0.000000
 10
-23.499996
 20
156.040533
 42
0.000000
  0
LWPOLYLINE
  5
639
100
AcDbEntity
  8
Detail
  6
CONTINUOUS
 62
     7
100
AcDbPolyline
 90
     2
 10
77.500023
 20
10.250078
 42
0.000000
 10
10.500003
 20
10.250078
 42
0.000000
  0
LWPOLYLINE
  5
63C
100
AcDbEntity
  8
Detail
  6
CONTINUOUS
 62
     7
100
AcDbPolyline
 90
     2
 10
77.500023
 20
35.250078
 42
0.000000
 10
13.500003
 20
35.250078
 42
0.000000
  0
LWPOLYLINE
  5
63F
100
AcDbEntity
  8
Detail
  6
CONTINUOUS
 62
     7
100
AcDbPolyline
 90
     2
 10
77.500023
 20
60.250078
 42
0.000000
 10
18.500003
 20
60.250078
 42
0.000000
  0
LWPOLYLINE
  5
642
100
AcDbEntity
  8
Detail
  6
CONTINUOUS
 62
     7
100
AcDbPolyline
 90
     3
 10
77.500023
 20
135.250078
 42
0.000000
 10
17.298209
 20
135.250078
 42
0.000000
 10
17.298209
 20
146.661752
 42
0.000000
  0
ENDBLK
  5
646
100
AcDbEntity
  8
0
100
AcDbBlockEnd
  0
BLOCK
  5
647
100
AcDbEntity
  8
Detail
100
AcDbBlockBegin
  2
B-67
 70
    66
 10
0.000000
 20
0.000000
 30
0.000000
  0
LWPOLYLINE
  5
648
100
AcDbEntity
  8
Detail
  6
CONTINUOUS
 62
     9
100
AcDbPolyline
 90
     2
 10
60.500003
 20
119.448015
 42
0.000000
 10
24.500003
 20
119.448015
 42
0.000000
  0
ENDBLK
  5
64B
100
AcDbEntity
  8
0
100
AcDbBlockEnd
  0
BLOCK
  5
64C
100
AcDbEntity
  8
Detail
100
AcDbBlockBegin
  2
B-68
 70
    66
 10
0.000000
 20
0.000000
 30
0.000000
  0
MTEXT
  5
64D
100
AcDbEntity
  8
Detail
 62
     7
100
AcDbMText
 10
114.126819
 20
317.500078
 30
0.000000
 40
5.000000
 41
94.972500
 71
     7
 72
     5
  1
alternativ mit PE-Rundschnur
  7
Arial
 50
0.000000
  0
MTEXT
  5
64E
100
AcDbEntity
  8
Detail
 62
     7
100
AcDbMText
 10
114.126819
 20
310.000078
 30
0.000000
 40
5.000000
 41
87.202500
 71
     7
 72
     5
  1
und elastischem Dichtstoff.
  7
Arial
 50
0.000000
  0
MTEXT
  5
64F
100
AcDbEntity
  8
Detail
 62
     7
100
AcDbMText
 10
114.126819
 20
302.500078
 30
0.000000
 40
5.000000
 41
81.795000
 71
     7
 72
     5
  1
ohne Fugendichtband 2D
  7
Arial
 50
0.000000
  0
ENDBLK
  5
650
100
AcDbEntity
  8
0
100
AcDbBlockEnd
  0
BLOCK
  5
651
100
AcDbEntity
  8
Detail
100
AcDbBlockBegin
  2
B-69
 70
    66
 10
0.000000
 20
0.000000
 30
0.000000
  0
LWPOLYLINE
  5
652
100
AcDbEntity
  8
Detail
  6
HIDDEN
 62
     9
100
AcDbPolyline
 90
     5
 10
-32.748201
 20
114.448015
 42
0.000000
 10
67.500003
 20
114.448015
 42
0.000000
 10
67.500003
 20
179.072587
 42
0.000000
 10
-32.748201
 20
179.072587
 42
0.000000
 10
-32.748201
 20
114.448015
 42
0.000000
  0
LWPOLYLINE
  5
658
100
AcDbEntity
  8
Detail
  6
HIDDEN
 62
     9
100
AcDbPolyline
 90
     2
 10
-32.748201
 20
179.072587
 42
0.000000
 10
112.251819
 20
296.250078
 42
0.000000
  0
ENDBLK
  5
65B
100
AcDbEntity
  8
0
100
AcDbBlockEnd
  0
BLOCK
  5
65C
100
AcDbEntity
  8
Detail
100
AcDbBlockBegin
  2
B-70
 70
    66
 10
0.000000
 20
0.000000
 30
0.000000
  0
MTEXT
  5
65D
100
AcDbEntity
  8
Detail
 62
     7
100
AcDbMText
 10
-211.093768
 20
-225.937628
 30
0.000000
 40
3.749990
 41
353.428963
 71
     7
 72
     5
  1
Capatect Details sind allgemeine planerische Vorschläge. Sie stellen schematisch die Ausführung dar. Ihnen zugrunde liegen die entsprechenden 
  7
Arial
 50
0.000000
  0
MTEXT
  5
65E
100
AcDbEntity
  8
Detail
 62
     7
100
AcDbMText
 10
-211.093768
 20
-231.562613
 30
0.000000
 40
3.749990
 41
392.764473
 71
     7
 72
     5
  1
Produktdatenblätter sowie Systemzulassungen. Die Möglichkeit der Detailanwendung sowie deren Vollständigkeit sind im speziellen Anwendungsfall vom Planer / 
  7
Arial
 50
0.000000
  0
MTEXT
  5
65F
100
AcDbEntity
  8
Detail
 62
     7
100
AcDbMText
 10
-211.093768
 20
-237.187598
 30
0.000000
 40
3.749990
 41
107.887184
 71
     7
 72
     5
  1
Unternehmer eigenverantwortlich zu prüfen. 
  7
Arial
 50
0.000000
  0
ENDBLK
  5
660
100
AcDbEntity
  8
0
100
AcDbBlockEnd
  0
BLOCK
  5
661
100
AcDbEntity
  8
Detail
100
AcDbBlockBegin
  2
B-71
 70
    66
 10
0.000000
 20
0.000000
 30
0.000000
  0
LWPOLYLINE
  5
662
100
AcDbEntity
  8
Detail
  6
CONTINUOUS
 62
     6
100
AcDbPolyline
 90
     2
 10
237.500023
 20
-246.249941
 42
0.000000
 10
-237.500018
 20
-246.249941
 42
0.000000
  0
ENDBLK
  5
665
100
AcDbEntity
  8
0
100
AcDbBlockEnd
  0
BLOCK
  5
666
100
AcDbEntity
  8
Detail
100
AcDbBlockBegin
  2
B-72
 70
    66
 10
0.000000
 20
0.000000
 30
0.000000
  0
MTEXT
  5
667
100
AcDbEntity
  8
Detail
 62
     7
100
AcDbMText
 10
-210.625002
 20
-252.656391
 30
0.000000
 40
5.625000
 41
144.880313
 71
     1
 72
     5
  1
System:	WDVS mit Hartbekleidung 
  7
Arial
 50
0.000000
  0
ENDBLK
  5
668
100
AcDbEntity
  8
0
100
AcDbBlockEnd
  0
BLOCK
  5
669
100
AcDbEntity
  8
Detail
100
AcDbBlockBegin
  2
B-73
 70
    66
 10
0.000000
 20
0.000000
 30
0.000000
  0
MTEXT
  5
66A
100
AcDbEntity
  8
Detail
 62
     7
100
AcDbMText
 10
-210.625002
 20
-290.156391
 30
0.000000
 40
5.625000
 41
56.463750
 71
     1
 72
     5
  1
Detail:	Brüstung
  7
Arial
 50
0.000000
  0
ENDBLK
  5
66B
100
AcDbEntity
  8
0
100
AcDbBlockEnd
  0
BLOCK
  5
66C
100
AcDbEntity
  8
Detail
100
AcDbBlockBegin
  2
B-74
 70
    66
 10
0.000000
 20
0.000000
 30
0.000000
  0
MTEXT
  5
66D
100
AcDbEntity
  8
Detail
 62
     7
100
AcDbMText
 10
6.314834
 20
-252.500141
 30
0.000000
 40
5.000000
 41
114.712500
 71
     1
 72
     5
  1
Plannummer:		125-1010
  7
Arial
 50
0.000000
  0
ENDBLK
  5
66E
100
AcDbEntity
  8
0
100
AcDbBlockEnd
  0
BLOCK
  5
66F
100
AcDbEntity
  8
Detail
100
AcDbBlockBegin
  2
B-75
 70
    66
 10
0.000000
 20
0.000000
 30
0.000000
  0
MTEXT
  5
670
100
AcDbEntity
  8
Detail
 62
     7
100
AcDbMText
 10
6.314834
 20
-277.500141
 30
0.000000
 40
5.000000
 41
91.035000
 71
     1
 72
     5
  1
Massstab:		ca. 1:2,5
  7
Arial
 50
0.000000
  0
ENDBLK
  5
671
100
AcDbEntity
  8
0
100
AcDbBlockEnd
  0
BLOCK
  5
672
100
AcDbEntity
  8
Detail
100
AcDbBlockBegin
  2
B-76
 70
    66
 10
0.000000
 20
0.000000
 30
0.000000
  0
MTEXT
  5
673
100
AcDbEntity
  8
Detail
 62
     7
100
AcDbMText
 10
6.314834
 20
-302.500141
 30
0.000000
 40
5.000000
 41
99.435000
 71
     1
 72
     5
  1
Aktualisierung:	14.07.2016
  7
Arial
 50
0.000000
  0
ENDBLK
  5
674
100
AcDbEntity
  8
0
100
AcDbBlockEnd
  0
BLOCK
  5
675
100
AcDbEntity
  8
Detail
100
AcDbBlockBegin
  2
B-77
 70
    66
 10
0.000000
 20
0.000000
 30
0.000000
  0
LWPOLYLINE
  5
676
100
AcDbEntity
  8
Detail
  6
CONTINUOUS
 62
     6
100
AcDbPolyline
 90
     2
 10
-20.560166
 20
-321.249941
 42
0.000000
 10
-20.560166
 20
-246.249941
 42
0.000000
  0
LWPOLYLINE
  5
679
100
AcDbEntity
  8
Detail
  6
CONTINUOUS
 62
     6
100
AcDbPolyline
 90
     2
 10
-237.500018
 20
-321.249941
 42
0.000000
 10
120.969928
 20
-321.249941
 42
0.000000
  0
LWPOLYLINE
  5
67C
100
AcDbEntity
  8
Detail
  6
CONTINUOUS
 62
     6
100
AcDbPolyline
 90
     2
 10
-20.560166
 20
-271.249941
 42
0.000000
 10
120.969928
 20
-271.249941
 42
0.000000
  0
LWPOLYLINE
  5
67F
100
AcDbEntity
  8
Detail
  6
CONTINUOUS
 62
     6
100
AcDbPolyline
 90
     2
 10
-20.560166
 20
-296.249941
 42
0.000000
 10
120.969928
 20
-296.249941
 42
0.000000
  0
ENDBLK
  5
682
100
AcDbEntity
  8
0
100
AcDbBlockEnd
  0
BLOCK
  5
683
100
AcDbEntity
  8
Detail
100
AcDbBlockBegin
  2
B-78
 70
    66
 10
0.000000
 20
0.000000
 30
0.000000
  0
MTEXT
  5
684
100
AcDbEntity
  8
Detail
 62
     7
100
AcDbMText
 10
-210.625009
 20
-332.500113
 30
0.000000
 40
4.999978
 41
58.117221
 71
     7
 72
     5
  1
DAW Schweiz AG
  7
Arial
 50
0.000000
  0
MTEXT
  5
685
100
AcDbEntity
  8
Detail
 62
     7
100
AcDbMText
 10
-210.625009
 20
-340.000079
 30
0.000000
 40
4.999978
 41
108.149481
 71
     7
 72
     5
  1
Gewerbestrasse 6, 8606 Nänikon
  7
Arial
 50
0.000000
  0
ENDBLK
  5
686
100
AcDbEntity
  8
0
100
AcDbBlockEnd
  0
BLOCK
  5
687
100
AcDbEntity
  8
Detail
100
AcDbBlockBegin
  2
B-79
 70
    66
 10
0.000000
 20
0.000000
 30
0.000000
  0
LWPOLYLINE
  5
688
100
AcDbEntity
  8
Detail
  6
CONTINUOUS
 62
     6
100
AcDbPolyline
 90
     2
 10
-20.560166
 20
-283.749941
 42
0.000000
 10
-237.500018
 20
-283.749941
 42
0.000000
  0
ENDBLK
  5
68B
100
AcDbEntity
  8
0
100
AcDbBlockEnd
  0
BLOCK
  5
68C
100
AcDbEntity
  8
Detail
100
AcDbBlockBegin
  2
B-80
 70
    66
 10
0.000000
 20
0.000000
 30
0.000000
  0
MTEXT
  5
68D
100
AcDbEntity
  8
Detail
 62
     7
100
AcDbMText
 10
-85.625027
 20
-332.500110
 30
0.000000
 40
4.999975
 41
72.134639
 71
     7
 72
     5
  1
Telefon 043 399 42 22
  7
Arial
 50
0.000000
  0
MTEXT
  5
68E
100
AcDbEntity
  8
Detail
 62
     7
100
AcDbMText
 10
-85.625027
 20
-340.000072
 30
0.000000
 40
4.999975
 41
71.767141
 71
     7
 72
     5
  1
Telefax 043 399 42 23
  7
Arial
 50
0.000000
  0
ENDBLK
  5
68F
100
AcDbEntity
  8
0
100
AcDbBlockEnd
  0
BLOCK
  5
690
100
AcDbEntity
  8
Detail
100
AcDbBlockBegin
  2
B-81
 70
    66
 10
0.000000
 20
0.000000
 30
0.000000
  0
MTEXT
  5
691
100
AcDbEntity
  8
Detail
 62
     7
100
AcDbMText
 10
39.374974
 20
-332.500110
 30
0.000000
 40
4.999975
 41
51.922240
 71
     7
 72
     5
  1
info@daw.swiss
  7
Arial
 50
0.000000
  0
MTEXT
  5
692
100
AcDbEntity
  8
Detail
 62
     7
100
AcDbMText
 10
39.374974
 20
-340.000072
 30
0.000000
 40
4.999975
 41
54.599727
 71
     7
 72
     5
  1
www.capatect.ch
  7
Arial
 50
0.000000
  0
ENDBLK
  5
693
100
AcDbEntity
  8
0
100
AcDbBlockEnd
  0
BLOCK
  5
694
100
AcDbEntity
  8
Detail
100
AcDbBlockBegin
  2
B-82
 70
    66
 10
0.000000
 20
0.000000
 30
0.000000
  0
LWPOLYLINE
  5
695
100
AcDbEntity
  8
Detail
  6
CONTINUOUS
 62
     6
100
AcDbPolyline
 90
     2
 10
120.969928
 20
-346.249941
 42
0.000000
 10
120.969928
 20
-246.249941
 42
0.000000
  0
ENDBLK
  5
698
100
AcDbEntity
  8
0
100
AcDbBlockEnd
  0
BLOCK
  5
699
100
AcDbEntity
  8
Detail
100
AcDbBlockBegin
  2
B-83
 70
    66
 10
0.000000
 20
0.000000
 30
0.000000
  0
LWPOLYLINE
  5
69A
100
AcDbEntity
  8
Detail
  6
CONTINUOUS
 62
     6
100
AcDbPolyline
 90
     5
 10
-237.500018
 20
-346.249941
 42
0.000000
 10
237.500023
 20
-346.249941
 42
0.000000
 10
237.500023
 20
346.250078
 42
0.000000
 10
-237.500018
 20
346.250078
 42
0.000000
 10
-237.500018
 20
-346.249941
 42
0.000000
  0
ENDBLK
  5
6A0
100
AcDbEntity
  8
0
100
AcDbBlockEnd
  0
BLOCK
  5
6A1
100
AcDbEntity
  8
Detail
100
AcDbBlockBegin
  2
B-84
 70
    66
 10
0.000000
 20
0.000000
 30
0.000000
  0
LWPOLYLINE
  5
6A2
100
AcDbEntity
  8
Detail
  6
CONTINUOUS
 62
     3
100
AcDbPolyline
 90
     4
 10
-77.499997
 20
-196.249941
 42
0.000000
 10
-77.499997
 20
155.408114
 42
0.000000
 10
2.500003
 20
147.408114
 42
0.000000
 10
2.500003
 20
-196.249941
 42
0.000000
  0
ENDBLK
  5
6A7
100
AcDbEntity
  8
0
100
AcDbBlockEnd
  0
BLOCK
  5
6A8
100
AcDbEntity
  8
SCHRAFF
100
AcDbBlockBegin
  2
B-85
 70
    66
 10
0.000000
 20
0.000000
 30
0.000000
  0
HATCH
  5
6A9
100
AcDbEntity
  8
SCHRAFF
 62
   250
440
     0
100
AcDbHatch
 10
0.000000
 20
0.000000
 30
0.000000
210
0.000000
220
0.000000
230
1.000000
  2
SOLID
 70
     1
 71
     1
 91
     1
 92
    18
 72
     1
 73
     0
 93
     7
 10
-77.499997
 20
25.750078
 42
0.000000
 10
-77.499997
 20
155.408114
 42
0.000000
 10
-27.748201
 20
150.432295
 42
0.000000
 10
-27.748201
 20
155.457873
 42
0.000000
 10
-82.499997
 20
160.933052
 42
0.000000
 10
-82.499997
 20
25.750078
 42
0.000000
 10
-77.499997
 20
25.750078
 42
0.000000
 97
     0
 75
     0
 76
     1
 98
     0
  0
ENDBLK
  5
6AA
100
AcDbEntity
  8
0
100
AcDbBlockEnd
  0
BLOCK
  5
6AB
100
AcDbEntity
  8
Stahlbau
100
AcDbBlockBegin
  2
B-86
 70
    66
 10
0.000000
 20
0.000000
 30
0.000000
  0
LWPOLYLINE
  5
6AC
100
AcDbEntity
  8
Stahlbau
  6
CONTINUOUS
 62
     4
100
AcDbPolyline
 90
     7
 10
-77.499997
 20
25.750078
 42
0.000000
 10
-77.499997
 20
155.408114
 42
0.000000
 10
-27.748201
 20
150.432295
 42
0.000000
 10
-27.748201
 20
155.457873
 42
0.000000
 10
-82.499997
 20
160.933052
 42
0.000000
 10
-82.499997
 20
25.750078
 42
0.000000
 10
-77.499997
 20
25.750078
 42
0.000000
  0
ENDBLK
  5
6B4
100
AcDbEntity
  8
0
100
AcDbBlockEnd
  0
BLOCK
  5
6B5
100
AcDbEntity
  8
Detail
100
AcDbBlockBegin
  2
B-87
 70
    66
 10
0.000000
 20
0.000000
 30
0.000000
  0
LWPOLYLINE
  5
6B6
100
AcDbEntity
  8
Detail
  6
CONTINUOUS
 62
     2
100
AcDbPolyline
 90
     3
 10
-82.499997
 20
-196.249941
 42
0.000000
 10
-82.499997
 20
125.250078
 42
0.000000
 10
-212.500018
 20
125.250078
 42
0.000000
  0
ENDBLK
  5
6BA
100
AcDbEntity
  8
0
100
AcDbBlockEnd
  0
BLOCK
  5
6BB
100
AcDbEntity
  8
SCHRAFF
100
AcDbBlockBegin
  2
B-88
 70
    66
 10
0.000000
 20
0.000000
 30
0.000000
  0
HATCH
  5
6BC
100
AcDbEntity
  8
SCHRAFF
 62
     8
440
     0
100
AcDbHatch
 10
0.000000
 20
0.000000
 30
0.000000
210
0.000000
220
0.000000
230
1.000000
  2
SOLID
 70
     1
 71
     1
 91
     1
 92
    18
 72
     1
 73
     0
 93
     5
 10
2.002484
 20
147.457866
 42
0.000000
 10
2.500003
 20
152.433052
 42
0.000000
 10
-7.450369
 20
153.428089
 42
0.000000
 10
-7.947888
 20
148.452903
 42
0.000000
 10
2.002484
 20
147.457866
 42
0.000000
 97
     0
 75
     0
 76
     1
 98
     0
  0
LWPOLYLINE
  5
6BD
100
AcDbEntity
  8
Detail
  6
CONTINUOUS
 62
     4
100
AcDbPolyline
 90
     5
 10
2.500003
 20
152.433052
 42
0.000000
 10
2.002484
 20
147.457866
 42
0.000000
 10
-7.947888
 20
148.452903
 42
0.000000
 10
-7.450369
 20
153.428089
 42
0.000000
 10
2.500003
 20
152.433052
 42
0.000000
  0
ENDBLK
  5
6C3
100
AcDbEntity
  8
0
100
AcDbBlockEnd
  0
BLOCK
  5
6C4
100
AcDbEntity
  8
SCHRAFF
100
AcDbBlockBegin
  2
B-89
 70
    66
 10
0.000000
 20
0.000000
 30
0.000000
  0
HATCH
  5
6C5
100
AcDbEntity
  8
SCHRAFF
 62
     7
440
     0
100
AcDbHatch
 10
0.000000
 20
0.000000
 30
0.000000
210
0.000000
220
0.000000
230
1.000000
  2
SOLID
 70
     1
 71
     1
 91
     1
 92
    18
 72
     1
 73
     0
 93
     3
 10
-2.223943
 20
150.442978
 42
1.000000
 10
-3.223943
 20
150.442978
 42
1.000000
 10
-2.223943
 20
150.442978
 42
0.000000
 97
     0
 75
     0
 76
     1
 98
     0
  0
CIRCLE
  5
6C6
100
AcDbEntity
  8
Detail
  6
CONTINUOUS
 62
     7
100
AcDbCircle
 10
-2.723943
 20
150.442978
 40
0.500000
  0
LWPOLYLINE
  5
6C7
100
AcDbEntity
  8
Detail
  6
CONTINUOUS
 62
     7
100
AcDbPolyline
 90
     3
 10
77.500023
 20
160.250078
 42
0.000000
 10
-2.723943
 20
160.250078
 42
0.000000
 10
-2.723943
 20
150.442978
 42
0.000000
  0
ENDBLK
  5
6CB
100
AcDbEntity
  8
0
100
AcDbBlockEnd
  0
BLOCK
  5
6CC
100
AcDbEntity
  8
SCHRAFF
100
AcDbBlockBegin
  2
B-90
 70
    66
 10
0.000000
 20
0.000000
 30
0.000000
  0
HATCH
  5
6CD
100
AcDbEntity
  8
SCHRAFF
 62
     7
440
     0
100
AcDbHatch
 10
0.000000
 20
0.000000
 30
0.000000
210
0.000000
220
0.000000
230
1.000000
  2
SOLID
 70
     1
 71
     1
 91
     1
 92
    18
 72
     1
 73
     0
 93
     3
 10
-79.499997
 20
110.250078
 42
1.000000
 10
-80.499997
 20
110.250078
 42
1.000000
 10
-79.499997
 20
110.250078
 42
0.000000
 97
     0
 75
     0
 76
     1
 98
     0
  0
ENDBLK
  5
6CE
100
AcDbEntity
  8
0
100
AcDbBlockEnd
  0
BLOCK
  5
6CF
100
AcDbEntity
  8
Detail
100
AcDbBlockBegin
  2
B-91
 70
    66
 10
0.000000
 20
0.000000
 30
0.000000
  0
CIRCLE
  5
6D0
100
AcDbEntity
  8
Detail
  6
CONTINUOUS
 62
     7
100
AcDbCircle
 10
-79.999997
 20
110.250078
 40
0.500000
  0
ENDBLK
  5
6D1
100
AcDbEntity
  8
0
100
AcDbBlockEnd
  0
BLOCK
  5
6D2
100
AcDbEntity
  8
Detail
100
AcDbBlockBegin
  2
B-92
 70
    66
 10
0.000000
 20
0.000000
 30
0.000000
  0
LWPOLYLINE
  5
6D3
100
AcDbEntity
  8
Detail
  6
CONTINUOUS
 62
     7
100
AcDbPolyline
 90
     2
 10
77.500023
 20
110.250078
 42
0.000000
 10
-79.999997
 20
110.250078
 42
0.000000
  0
ENDBLK
  5
6D6
100
AcDbEntity
  8
0
100
AcDbBlockEnd
  0
BLOCK
  5
6D7
100
AcDbEntity
  8
Detail
100
AcDbBlockBegin
  2
B-93
 70
    66
 10
0.000000
 20
0.000000
 30
0.000000
  0
LWPOLYLINE
  5
6D8
100
AcDbEntity
  8
Detail
  6
CONTINUOUS
 62
     6
100
AcDbPolyline
 90
     2
 10
-209.492218
 20
261.820798
 42
0.000000
 10
-209.492218
 20
292.988671
 42
0.000000
  0
LWPOLYLINE
  5
6DB
100
AcDbEntity
  8
Detail
  6
CONTINUOUS
 62
     6
100
AcDbPolyline
 90
     2
 10
-142.500034
 20
261.718448
 42
0.000000
 10
-142.500034
 20
292.988671
 42
0.000000
  0
LWPOLYLINE
  5
6DE
100
AcDbEntity
  8
Detail
  6
CONTINUOUS
 62
     6
100
AcDbPolyline
 90
     2
 10
-132.499997
 20
228.812779
 42
0.000000
 10
-132.499997
 20
292.988671
 42
0.000000
  0
ENDBLK
  5
6E1
100
AcDbEntity
  8
0
100
AcDbBlockEnd
  0
BLOCK
  5
6E2
100
AcDbEntity
  8
Detail
100
AcDbBlockBegin
  2
B-94
 70
    66
 10
0.000000
 20
0.000000
 30
0.000000
  0
LWPOLYLINE
  5
6E3
100
AcDbEntity
  8
Detail
  6
CONTINUOUS
 62
     3
100
AcDbPolyline
 90
     5
 10
14.500003
 20
-59.749922
 42
0.000000
 10
22.500003
 20
-59.749922
 42
0.000000
 10
22.500003
 20
144.633052
 42
0.000000
 10
14.500003
 20
144.633052
 42
0.000000
 10
14.500003
 20
-59.749922
 42
0.000000
  0
LWPOLYLINE
  5
6E9
100
AcDbEntity
  8
Detail
  6
CONTINUOUS
 62
     4
100
AcDbPolyline
 90
     2
 10
22.500003
 20
-69.749922
 42
-0.400000
 10
22.500003
 20
-59.749922
 42
0.000000
  0
ENDBLK
  5
6EC
100
AcDbEntity
  8
0
100
AcDbBlockEnd
  0
BLOCK
  5
6ED
100
AcDbEntity
  8
Detail
100
AcDbBlockBegin
  2
B-95
 70
    66
 10
0.000000
 20
0.000000
 30
0.000000
  0
LWPOLYLINE
  5
6EE
100
AcDbEntity
  8
Detail
  6
CONTINUOUS
 62
     4
100
AcDbPolyline
 90
     2
 10
22.500003
 20
144.633052
 42
-0.500000
 10
22.500003
 20
150.433052
 42
0.000000
  0
ENDBLK
  5
6F1
100
AcDbEntity
  8
0
100
AcDbBlockEnd
  0
BLOCK
  5
6F2
100
AcDbEntity
  8
Detail
100
AcDbBlockBegin
  2
B-96
 70
    66
 10
0.000000
 20
0.000000
 30
0.000000
  0
LWPOLYLINE
  5
6F3
100
AcDbEntity
  8
Detail
  6
HIDDEN
 62
     9
100
AcDbPolyline
 90
     2
 10
67.500003
 20
114.448015
 42
0.000000
 10
212.500023
 20
231.625506
 42
0.000000
  0
ENDBLK
  5
6F6
100
AcDbEntity
  8
0
100
AcDbBlockEnd
  0
BLOCK
  5
6F7
100
AcDbEntity
  8
SCHRAFF
100
AcDbBlockBegin
  2
B-97
 70
    66
 10
0.000000
 20
0.000000
 30
0.000000
  0
HATCH
  5
6F8
100
AcDbEntity
  8
SCHRAFF
 62
    51
440
     0
100
AcDbHatch
 10
0.000000
 20
0.000000
 30
0.000000
210
0.000000
220
0.000000
230
1.000000
  2
SOLID
 70
     1
 71
     1
 91
     1
 92
    18
 72
     1
 73
     0
 93
     5
 10
112.251819
 20
268.109397
 42
0.000000
 10
147.500023
 20
264.584577
 42
0.000000
 10
147.500023
 20
231.625506
 42
0.000000
 10
112.251819
 20
231.625506
 42
0.000000
 10
112.251819
 20
268.109397
 42
0.000000
 97
     0
 75
     0
 76
     1
 98
     0
  0
ENDBLK
  5
6F9
100
AcDbEntity
  8
0
100
AcDbBlockEnd
  0
BLOCK
  5
6FA
100
AcDbEntity
  8
SCHRAFF
100
AcDbBlockBegin
  2
B-98
 70
    66
 10
0.000000
 20
0.000000
 30
0.000000
  0
HATCH
  5
6FB
100
AcDbEntity
  8
SCHRAFF
  6
CONTINUOUS
 62
     9
100
AcDbHatch
 10
0.000000
 20
0.000000
 30
0.000000
210
0.000000
220
0.000000
230
1.000000
  2
_U
 70
     0
 71
     1
 91
     1
 92
    18
 72
     1
 73
     0
 93
     5
 10
112.251819
 20
268.109397
 42
0.000000
 10
147.500023
 20
264.584577
 42
0.000000
 10
147.500023
 20
231.625506
 42
0.000000
 10
112.251819
 20
231.625506
 42
0.000000
 10
112.251819
 20
268.109397
 42
0.000000
 97
     0
 75
     0
 76
     0
 52
0.000000
 41
1.000000
 77
     0
 78
     1
 53
90.000000
 43
-0.000000
 44
0.000000
 45
-13.750000
 46
0.000000
 79
     0
 98
     0
  0
ENDBLK
  5
6FC
100
AcDbEntity
  8
0
100
AcDbBlockEnd
  0
BLOCK
  5
6FD
100
AcDbEntity
  8
Detail
100
AcDbBlockBegin
  2
B-99
 70
    66
 10
0.000000
 20
0.000000
 30
0.000000
  0
LWPOLYLINE
  5
6FE
100
AcDbEntity
  8
Detail
  6
CONTINUOUS
 62
     9
100
AcDbPolyline
 90
     3
 10
205.694779
 20
267.486374
 42
0.000000
 10
167.500023
 20
285.700320
 42
0.000000
 10
112.251819
 20
291.225140
 42
0.000000
  0
ENDBLK
  5
702
100
AcDbEntity
  8
0
100
AcDbBlockEnd
  0
BLOCK
  5
703
100
AcDbEntity
  8
SCHRAFF
100
AcDbBlockBegin
  2
B-100
 70
    66
 10
0.000000
 20
0.000000
 30
0.000000
  0
HATCH
  5
704
100
AcDbEntity
  8
SCHRAFF
 62
   250
440
     0
100
AcDbHatch
 10
0.000000
 20
0.000000
 30
0.000000
210
0.000000
220
0.000000
230
1.000000
  2
SOLID
 70
     1
 71
     1
 91
     1
 92
    18
 72
     1
 73
     0
 93
     9
 10
207.500023
 20
266.625506
 42
0.000000
 10
112.251819
 20
276.150327
 42
0.000000
 10
112.251819
 20
273.135364
 42
0.000000
 10
204.500023
 20
263.910544
 42
0.000000
 10
204.500023
 20
243.868147
 42
0.000000
 10
199.550276
 20
248.817894
 42
0.000000
 10
197.428955
 20
246.696574
 42
0.000000
 10
207.500023
 20
236.625506
 42
0.000000
 10
207.500023
 20
266.625506
 42
0.000000
 97
     0
 75
     0
 76
     1
 98
     0
  0
ENDBLK
  5
705
100
AcDbEntity
  8
0
100
AcDbBlockEnd
  0
BLOCK
  5
706
100
AcDbEntity
  8
SCHRAFF
100
AcDbBlockBegin
  2
B-101
 70
    66
 10
0.000000
 20
0.000000
 30
0.000000
  0
HATCH
  5
707
100
AcDbEntity
  8
SCHRAFF
 62
   253
440
     0
100
AcDbHatch
 10
0.000000
 20
0.000000
 30
0.000000
210
0.000000
220
0.000000
230
1.000000
  2
SOLID
 70
     1
 71
     1
 91
     1
 92
    18
 72
     1
 73
     0
 93
     5
 10
159.500023
 20
257.560668
 42
0.000000
 10
159.500023
 20
231.625506
 42
0.000000
 10
157.500023
 20
231.625506
 42
0.000000
 10
157.500023
 20
257.560668
 42
0.000000
 10
159.500023
 20
257.560668
 42
0.000000
 97
     0
 75
     0
 76
     1
 98
     0
  0
HATCH
  5
708
100
AcDbEntity
  8
SCHRAFF
 62
     9
440
     0
100
AcDbHatch
 10
0.000000
 20
0.000000
 30
0.000000
210
0.000000
220
0.000000
230
1.000000
  2
SOLID
 70
     1
 71
     1
 91
     1
 92
    18
 72
     1
 73
     0
 93
     5
 10
153.500023
 20
231.625506
 42
0.000000
 10
153.500023
 20
257.560668
 42
0.000000
 10
157.500023
 20
257.560668
 42
0.000000
 10
157.500023
 20
231.625506
 42
0.000000
 10
153.500023
 20
231.625506
 42
0.000000
 97
     0
 75
     0
 76
     1
 98
     0
  0
ENDBLK
  5
709
100
AcDbEntity
  8
0
100
AcDbBlockEnd
  0
BLOCK
  5
70A
100
AcDbEntity
  8
SCHRAFF
100
AcDbBlockBegin
  2
B-102
 70
    66
 10
0.000000
 20
0.000000
 30
0.000000
  0
HATCH
  5
70B
100
AcDbEntity
  8
SCHRAFF
 62
     9
440
     0
100
AcDbHatch
 10
0.000000
 20
0.000000
 30
0.000000
210
0.000000
220
0.000000
230
1.000000
  2
SOLID
 70
     1
 71
     1
 91
     1
 92
    18
 72
     1
 73
     0
 93
     5
 10
147.500023
 20
257.560668
 42
0.000000
 10
153.500023
 20
257.560668
 42
0.000000
 10
153.500023
 20
231.625506
 42
0.000000
 10
147.500023
 20
231.625506
 42
0.000000
 10
147.500023
 20
257.560668
 42
0.000000
 97
     0
 75
     0
 76
     1
 98
     0
  0
ENDBLK
  5
70C
100
AcDbEntity
  8
0
100
AcDbBlockEnd
  0
BLOCK
  5
70D
100
AcDbEntity
  8
Detail
100
AcDbBlockBegin
  2
B-103
 70
    66
 10
0.000000
 20
0.000000
 30
0.000000
  0
LWPOLYLINE
  5
70E
100
AcDbEntity
  8
Detail
  6
CONTINUOUS
 62
     6
100
AcDbPolyline
 90
     4
 10
153.500023
 20
231.625506
 42
0.000000
 10
153.500023
 20
257.560668
 42
0.000000
 10
157.500023
 20
257.560668
 42
0.000000
 10
157.500023
 20
231.625506
 42
0.000000
  0
ENDBLK
  5
713
100
AcDbEntity
  8
0
100
AcDbBlockEnd
  0
BLOCK
  5
714
100
AcDbEntity
  8
Detail
100
AcDbBlockBegin
  2
B-104
 70
    66
 10
0.000000
 20
0.000000
 30
0.000000
  0
LWPOLYLINE
  5
715
100
AcDbEntity
  8
Detail
  6
CONTINUOUS
 62
     6
100
AcDbPolyline
 90
     4
 10
157.500023
 20
231.625506
 42
0.000000
 10
157.500023
 20
257.560668
 42
0.000000
 10
159.500023
 20
257.560668
 42
0.000000
 10
159.500023
 20
231.625506
 42
0.000000
  0
ENDBLK
  5
71A
100
AcDbEntity
  8
0
100
AcDbBlockEnd
  0
BLOCK
  5
71B
100
AcDbEntity
  8
Detail
100
AcDbBlockBegin
  2
B-105
 70
    66
 10
0.000000
 20
0.000000
 30
0.000000
  0
LWPOLYLINE
  5
71C
100
AcDbEntity
  8
Detail
  6
CONTINUOUS
 62
     6
100
AcDbPolyline
 90
     4
 10
147.500023
 20
231.625506
 42
0.000000
 10
147.500023
 20
257.560668
 42
0.000000
 10
157.500023
 20
257.560668
 42
0.000000
 10
157.500023
 20
231.625506
 42
0.000000
  0
ENDBLK
  5
721
100
AcDbEntity
  8
0
100
AcDbBlockEnd
  0
BLOCK
  5
722
100
AcDbEntity
  8
Detail
100
AcDbBlockBegin
  2
B-106
 70
    66
 10
0.000000
 20
0.000000
 30
0.000000
  0
LWPOLYLINE
  5
723
100
AcDbEntity
  8
Detail
  6
CONTINUOUS
 62
     9
100
AcDbPolyline
 90
     2
 10
205.500023
 20
236.625506
 42
0.000000
 10
169.500023
 20
236.625506
 42
0.000000
  0
ENDBLK
  5
726
100
AcDbEntity
  8
0
100
AcDbBlockEnd
  0
BLOCK
  5
727
100
AcDbEntity
  8
Detail
100
AcDbBlockBegin
  2
B-107
 70
    66
 10
0.000000
 20
0.000000
 30
0.000000
  0
LWPOLYLINE
  5
728
100
AcDbEntity
  8
Detail
  6
CONTINUOUS
 62
     4
100
AcDbPolyline
 90
     8
 10
112.251819
 20
273.135364
 42
0.000000
 10
204.500023
 20
263.910544
 42
0.000000
 10
204.500023
 20
243.868147
 42
0.000000
 10
199.550276
 20
248.817894
 42
0.000000
 10
197.428955
 20
246.696574
 42
0.000000
 10
207.500023
 20
236.625506
 42
0.000000
 10
207.500023
 20
266.625506
 42
0.000000
 10
112.251819
 20
276.150327
 42
0.000000
  0
ENDBLK
  5
731
100
AcDbEntity
  8
0
100
AcDbBlockEnd
  0
BLOCK
  5
732
100
AcDbEntity
  8
Detail
100
AcDbBlockBegin
  2
B-108
 70
    66
 10
0.000000
 20
0.000000
 30
0.000000
  0
LWPOLYLINE
  5
733
100
AcDbEntity
  8
Detail
  6
CONTINUOUS
 62
     3
100
AcDbPolyline
 90
     4
 10
167.500023
 20
231.625506
 42
0.000000
 10
167.500023
 20
257.560668
 42
0.000000
 10
159.500023
 20
257.560668
 42
0.000000
 10
159.500023
 20
231.625506
 42
0.000000
  0
ENDBLK
  5
738
100
AcDbEntity
  8
0
100
AcDbBlockEnd
  0
BLOCK
  5
739
100
AcDbEntity
  8
Detail
100
AcDbBlockBegin
  2
B-109
 70
    66
 10
0.000000
 20
0.000000
 30
0.000000
  0
LWPOLYLINE
  5
73A
100
AcDbEntity
  8
Detail
  6
CONTINUOUS
 62
     3
100
AcDbPolyline
 90
     3
 10
112.251819
 20
268.109397
 42
0.000000
 10
147.500023
 20
264.584577
 42
0.000000
 10
147.500023
 20
231.625506
 42
0.000000
  0
ENDBLK
  5
73E
100
AcDbEntity
  8
0
100
AcDbBlockEnd
  0
BLOCK
  5
73F
100
AcDbEntity
  8
Detail
100
AcDbBlockBegin
  2
B-110
 70
    66
 10
0.000000
 20
0.000000
 30
0.000000
  0
LWPOLYLINE
  5
740
100
AcDbEntity
  8
Detail
  6
HIDDEN
 62
     9
100
AcDbPolyline
 90
     2
 10
152.500023
 20
257.560668
 42
0.000000
 10
152.500023
 20
231.625506
 42
0.000000
  0
ENDBLK
  5
743
100
AcDbEntity
  8
0
100
AcDbBlockEnd
  0
BLOCK
  5
744
100
AcDbEntity
  8
Detail
100
AcDbBlockBegin
  2
B-111
 70
    66
 10
0.000000
 20
0.000000
 30
0.000000
  0
LWPOLYLINE
  5
745
100
AcDbEntity
  8
Detail
  6
HIDDEN
 62
     9
100
AcDbPolyline
 90
     5
 10
112.251819
 20
231.625506
 42
0.000000
 10
212.500023
 20
231.625506
 42
0.000000
 10
212.500023
 20
296.250078
 42
0.000000
 10
112.251819
 20
296.250078
 42
0.000000
 10
112.251819
 20
231.625506
 42
0.000000
  0
ENDBLK
  5
74B
100
AcDbEntity
  8
0
100
AcDbBlockEnd
  0
BLOCK
  5
74C
100
AcDbEntity
  8
SCHRAFF
100
AcDbBlockBegin
  2
B-112
 70
    66
 10
0.000000
 20
0.000000
 30
0.000000
  0
HATCH
  5
74D
100
AcDbEntity
  8
SCHRAFF
 62
   250
440
     0
100
AcDbHatch
 10
0.000000
 20
0.000000
 30
0.000000
210
0.000000
220
0.000000
230
1.000000
  2
SOLID
 70
     1
 71
     1
 91
     1
 92
    18
 72
     1
 73
     0
 93
     5
 10
112.251819
 20
268.109851
 42
0.000000
 10
117.251819
 20
267.609786
 42
0.000000
 10
117.251819
 20
272.635364
 42
0.000000
 10
112.251819
 20
273.135364
 42
0.000000
 10
112.251819
 20
268.109851
 42
0.000000
 97
     0
 75
     0
 76
     1
 98
     0
  0
LWPOLYLINE
  5
74E
100
AcDbEntity
  8
Stahlbau
  6
CONTINUOUS
 62
     4
100
AcDbPolyline
 90
     4
 10
112.251819
 20
268.109851
 42
0.000000
 10
117.251819
 20
267.609786
 42
0.000000
 10
117.251819
 20
272.635364
 42
0.000000
 10
112.251819
 20
273.135364
 42
0.000000
  0
ENDBLK
  5
753
100
AcDbEntity
  8
0
100
AcDbBlockEnd
  0
BLOCK
  5
754
100
AcDbEntity
  8
Detail
100
AcDbBlockBegin
  2
B-115
 70
    66
 10
0.000000
 20
0.000000
 30
0.000000
  0
LWPOLYLINE
  5
755
100
AcDbEntity
  8
Detail
  6
CONTINUOUS
 62
     9
100
AcDbPolyline
 90
   171
 10
-133.764194
 20
85.250078
 42
0.000000
 10
-131.651119
 20
85.625343
 42
0.000000
 10
-131.149544
 20
86.494096
 42
0.000000
 10
-130.760869
 20
85.994096
 42
0.000000
 10
-129.680531
 20
86.441587
 42
0.000000
 10
-129.178957
 20
87.310341
 42
0.000000
 10
-128.790282
 20
86.810341
 42
0.000000
 10
-128.211504
 20
87.050078
 42
0.000000
 10
-127.610466
 20
87.050078
 42
0.000000
 10
-127.321791
 20
87.550078
 42
0.000000
 10
-126.933116
 20
87.050078
 42
0.000000
 10
-125.800466
 20
87.050078
 42
0.000000
 10
-125.511791
 20
87.550078
 42
0.000000
 10
-125.123116
 20
87.050078
 42
0.000000
 10
-123.990466
 20
87.050078
 42
0.000000
 10
-123.701791
 20
87.550078
 42
0.000000
 10
-123.313116
 20
87.050078
 42
0.000000
 10
-122.180466
 20
87.050078
 42
0.000000
 10
-121.891791
 20
87.550078
 42
0.000000
 10
-121.503116
 20
87.050078
 42
0.000000
 10
-120.370466
 20
87.050078
 42
0.000000
 10
-120.081791
 20
87.550078
 42
0.000000
 10
-119.693116
 20
87.050078
 42
0.000000
 10
-118.560466
 20
87.050078
 42
0.000000
 10
-118.271791
 20
87.550078
 42
0.000000
 10
-117.883116
 20
87.050078
 42
0.000000
 10
-116.750466
 20
87.050078
 42
0.000000
 10
-116.461791
 20
87.550078
 42
0.000000
 10
-116.073116
 20
87.050078
 42
0.000000
 10
-114.940466
 20
87.050078
 42
0.000000
 10
-114.651791
 20
87.550078
 42
0.000000
 10
-114.263116
 20
87.050078
 42
0.000000
 10
-113.130466
 20
87.050078
 42
0.000000
 10
-112.841791
 20
87.550078
 42
0.000000
 10
-112.453116
 20
87.050078
 42
0.000000
 10
-111.320466
 20
87.050078
 42
0.000000
 10
-111.031791
 20
87.550078
 42
0.000000
 10
-110.643116
 20
87.050078
 42
0.000000
 10
-109.510466
 20
87.050078
 42
0.000000
 10
-109.221791
 20
87.550078
 42
0.000000
 10
-108.833116
 20
87.050078
 42
0.000000
 10
-107.700466
 20
87.050078
 42
0.000000
 10
-107.411791
 20
87.550078
 42
0.000000
 10
-107.023116
 20
87.050078
 42
0.000000
 10
-105.890466
 20
87.050078
 42
0.000000
 10
-105.601791
 20
87.550078
 42
0.000000
 10
-105.213116
 20
87.050078
 42
0.000000
 10
-104.080466
 20
87.050078
 42
0.000000
 10
-103.791791
 20
87.550078
 42
0.000000
 10
-103.403116
 20
87.050078
 42
0.000000
 10
-102.270466
 20
87.050078
 42
0.000000
 10
-101.981791
 20
87.550078
 42
0.000000
 10
-101.593116
 20
87.050078
 42
0.000000
 10
-100.460466
 20
87.050078
 42
0.000000
 10
-100.171791
 20
87.550078
 42
0.000000
 10
-99.783116
 20
87.050078
 42
0.000000
 10
-98.650466
 20
87.050078
 42
0.000000
 10
-98.361791
 20
87.550078
 42
0.000000
 10
-97.950601
 20
87.050078
 42
0.000000
 10
-96.840466
 20
87.050078
 42
0.000000
 10
-96.551791
 20
87.550078
 42
0.000000
 10
-96.163116
 20
87.050078
 42
0.000000
 10
-95.030466
 20
87.050078
 42
0.000000
 10
-94.741791
 20
87.550078
 42
0.000000
 10
-94.353116
 20
87.050078
 42
0.000000
 10
-93.220466
 20
87.050078
 42
0.000000
 10
-92.931791
 20
87.550078
 42
0.000000
 10
-92.543116
 20
87.050078
 42
0.000000
 10
-91.410466
 20
87.050078
 42
0.000000
 10
-91.121791
 20
87.550078
 42
0.000000
 10
-90.733116
 20
87.050078
 42
0.000000
 10
-89.600466
 20
87.050078
 42
0.000000
 10
-89.311791
 20
87.550078
 42
0.000000
 10
-88.923116
 20
87.050078
 42
0.000000
 10
-87.790466
 20
87.050078
 42
0.000000
 10
-87.501791
 20
87.550078
 42
0.000000
 10
-87.113116
 20
87.050078
 42
0.000000
 10
-85.980466
 20
87.050078
 42
0.000000
 10
-85.691791
 20
87.550078
 42
0.000000
 10
-85.303116
 20
87.050078
 42
0.000000
 10
-84.170466
 20
87.050078
 42
0.000000
 10
-83.881791
 20
87.550078
 42
0.000000
 10
-83.493116
 20
87.050078
 42
0.000000
 10
-82.792505
 20
87.050078
 42
0.000000
 10
-77.499997
 20
89.129967
 42
0.000000
 10
-77.499997
 20
81.370189
 42
0.000000
 10
-82.588116
 20
83.450078
 42
0.000000
 10
-82.976791
 20
82.950078
 42
0.000000
 10
-83.265466
 20
83.450078
 42
0.000000
 10
-84.398116
 20
83.450078
 42
0.000000
 10
-84.786791
 20
82.950078
 42
0.000000
 10
-85.075466
 20
83.450078
 42
0.000000
 10
-86.208116
 20
83.450078
 42
0.000000
 10
-86.596791
 20
82.950078
 42
0.000000
 10
-86.885466
 20
83.450078
 42
0.000000
 10
-88.018116
 20
83.450078
 42
0.000000
 10
-88.406791
 20
82.950078
 42
0.000000
 10
-88.695466
 20
83.450078
 42
0.000000
 10
-89.828116
 20
83.450078
 42
0.000000
 10
-90.216791
 20
82.950078
 42
0.000000
 10
-90.505466
 20
83.450078
 42
0.000000
 10
-91.638116
 20
83.450078
 42
0.000000
 10
-92.026791
 20
82.950078
 42
0.000000
 10
-92.315466
 20
83.450078
 42
0.000000
 10
-93.448116
 20
83.450078
 42
0.000000
 10
-93.836791
 20
82.950078
 42
0.000000
 10
-94.125466
 20
83.450078
 42
0.000000
 10
-95.258116
 20
83.450078
 42
0.000000
 10
-95.646791
 20
82.950078
 42
0.000000
 10
-95.935466
 20
83.450078
 42
0.000000
 10
-97.068116
 20
83.450078
 42
0.000000
 10
-97.456791
 20
82.950078
 42
0.000000
 10
-97.745466
 20
83.450078
 42
0.000000
 10
-98.878116
 20
83.450078
 42
0.000000
 10
-99.266791
 20
82.950078
 42
0.000000
 10
-99.555466
 20
83.450078
 42
0.000000
 10
-100.688116
 20
83.450078
 42
0.000000
 10
-101.076791
 20
82.950078
 42
0.000000
 10
-101.365466
 20
83.450078
 42
0.000000
 10
-102.498116
 20
83.450078
 42
0.000000
 10
-102.886791
 20
82.950078
 42
0.000000
 10
-103.175466
 20
83.450078
 42
0.000000
 10
-104.308116
 20
83.450078
 42
0.000000
 10
-104.696791
 20
82.950078
 42
0.000000
 10
-104.985466
 20
83.450078
 42
0.000000
 10
-106.118116
 20
83.450078
 42
0.000000
 10
-106.506791
 20
82.950078
 42
0.000000
 10
-106.795466
 20
83.450078
 42
0.000000
 10
-107.928116
 20
83.450078
 42
0.000000
 10
-108.316791
 20
82.950078
 42
0.000000
 10
-108.605466
 20
83.450078
 42
0.000000
 10
-109.738116
 20
83.450078
 42
0.000000
 10
-110.126791
 20
82.950078
 42
0.000000
 10
-110.415466
 20
83.450078
 42
0.000000
 10
-111.548116
 20
83.450078
 42
0.000000
 10
-111.936791
 20
82.950078
 42
0.000000
 10
-112.225466
 20
83.450078
 42
0.000000
 10
-113.358116
 20
83.450078
 42
0.000000
 10
-113.746791
 20
82.950078
 42
0.000000
 10
-114.035466
 20
83.450078
 42
0.000000
 10
-115.168116
 20
83.450078
 42
0.000000
 10
-115.556791
 20
82.950078
 42
0.000000
 10
-115.845466
 20
83.450078
 42
0.000000
 10
-116.978116
 20
83.450078
 42
0.000000
 10
-117.366791
 20
82.950078
 42
0.000000
 10
-117.655466
 20
83.450078
 42
0.000000
 10
-118.788116
 20
83.450078
 42
0.000000
 10
-119.176791
 20
82.950078
 42
0.000000
 10
-119.465466
 20
83.450078
 42
0.000000
 10
-120.598116
 20
83.450078
 42
0.000000
 10
-120.986791
 20
82.950078
 42
0.000000
 10
-121.275466
 20
83.450078
 42
0.000000
 10
-122.408116
 20
83.450078
 42
0.000000
 10
-122.796791
 20
82.950078
 42
0.000000
 10
-123.085466
 20
83.450078
 42
0.000000
 10
-124.218116
 20
83.450078
 42
0.000000
 10
-124.606791
 20
82.950078
 42
0.000000
 10
-124.895466
 20
83.450078
 42
0.000000
 10
-126.028116
 20
83.450078
 42
0.000000
 10
-126.416791
 20
82.950078
 42
0.000000
 10
-126.705466
 20
83.450078
 42
0.000000
 10
-127.838116
 20
83.450078
 42
0.000000
 10
-128.226791
 20
82.950078
 42
0.000000
 10
-128.611005
 20
83.615557
 42
0.000000
 10
-129.539865
 20
84.000303
 42
0.000000
 10
-129.928540
 20
83.500303
 42
0.000000
 10
-130.430115
 20
84.369057
 42
0.000000
 10
-131.213479
 20
84.693537
 42
0.000000
 10
-131.602154
 20
84.193537
 42
0.000000
 10
-132.103729
 20
85.062291
 42
0.000000
 10
-133.764194
 20
85.250078
 42
0.000000
  0
LWPOLYLINE
  5
801
100
AcDbEntity
  8
Detail
  6
CONTINUOUS
 62
     9
100
AcDbPolyline
 90
    73
 10
-77.499997
 20
78.350955
 42
0.000000
 10
-75.999997
 20
80.615381
 42
0.000000
 10
-75.999997
 20
89.884775
 42
0.000000
 10
-77.499997
 20
92.149200
 42
0.000000
 10
-77.499997
 20
89.129967
 42
0.000000
 10
-92.212194
 20
88.710078
 42
0.000000
 10
-93.578137
 20
88.463069
 42
0.000000
 10
-93.653891
 20
88.710078
 42
0.000000
 10
-96.436194
 20
88.710078
 42
0.000000
 10
-97.802137
 20
88.463069
 42
0.000000
 10
-97.877891
 20
88.710078
 42
0.000000
 10
-100.660194
 20
88.710078
 42
0.000000
 10
-102.026137
 20
88.463069
 42
0.000000
 10
-102.101807
 20
88.705278
 42
0.000000
 10
-104.884194
 20
88.710078
 42
0.000000
 10
-106.250137
 20
88.463069
 42
0.000000
 10
-106.325891
 20
88.710078
 42
0.000000
 10
-109.108194
 20
88.710078
 42
0.000000
 10
-110.474137
 20
88.463069
 42
0.000000
 10
-110.549891
 20
88.710078
 42
0.000000
 10
-113.332194
 20
88.710078
 42
0.000000
 10
-114.698137
 20
88.463069
 42
0.000000
 10
-114.773891
 20
88.710078
 42
0.000000
 10
-117.556194
 20
88.710078
 42
0.000000
 10
-118.922137
 20
88.463069
 42
0.000000
 10
-118.997891
 20
88.710078
 42
0.000000
 10
-121.780194
 20
88.710078
 42
0.000000
 10
-123.146137
 20
88.463069
 42
0.000000
 10
-123.221891
 20
88.710078
 42
0.000000
 10
-126.004194
 20
88.710078
 42
0.000000
 10
-127.208351
 20
88.427646
 42
0.000000
 10
-127.667334
 20
88.590077
 42
0.000000
 10
-128.644194
 20
88.155822
 42
0.000000
 10
-128.884194
 20
87.630078
 42
0.000000
 10
-129.652194
 20
87.630078
 42
0.000000
 10
-131.170088
 20
87.089110
 42
0.000000
 10
-132.003704
 20
85.710078
 42
0.000000
 10
-133.764194
 20
85.250078
 42
0.000000
 10
-132.003704
 20
84.790078
 42
0.000000
 10
-131.170088
 20
83.411046
 42
0.000000
 10
-129.907393
 20
82.883685
 42
0.000000
 10
-128.884194
 20
82.870078
 42
0.000000
 10
-128.644194
 20
82.344334
 42
0.000000
 10
-127.892038
 20
81.910078
 42
0.000000
 10
-127.442626
 20
81.910078
 42
0.000000
 10
-127.208351
 20
82.072510
 42
0.000000
 10
-126.004194
 20
81.790078
 42
0.000000
 10
-123.221891
 20
81.790078
 42
0.000000
 10
-123.146137
 20
82.037087
 42
0.000000
 10
-121.780194
 20
81.790078
 42
0.000000
 10
-118.997891
 20
81.790078
 42
0.000000
 10
-118.922137
 20
82.037087
 42
0.000000
 10
-117.556194
 20
81.790078
 42
0.000000
 10
-114.773891
 20
81.790078
 42
0.000000
 10
-114.698137
 20
82.037087
 42
0.000000
 10
-113.332194
 20
81.790078
 42
0.000000
 10
-110.549891
 20
81.790078
 42
0.000000
 10
-110.474137
 20
82.037087
 42
0.000000
 10
-109.108194
 20
81.790078
 42
0.000000
 10
-106.325891
 20
81.790078
 42
0.000000
 10
-106.250137
 20
82.037087
 42
0.000000
 10
-104.884194
 20
81.790078
 42
0.000000
 10
-102.101807
 20
81.794878
 42
0.000000
 10
-102.026137
 20
82.037087
 42
0.000000
 10
-100.660194
 20
81.790078
 42
0.000000
 10
-97.877891
 20
81.790078
 42
0.000000
 10
-97.802137
 20
82.037087
 42
0.000000
 10
-96.436194
 20
81.790078
 42
0.000000
 10
-93.653891
 20
81.790078
 42
0.000000
 10
-93.578137
 20
82.037087
 42
0.000000
 10
-92.212194
 20
81.790078
 42
0.000000
 10
-77.499997
 20
81.370189
 42
0.000000
 10
-77.499997
 20
78.350955
 42
0.000000
  0
ENDBLK
  5
84B
100
AcDbEntity
  8
0
100
AcDbBlockEnd
  0
BLOCK
  5
84C
100
AcDbEntity
  8
Detail
100
AcDbBlockBegin
  2
B-117
 70
    66
 10
0.000000
 20
0.000000
 30
0.000000
  0
LWPOLYLINE
  5
84D
100
AcDbEntity
  8
Detail
  6
CONTINUOUS
 62
     4
100
AcDbPolyline
 90
     2
 10
167.500023
 20
257.560668
 42
-0.398560
 10
167.500023
 20
267.610544
 42
0.000000
  0
ENDBLK
  5
850
100
AcDbEntity
  8
0
100
AcDbBlockEnd
  0
ENDSEC
  0
SECTION
  2
ENTITIES
  0
INSERT
  5
851
100
AcDbEntity
  8
0
100
AcDbBlockReference
  2
B
 10
0.000000
 20
0.000000
 30
0.000000
 41
1.000000
 42
1.000000
 43
1.000000
 50
0.000000
  0
INSERT
  5
852
100
AcDbEntity
  8
0
100
AcDbBlockReference
  2
B-2
 10
0.000000
 20
0.000000
 30
0.000000
 41
1.000000
 42
1.000000
 43
1.000000
 50
0.000000
  0
INSERT
  5
853
100
AcDbEntity
  8
0
100
AcDbBlockReference
  2
B-3
 10
0.000000
 20
0.000000
 30
0.000000
 41
1.000000
 42
1.000000
 43
1.000000
 50
0.000000
  0
INSERT
  5
854
100
AcDbEntity
  8
0
100
AcDbBlockReference
  2
B-4
 10
0.000000
 20
0.000000
 30
0.000000
 41
1.000000
 42
1.000000
 43
1.000000
 50
0.000000
  0
INSERT
  5
855
100
AcDbEntity
  8
0
100
AcDbBlockReference
  2
B-5
 10
0.000000
 20
0.000000
 30
0.000000
 41
1.000000
 42
1.000000
 43
1.000000
 50
0.000000
  0
INSERT
  5
856
100
AcDbEntity
  8
0
100
AcDbBlockReference
  2
B-6
 10
0.000000
 20
0.000000
 30
0.000000
 41
1.000000
 42
1.000000
 43
1.000000
 50
0.000000
  0
INSERT
  5
857
100
AcDbEntity
  8
0
100
AcDbBlockReference
  2
B-7
 10
0.000000
 20
0.000000
 30
0.000000
 41
1.000000
 42
1.000000
 43
1.000000
 50
0.000000
  0
INSERT
  5
858
100
AcDbEntity
  8
0
100
AcDbBlockReference
  2
B-8
 10
0.000000
 20
0.000000
 30
0.000000
 41
1.000000
 42
1.000000
 43
1.000000
 50
0.000000
  0
INSERT
  5
859
100
AcDbEntity
  8
0
100
AcDbBlockReference
  2
B-9
 10
0.000000
 20
0.000000
 30
0.000000
 41
1.000000
 42
1.000000
 43
1.000000
 50
0.000000
  0
INSERT
  5
85A
100
AcDbEntity
  8
Detail
100
AcDbBlockReference
  2
B-10
 10
0.000000
 20
0.000000
 30
0.000000
 41
1.000000
 42
1.000000
 43
1.000000
 50
0.000000
  0
INSERT
  5
85B
100
AcDbEntity
  8
0
100
AcDbBlockReference
  2
B-11
 10
0.000000
 20
0.000000
 30
0.000000
 41
1.000000
 42
1.000000
 43
1.000000
 50
0.000000
  0
INSERT
  5
85C
100
AcDbEntity
  8
Detail
100
AcDbBlockReference
  2
B-12
 10
0.000000
 20
0.000000
 30
0.000000
 41
1.000000
 42
1.000000
 43
1.000000
 50
0.000000
  0
INSERT
  5
85D
100
AcDbEntity
  8
0
100
AcDbBlockReference
  2
B-13
 10
0.000000
 20
0.000000
 30
0.000000
 41
1.000000
 42
1.000000
 43
1.000000
 50
0.000000
  0
INSERT
  5
85E
100
AcDbEntity
  8
Detail
100
AcDbBlockReference
  2
B-14
 10
0.000000
 20
0.000000
 30
0.000000
 41
1.000000
 42
1.000000
 43
1.000000
 50
0.000000
  0
INSERT
  5
85F
100
AcDbEntity
  8
0
100
AcDbBlockReference
  2
B-15
 10
0.000000
 20
0.000000
 30
0.000000
 41
1.000000
 42
1.000000
 43
1.000000
 50
0.000000
  0
INSERT
  5
860
100
AcDbEntity
  8
0
100
AcDbBlockReference
  2
B-16
 10
0.000000
 20
0.000000
 30
0.000000
 41
1.000000
 42
1.000000
 43
1.000000
 50
0.000000
  0
INSERT
  5
861
100
AcDbEntity
  8
0
100
AcDbBlockReference
  2
B-17
 10
0.000000
 20
0.000000
 30
0.000000
 41
1.000000
 42
1.000000
 43
1.000000
 50
0.000000
  0
INSERT
  5
862
100
AcDbEntity
  8
0
100
AcDbBlockReference
  2
B-18
 10
0.000000
 20
0.000000
 30
0.000000
 41
1.000000
 42
1.000000
 43
1.000000
 50
0.000000
  0
INSERT
  5
863
100
AcDbEntity
  8
0
100
AcDbBlockReference
  2
B-19
 10
0.000000
 20
0.000000
 30
0.000000
 41
1.000000
 42
1.000000
 43
1.000000
 50
0.000000
  0
INSERT
  5
864
100
AcDbEntity
  8
Detail
100
AcDbBlockReference
  2
B-20
 10
0.000000
 20
0.000000
 30
0.000000
 41
1.000000
 42
1.000000
 43
1.000000
 50
0.000000
  0
INSERT
  5
865
100
AcDbEntity
  8
Detail
100
AcDbBlockReference
  2
B-21
 10
0.000000
 20
0.000000
 30
0.000000
 41
1.000000
 42
1.000000
 43
1.000000
 50
0.000000
  0
INSERT
  5
866
100
AcDbEntity
  8
Detail
100
AcDbBlockReference
  2
B-22
 10
0.000000
 20
0.000000
 30
0.000000
 41
1.000000
 42
1.000000
 43
1.000000
 50
0.000000
  0
INSERT
  5
867
100
AcDbEntity
  8
Detail
100
AcDbBlockReference
  2
B-23
 10
0.000000
 20
0.000000
 30
0.000000
 41
1.000000
 42
1.000000
 43
1.000000
 50
0.000000
  0
INSERT
  5
868
100
AcDbEntity
  8
0
100
AcDbBlockReference
  2
B-24
 10
0.000000
 20
0.000000
 30
0.000000
 41
1.000000
 42
1.000000
 43
1.000000
 50
0.000000
  0
INSERT
  5
869
100
AcDbEntity
  8
Detail
100
AcDbBlockReference
  2
B-25
 10
0.000000
 20
0.000000
 30
0.000000
 41
1.000000
 42
1.000000
 43
1.000000
 50
0.000000
  0
INSERT
  5
86A
100
AcDbEntity
  8
Detail
100
AcDbBlockReference
  2
B-26
 10
0.000000
 20
0.000000
 30
0.000000
 41
1.000000
 42
1.000000
 43
1.000000
 50
0.000000
  0
INSERT
  5
86B
100
AcDbEntity
  8
0
100
AcDbBlockReference
  2
B-27
 10
0.000000
 20
0.000000
 30
0.000000
 41
1.000000
 42
1.000000
 43
1.000000
 50
0.000000
  0
INSERT
  5
86C
100
AcDbEntity
  8
Detail
100
AcDbBlockReference
  2
B-28
 10
0.000000
 20
0.000000
 30
0.000000
 41
1.000000
 42
1.000000
 43
1.000000
 50
0.000000
  0
INSERT
  5
86D
100
AcDbEntity
  8
Detail
100
AcDbBlockReference
  2
B-29
 10
0.000000
 20
0.000000
 30
0.000000
 41
1.000000
 42
1.000000
 43
1.000000
 50
0.000000
  0
INSERT
  5
86E
100
AcDbEntity
  8
0
100
AcDbBlockReference
  2
B-30
 10
0.000000
 20
0.000000
 30
0.000000
 41
1.000000
 42
1.000000
 43
1.000000
 50
0.000000
  0
INSERT
  5
86F
100
AcDbEntity
  8
0
100
AcDbBlockReference
  2
B-31
 10
0.000000
 20
0.000000
 30
0.000000
 41
1.000000
 42
1.000000
 43
1.000000
 50
0.000000
  0
INSERT
  5
870
100
AcDbEntity
  8
Detail
100
AcDbBlockReference
  2
B-32
 10
0.000000
 20
0.000000
 30
0.000000
 41
1.000000
 42
1.000000
 43
1.000000
 50
0.000000
  0
INSERT
  5
871
100
AcDbEntity
  8
0
100
AcDbBlockReference
  2
B-33
 10
0.000000
 20
0.000000
 30
0.000000
 41
1.000000
 42
1.000000
 43
1.000000
 50
0.000000
  0
INSERT
  5
872
100
AcDbEntity
  8
Detail
100
AcDbBlockReference
  2
B-34
 10
0.000000
 20
0.000000
 30
0.000000
 41
1.000000
 42
1.000000
 43
1.000000
 50
0.000000
  0
INSERT
  5
873
100
AcDbEntity
  8
Detail
100
AcDbBlockReference
  2
B-35
 10
0.000000
 20
0.000000
 30
0.000000
 41
1.000000
 42
1.000000
 43
1.000000
 50
0.000000
  0
INSERT
  5
874
100
AcDbEntity
  8
0
100
AcDbBlockReference
  2
B-36
 10
0.000000
 20
0.000000
 30
0.000000
 41
1.000000
 42
1.000000
 43
1.000000
 50
0.000000
  0
INSERT
  5
875
100
AcDbEntity
  8
Detail
100
AcDbBlockReference
  2
B-37
 10
0.000000
 20
0.000000
 30
0.000000
 41
1.000000
 42
1.000000
 43
1.000000
 50
0.000000
  0
INSERT
  5
876
100
AcDbEntity
  8
0
100
AcDbBlockReference
  2
B-38
 10
0.000000
 20
0.000000
 30
0.000000
 41
1.000000
 42
1.000000
 43
1.000000
 50
0.000000
  0
INSERT
  5
877
100
AcDbEntity
  8
Detail
100
AcDbBlockReference
  2
B-39
 10
0.000000
 20
0.000000
 30
0.000000
 41
1.000000
 42
1.000000
 43
1.000000
 50
0.000000
  0
INSERT
  5
878
100
AcDbEntity
  8
0
100
AcDbBlockReference
  2
B-40
 10
0.000000
 20
0.000000
 30
0.000000
 41
1.000000
 42
1.000000
 43
1.000000
 50
0.000000
  0
INSERT
  5
879
100
AcDbEntity
  8
0
100
AcDbBlockReference
  2
B-41
 10
0.000000
 20
0.000000
 30
0.000000
 41
1.000000
 42
1.000000
 43
1.000000
 50
0.000000
  0
INSERT
  5
87A
100
AcDbEntity
  8
Detail
100
AcDbBlockReference
  2
B-42
 10
0.000000
 20
0.000000
 30
0.000000
 41
1.000000
 42
1.000000
 43
1.000000
 50
0.000000
  0
INSERT
  5
87B
100
AcDbEntity
  8
Detail
100
AcDbBlockReference
  2
B-43
 10
0.000000
 20
0.000000
 30
0.000000
 41
1.000000
 42
1.000000
 43
1.000000
 50
0.000000
  0
INSERT
  5
87C
100
AcDbEntity
  8
Detail
100
AcDbBlockReference
  2
B-44
 10
0.000000
 20
0.000000
 30
0.000000
 41
1.000000
 42
1.000000
 43
1.000000
 50
0.000000
  0
INSERT
  5
87D
100
AcDbEntity
  8
0
100
AcDbBlockReference
  2
B-45
 10
0.000000
 20
0.000000
 30
0.000000
 41
1.000000
 42
1.000000
 43
1.000000
 50
0.000000
  0
INSERT
  5
87E
100
AcDbEntity
  8
Detail
100
AcDbBlockReference
  2
B-46
 10
0.000000
 20
0.000000
 30
0.000000
 41
1.000000
 42
1.000000
 43
1.000000
 50
0.000000
  0
INSERT
  5
87F
100
AcDbEntity
  8
0
100
AcDbBlockReference
  2
B-47
 10
0.000000
 20
0.000000
 30
0.000000
 41
1.000000
 42
1.000000
 43
1.000000
 50
0.000000
  0
INSERT
  5
880
100
AcDbEntity
  8
Detail
100
AcDbBlockReference
  2
B-48
 10
0.000000
 20
0.000000
 30
0.000000
 41
1.000000
 42
1.000000
 43
1.000000
 50
0.000000
  0
INSERT
  5
881
100
AcDbEntity
  8
Detail
100
AcDbBlockReference
  2
B-49
 10
0.000000
 20
0.000000
 30
0.000000
 41
1.000000
 42
1.000000
 43
1.000000
 50
0.000000
  0
INSERT
  5
882
100
AcDbEntity
  8
Detail
100
AcDbBlockReference
  2
B-50
 10
0.000000
 20
0.000000
 30
0.000000
 41
1.000000
 42
1.000000
 43
1.000000
 50
0.000000
  0
INSERT
  5
883
100
AcDbEntity
  8
Detail
100
AcDbBlockReference
  2
B-51
 10
0.000000
 20
0.000000
 30
0.000000
 41
1.000000
 42
1.000000
 43
1.000000
 50
0.000000
  0
INSERT
  5
884
100
AcDbEntity
  8
Detail
100
AcDbBlockReference
  2
B-52
 10
0.000000
 20
0.000000
 30
0.000000
 41
1.000000
 42
1.000000
 43
1.000000
 50
0.000000
  0
INSERT
  5
885
100
AcDbEntity
  8
Detail
100
AcDbBlockReference
  2
B-53
 10
0.000000
 20
0.000000
 30
0.000000
 41
1.000000
 42
1.000000
 43
1.000000
 50
0.000000
  0
INSERT
  5
886
100
AcDbEntity
  8
Detail
100
AcDbBlockReference
  2
B-55
 10
0.000000
 20
0.000000
 30
0.000000
 41
1.000000
 42
1.000000
 43
1.000000
 50
0.000000
  0
INSERT
  5
887
100
AcDbEntity
  8
0
100
AcDbBlockReference
  2
glasleiste
 10
0.000000
 20
0.000000
 30
0.000000
 41
1.000000
 42
1.000000
 43
1.000000
 50
0.000000
  0
INSERT
  5
888
100
AcDbEntity
  8
0
100
AcDbBlockReference
  2
rahmen
 10
0.000000
 20
0.000000
 30
0.000000
 41
1.000000
 42
1.000000
 43
1.000000
 50
0.000000
  0
INSERT
  5
889
100
AcDbEntity
  8
0
100
AcDbBlockReference
  2
fluegel
 10
0.000000
 20
0.000000
 30
0.000000
 41
1.000000
 42
1.000000
 43
1.000000
 50
0.000000
  0
INSERT
  5
88A
100
AcDbEntity
  8
Detail
100
AcDbBlockReference
  2
w-schenkel
 10
0.000000
 20
0.000000
 30
0.000000
 41
1.000000
 42
1.000000
 43
1.000000
 50
0.000000
  0
INSERT
  5
88B
100
AcDbEntity
  8
Detail
100
AcDbBlockReference
  2
glas
 10
0.000000
 20
0.000000
 30
0.000000
 41
1.000000
 42
1.000000
 43
1.000000
 50
0.000000
  0
INSERT
  5
88C
100
AcDbEntity
  8
Detail
100
AcDbBlockReference
  2
B-56
 10
0.000000
 20
0.000000
 30
0.000000
 41
1.000000
 42
1.000000
 43
1.000000
 50
0.000000
  0
INSERT
  5
88D
100
AcDbEntity
  8
Detail
100
AcDbBlockReference
  2
B-57
 10
0.000000
 20
0.000000
 30
0.000000
 41
1.000000
 42
1.000000
 43
1.000000
 50
0.000000
  0
INSERT
  5
88E
100
AcDbEntity
  8
Detail
100
AcDbBlockReference
  2
B-58
 10
0.000000
 20
0.000000
 30
0.000000
 41
1.000000
 42
1.000000
 43
1.000000
 50
0.000000
  0
INSERT
  5
88F
100
AcDbEntity
  8
Detail
100
AcDbBlockReference
  2
B-59
 10
0.000000
 20
0.000000
 30
0.000000
 41
1.000000
 42
1.000000
 43
1.000000
 50
0.000000
  0
INSERT
  5
890
100
AcDbEntity
  8
Detail
100
AcDbBlockReference
  2
B-60
 10
0.000000
 20
0.000000
 30
0.000000
 41
1.000000
 42
1.000000
 43
1.000000
 50
0.000000
  0
INSERT
  5
891
100
AcDbEntity
  8
0
100
AcDbBlockReference
  2
B-61
 10
0.000000
 20
0.000000
 30
0.000000
 41
1.000000
 42
1.000000
 43
1.000000
 50
0.000000
  0
INSERT
  5
892
100
AcDbEntity
  8
0
100
AcDbBlockReference
  2
B-62
 10
0.000000
 20
0.000000
 30
0.000000
 41
1.000000
 42
1.000000
 43
1.000000
 50
0.000000
  0
INSERT
  5
893
100
AcDbEntity
  8
0
100
AcDbBlockReference
  2
B-63
 10
0.000000
 20
0.000000
 30
0.000000
 41
1.000000
 42
1.000000
 43
1.000000
 50
0.000000
  0
INSERT
  5
894
100
AcDbEntity
  8
Detail
100
AcDbBlockReference
  2
B-64
 10
0.000000
 20
0.000000
 30
0.000000
 41
1.000000
 42
1.000000
 43
1.000000
 50
0.000000
  0
INSERT
  5
895
100
AcDbEntity
  8
Detail
100
AcDbBlockReference
  2
B-65
 10
0.000000
 20
0.000000
 30
0.000000
 41
1.000000
 42
1.000000
 43
1.000000
 50
0.000000
  0
INSERT
  5
896
100
AcDbEntity
  8
Detail
100
AcDbBlockReference
  2
B-66
 10
0.000000
 20
0.000000
 30
0.000000
 41
1.000000
 42
1.000000
 43
1.000000
 50
0.000000
  0
INSERT
  5
897
100
AcDbEntity
  8
Detail
100
AcDbBlockReference
  2
B-67
 10
0.000000
 20
0.000000
 30
0.000000
 41
1.000000
 42
1.000000
 43
1.000000
 50
0.000000
  0
INSERT
  5
898
100
AcDbEntity
  8
Detail
100
AcDbBlockReference
  2
B-68
 10
0.000000
 20
0.000000
 30
0.000000
 41
1.000000
 42
1.000000
 43
1.000000
 50
0.000000
  0
INSERT
  5
899
100
AcDbEntity
  8
Detail
100
AcDbBlockReference
  2
B-69
 10
0.000000
 20
0.000000
 30
0.000000
 41
1.000000
 42
1.000000
 43
1.000000
 50
0.000000
  0
INSERT
  5
89A
100
AcDbEntity
  8
Detail
100
AcDbBlockReference
  2
B-70
 10
0.000000
 20
0.000000
 30
0.000000
 41
1.000000
 42
1.000000
 43
1.000000
 50
0.000000
  0
INSERT
  5
89B
100
AcDbEntity
  8
Detail
100
AcDbBlockReference
  2
B-71
 10
0.000000
 20
0.000000
 30
0.000000
 41
1.000000
 42
1.000000
 43
1.000000
 50
0.000000
  0
INSERT
  5
89C
100
AcDbEntity
  8
Detail
100
AcDbBlockReference
  2
B-72
 10
0.000000
 20
0.000000
 30
0.000000
 41
1.000000
 42
1.000000
 43
1.000000
 50
0.000000
  0
INSERT
  5
89D
100
AcDbEntity
  8
Detail
100
AcDbBlockReference
  2
B-73
 10
0.000000
 20
0.000000
 30
0.000000
 41
1.000000
 42
1.000000
 43
1.000000
 50
0.000000
  0
INSERT
  5
89E
100
AcDbEntity
  8
Detail
100
AcDbBlockReference
  2
B-74
 10
0.000000
 20
0.000000
 30
0.000000
 41
1.000000
 42
1.000000
 43
1.000000
 50
0.000000
  0
INSERT
  5
89F
100
AcDbEntity
  8
Detail
100
AcDbBlockReference
  2
B-75
 10
0.000000
 20
0.000000
 30
0.000000
 41
1.000000
 42
1.000000
 43
1.000000
 50
0.000000
  0
INSERT
  5
8A0
100
AcDbEntity
  8
Detail
100
AcDbBlockReference
  2
B-76
 10
0.000000
 20
0.000000
 30
0.000000
 41
1.000000
 42
1.000000
 43
1.000000
 50
0.000000
  0
INSERT
  5
8A1
100
AcDbEntity
  8
Detail
100
AcDbBlockReference
  2
B-77
 10
0.000000
 20
0.000000
 30
0.000000
 41
1.000000
 42
1.000000
 43
1.000000
 50
0.000000
  0
INSERT
  5
8A2
100
AcDbEntity
  8
Detail
100
AcDbBlockReference
  2
B-78
 10
0.000000
 20
0.000000
 30
0.000000
 41
1.000000
 42
1.000000
 43
1.000000
 50
0.000000
  0
INSERT
  5
8A3
100
AcDbEntity
  8
Detail
100
AcDbBlockReference
  2
B-79
 10
0.000000
 20
0.000000
 30
0.000000
 41
1.000000
 42
1.000000
 43
1.000000
 50
0.000000
  0
INSERT
  5
8A4
100
AcDbEntity
  8
Detail
100
AcDbBlockReference
  2
B-80
 10
0.000000
 20
0.000000
 30
0.000000
 41
1.000000
 42
1.000000
 43
1.000000
 50
0.000000
  0
INSERT
  5
8A5
100
AcDbEntity
  8
Detail
100
AcDbBlockReference
  2
B-81
 10
0.000000
 20
0.000000
 30
0.000000
 41
1.000000
 42
1.000000
 43
1.000000
 50
0.000000
  0
INSERT
  5
8A6
100
AcDbEntity
  8
Detail
100
AcDbBlockReference
  2
B-82
 10
0.000000
 20
0.000000
 30
0.000000
 41
1.000000
 42
1.000000
 43
1.000000
 50
0.000000
  0
INSERT
  5
8A7
100
AcDbEntity
  8
Detail
100
AcDbBlockReference
  2
B-83
 10
0.000000
 20
0.000000
 30
0.000000
 41
1.000000
 42
1.000000
 43
1.000000
 50
0.000000
  0
INSERT
  5
8A8
100
AcDbEntity
  8
Detail
100
AcDbBlockReference
  2
B-84
 10
0.000000
 20
0.000000
 30
0.000000
 41
1.000000
 42
1.000000
 43
1.000000
 50
0.000000
  0
INSERT
  5
8A9
100
AcDbEntity
  8
0
100
AcDbBlockReference
  2
B-85
 10
0.000000
 20
0.000000
 30
0.000000
 41
1.000000
 42
1.000000
 43
1.000000
 50
0.000000
  0
INSERT
  5
8AA
100
AcDbEntity
  8
Stahlbau
100
AcDbBlockReference
  2
B-86
 10
0.000000
 20
0.000000
 30
0.000000
 41
1.000000
 42
1.000000
 43
1.000000
 50
0.000000
  0
INSERT
  5
8AB
100
AcDbEntity
  8
Detail
100
AcDbBlockReference
  2
B-87
 10
0.000000
 20
0.000000
 30
0.000000
 41
1.000000
 42
1.000000
 43
1.000000
 50
0.000000
  0
INSERT
  5
8AC
100
AcDbEntity
  8
0
100
AcDbBlockReference
  2
B-88
 10
0.000000
 20
0.000000
 30
0.000000
 41
1.000000
 42
1.000000
 43
1.000000
 50
0.000000
  0
INSERT
  5
8AD
100
AcDbEntity
  8
0
100
AcDbBlockReference
  2
B-89
 10
0.000000
 20
0.000000
 30
0.000000
 41
1.000000
 42
1.000000
 43
1.000000
 50
0.000000
  0
INSERT
  5
8AE
100
AcDbEntity
  8
0
100
AcDbBlockReference
  2
B-90
 10
0.000000
 20
0.000000
 30
0.000000
 41
1.000000
 42
1.000000
 43
1.000000
 50
0.000000
  0
INSERT
  5
8AF
100
AcDbEntity
  8
Detail
100
AcDbBlockReference
  2
B-91
 10
0.000000
 20
0.000000
 30
0.000000
 41
1.000000
 42
1.000000
 43
1.000000
 50
0.000000
  0
INSERT
  5
8B0
100
AcDbEntity
  8
Detail
100
AcDbBlockReference
  2
B-92
 10
0.000000
 20
0.000000
 30
0.000000
 41
1.000000
 42
1.000000
 43
1.000000
 50
0.000000
  0
INSERT
  5
8B1
100
AcDbEntity
  8
Detail
100
AcDbBlockReference
  2
B-93
 10
0.000000
 20
0.000000
 30
0.000000
 41
1.000000
 42
1.000000
 43
1.000000
 50
0.000000
  0
INSERT
  5
8B2
100
AcDbEntity
  8
Detail
100
AcDbBlockReference
  2
B-94
 10
0.000000
 20
0.000000
 30
0.000000
 41
1.000000
 42
1.000000
 43
1.000000
 50
0.000000
  0
INSERT
  5
8B3
100
AcDbEntity
  8
Detail
100
AcDbBlockReference
  2
B-95
 10
0.000000
 20
0.000000
 30
0.000000
 41
1.000000
 42
1.000000
 43
1.000000
 50
0.000000
  0
INSERT
  5
8B4
100
AcDbEntity
  8
Detail
100
AcDbBlockReference
  2
B-96
 10
0.000000
 20
0.000000
 30
0.000000
 41
1.000000
 42
1.000000
 43
1.000000
 50
0.000000
  0
INSERT
  5
8B5
100
AcDbEntity
  8
0
100
AcDbBlockReference
  2
B-97
 10
0.000000
 20
0.000000
 30
0.000000
 41
1.000000
 42
1.000000
 43
1.000000
 50
0.000000
  0
INSERT
  5
8B6
100
AcDbEntity
  8
0
100
AcDbBlockReference
  2
B-98
 10
0.000000
 20
0.000000
 30
0.000000
 41
1.000000
 42
1.000000
 43
1.000000
 50
0.000000
  0
INSERT
  5
8B7
100
AcDbEntity
  8
Detail
100
AcDbBlockReference
  2
B-99
 10
0.000000
 20
0.000000
 30
0.000000
 41
1.000000
 42
1.000000
 43
1.000000
 50
0.000000
  0
INSERT
  5
8B8
100
AcDbEntity
  8
0
100
AcDbBlockReference
  2
B-100
 10
0.000000
 20
0.000000
 30
0.000000
 41
1.000000
 42
1.000000
 43
1.000000
 50
0.000000
  0
INSERT
  5
8B9
100
AcDbEntity
  8
0
100
AcDbBlockReference
  2
B-101
 10
0.000000
 20
0.000000
 30
0.000000
 41
1.000000
 42
1.000000
 43
1.000000
 50
0.000000
  0
INSERT
  5
8BA
100
AcDbEntity
  8
0
100
AcDbBlockReference
  2
B-102
 10
0.000000
 20
0.000000
 30
0.000000
 41
1.000000
 42
1.000000
 43
1.000000
 50
0.000000
  0
INSERT
  5
8BB
100
AcDbEntity
  8
Detail
100
AcDbBlockReference
  2
B-103
 10
0.000000
 20
0.000000
 30
0.000000
 41
1.000000
 42
1.000000
 43
1.000000
 50
0.000000
  0
INSERT
  5
8BC
100
AcDbEntity
  8
Detail
100
AcDbBlockReference
  2
B-104
 10
0.000000
 20
0.000000
 30
0.000000
 41
1.000000
 42
1.000000
 43
1.000000
 50
0.000000
  0
INSERT
  5
8BD
100
AcDbEntity
  8
Detail
100
AcDbBlockReference
  2
B-105
 10
0.000000
 20
0.000000
 30
0.000000
 41
1.000000
 42
1.000000
 43
1.000000
 50
0.000000
  0
INSERT
  5
8BE
100
AcDbEntity
  8
Detail
100
AcDbBlockReference
  2
B-106
 10
0.000000
 20
0.000000
 30
0.000000
 41
1.000000
 42
1.000000
 43
1.000000
 50
0.000000
  0
INSERT
  5
8BF
100
AcDbEntity
  8
Detail
100
AcDbBlockReference
  2
B-107
 10
0.000000
 20
0.000000
 30
0.000000
 41
1.000000
 42
1.000000
 43
1.000000
 50
0.000000
  0
INSERT
  5
8C0
100
AcDbEntity
  8
Detail
100
AcDbBlockReference
  2
B-108
 10
0.000000
 20
0.000000
 30
0.000000
 41
1.000000
 42
1.000000
 43
1.000000
 50
0.000000
  0
INSERT
  5
8C1
100
AcDbEntity
  8
Detail
100
AcDbBlockReference
  2
B-109
 10
0.000000
 20
0.000000
 30
0.000000
 41
1.000000
 42
1.000000
 43
1.000000
 50
0.000000
  0
INSERT
  5
8C2
100
AcDbEntity
  8
Detail
100
AcDbBlockReference
  2
B-110
 10
0.000000
 20
0.000000
 30
0.000000
 41
1.000000
 42
1.000000
 43
1.000000
 50
0.000000
  0
INSERT
  5
8C3
100
AcDbEntity
  8
Detail
100
AcDbBlockReference
  2
B-111
 10
0.000000
 20
0.000000
 30
0.000000
 41
1.000000
 42
1.000000
 43
1.000000
 50
0.000000
  0
INSERT
  5
8C4
100
AcDbEntity
  8
0
100
AcDbBlockReference
  2
B-112
 10
0.000000
 20
0.000000
 30
0.000000
 41
1.000000
 42
1.000000
 43
1.000000
 50
0.000000
  0
INSERT
  5
8C5
100
AcDbEntity
  8
Detail
100
AcDbBlockReference
  2
B-115
 10
0.000000
 20
0.000000
 30
0.000000
 41
1.000000
 42
1.000000
 43
1.000000
 50
0.000000
  0
INSERT
  5
8C6
100
AcDbEntity
  8
Detail
100
AcDbBlockReference
  2
B-117
 10
0.000000
 20
0.000000
 30
0.000000
 41
1.000000
 42
1.000000
 43
1.000000
 50
0.000000
  0
ENDSEC
  0
SECTION
  2
OBJECTS
  0
DICTIONARY
  5
C
330
0
100
AcDbDictionary
281
     1
  3
ACAD_COLOR
350
6B
  3
ACAD_GROUP
350
D
  3
ACAD_IMAGE_DICT
350
1E2
  3
ACAD_IMAGE_VARS
350
1E3
  3
ACAD_MATERIAL
350
6A
  3
ACAD_MLINESTYLE
350
17
  3
ACAD_PLOTSETTINGS
350
19
  3
ACAD_PLOTSTYLENAME
350
E
  3
ACAD_SCALELIST
350
10C
  3
ACAD_TABLESTYLE
350
7E
  3
ACAD_VISUALSTYLE
350
EF
  3
ACDB_RECOMPOSE_DATA
350
15D
  3
AcDbVariableDictionary
350
5E
  0
DICTIONARY
  5
13C
330
10
100
AcDbDictionary
280
     1
281
     1
  0
DICTIONARY
  5
203
330
202
100
AcDbDictionary
280
     1
281
     1
  0
DICTIONARY
  5
6B
102
{ACAD_REACTORS
330
C
102
}
330
C
100
AcDbDictionary
281
     1
  0
DICTIONARY
  5
D
102
{ACAD_REACTORS
330
C
102
}
330
C
100
AcDbDictionary
281
     1
  0
DICTIONARY
  5
1E2
102
{ACAD_REACTORS
330
C
102
}
330
C
100
AcDbDictionary
281
     1
  3
WDVS mit Hartbekleidung_Brüstung_8_1.tif
350
21C
  0
RASTERVARIABLES
  5
1E3
102
{ACAD_REACTORS
330
C
102
}
330
C
100
AcDbRasterVariables
 90
        0
 70
     1
 71
     1
 72
     1
  0
DICTIONARY
  5
6A
102
{ACAD_REACTORS
330
C
102
}
330
C
100
AcDbDictionary
281
     1
  3
ByBlock
350
ED
  3
ByLayer
350
EC
  3
Global
350
EE
  0
DICTIONARY
  5
12D
102
{ACAD_REACTORS
330
C
102
}
330
C
100
AcDbDictionary
281
     1
  3
Annotative
350
13B
  3
Standard
350
12E
  0
DICTIONARY
  5
17
102
{ACAD_REACTORS
330
C
102
}
330
C
100
AcDbDictionary
281
     1
  3
Standard
350
18
  0
DICTIONARY
  5
19
102
{ACAD_REACTORS
330
C
102
}
330
C
100
AcDbDictionary
281
     1
  0
ACDBDICTIONARYWDFLT
  5
E
102
{ACAD_REACTORS
330
C
102
}
330
C
100
AcDbDictionary
281
     1
  3
Normal
350
F
100
AcDbDictionaryWithDefault
340
F
  0
DICTIONARY
  5
10C
102
{ACAD_REACTORS
330
C
102
}
330
C
100
AcDbDictionary
281
     1
  3
A0
350
10D
  3
A1
350
1BE
  3
A2
350
1BF
  3
A3
350
1C0
  3
A4
350
1C1
  3
A5
350
1C2
  3
A6
350
1C3
  3
A7
350
1C4
  3
A8
350
1C5
  3
A9
350
1C6
  3
B0
350
1C7
  3
B1
350
1C8
  3
B2
350
1C9
  3
B3
350
1CA
  3
B4
350
1CB
  3
B5
350
1CC
  3
B6
350
1CD
  0
DICTIONARY
  5
7E
102
{ACAD_REACTORS
330
C
102
}
330
C
100
AcDbDictionary
281
     1
  3
Standard
350
7F
  0
DICTIONARY
  5
EF
102
{ACAD_REACTORS
330
C
102
}
330
C
100
AcDbDictionary
281
     1
  3
2dWireframe
350
F5
  3
3D Hidden
350
F7
  3
3dWireframe
350
F6
  3
Basic
350
F4
  3
Brighten
350
FB
  3
ColorChange
350
FF
  3
Conceptual
350
F8
  3
Dim
350
FA
  3
Facepattern
350
FE
  3
Flat
350
F0
  3
FlatWithEdges
350
F1
  3
Gouraud
350
F2
  3
GouraudWithEdges
350
F3
  3
Linepattern
350
FD
  3
Realistic
350
F9
  3
Thicken
350
FC
  0
XRECORD
  5
15D
102
{ACAD_REACTORS
330
C
102
}
330
C
100
AcDbXrecord
280
     1
 90
        1
330
7F
  0
DICTIONARY
  5
5E
102
{ACAD_REACTORS
330
C
102
}
330
C
100
AcDbDictionary
281
     1
  3
CANNOSCALE
350
146
  3
CMLEADERSTYLE
350
145
  3
CTABLESTYLE
350
84
  3
DIMASSOC
350
5F
  3
HIDETEXT
350
63
  3
LAYEREVAL
350
1AE
  3
LAYERNOTIFY
350
1AF
  0
MATERIAL
  5
ED
102
{ACAD_REACTORS
330
6A
102
}
330
6A
100
AcDbMaterial
  1
ByBlock
 94
       63
  0
MATERIAL
  5
EC
102
{ACAD_REACTORS
330
6A
102
}
330
6A
100
AcDbMaterial
  1
ByLayer
 94
       63
  0
MATERIAL
  5
EE
102
{ACAD_XDICTIONARY
360
173
102
}
102
{ACAD_REACTORS
330
6A
102
}
330
6A
100
AcDbMaterial
  1
Global
 43
0.0007999999797903
 43
0.0
 43
0.0
 43
0.0
 43
0.0
 43
0.0007999999797903
 43
0.0
 43
0.0
 43
0.0
 43
0.0
 43
1.0
 43
0.0
 43
0.0
 43
0.0
 43
0.0
 43
1.0
 49
0.0007999999797903
 49
0.0
 49
0.0
 49
0.0
 49
0.0
 49
0.0007999999797903
 49
0.0
 49
0.0
 49
0.0
 49
0.0
 49
1.0
 49
0.0
 49
0.0
 49
0.0
 49
0.0
 49
1.0
142
0.0007999999797903
142
0.0
142
0.0
142
0.0
142
0.0
142
0.0007999999797903
142
0.0
142
0.0
142
0.0
142
0.0
142
1.0
142
0.0
142
0.0
142
0.0
142
0.0
142
1.0
144
0.0007999999797903
144
0.0
144
0.0
144
0.0
144
0.0
144
0.0007999999797903
144
0.0
144
0.0
144
0.0
144
0.0
144
1.0
144
0.0
144
0.0
144
0.0
144
0.0
144
1.0
 94
       63
1001
ACAD
1070
    -1
1070
     3
1070
     0
1000

1071
        0
1070
     0
  0
MLINESTYLE
  5
18
102
{ACAD_REACTORS
330
17
102
}
330
17
100
AcDbMlineStyle
  2
STANDARD
 70
     0
  3

 62
   256
 51
90.0
 52
90.0
 71
     2
 49
0.5
 62
   256
  6
BYLAYER
 49
-0.5
 62
   256
  6
BYLAYER
  0
ACDBPLACEHOLDER
  5
F
102
{ACAD_REACTORS
330
E
102
}
330
E
  0
SCALE
  5
10D
102
{ACAD_REACTORS
330
10C
102
}
330
10C
100
AcDbScale
 70
     0
300
1:1
140
1.0
141
1.0
290
     1
  0
SCALE
  5
1BE
102
{ACAD_REACTORS
330
10C
102
}
330
10C
100
AcDbScale
 70
     0
300
1:2
140
1.0
141
2.0
290
     0
  0
SCALE
  5
1BF
102
{ACAD_REACTORS
330
10C
102
}
330
10C
100
AcDbScale
 70
     0
300
1:4
140
1.0
141
4.0
290
     0
  0
SCALE
  5
1C0
102
{ACAD_REACTORS
330
10C
102
}
330
10C
100
AcDbScale
 70
     0
300
1:5
140
1.0
141
5.0
290
     0
  0
SCALE
  5
1C1
102
{ACAD_REACTORS
330
10C
102
}
330
10C
100
AcDbScale
 70
     0
300
1:8
140
1.0
141
8.0
290
     0
  0
SCALE
  5
1C2
102
{ACAD_REACTORS
330
10C
102
}
330
10C
100
AcDbScale
 70
     0
300
1:10
140
1.0
141
10.0
290
     0
  0
SCALE
  5
1C3
102
{ACAD_REACTORS
330
10C
102
}
330
10C
100
AcDbScale
 70
     0
300
1:16
140
1.0
141
16.0
290
     0
  0
SCALE
  5
1C4
102
{ACAD_REACTORS
330
10C
102
}
330
10C
100
AcDbScale
 70
     0
300
1:20
140
1.0
141
20.0
290
     0
  0
SCALE
  5
1C5
102
{ACAD_REACTORS
330
10C
102
}
330
10C
100
AcDbScale
 70
     0
300
1:30
140
1.0
141
30.0
290
     0
  0
SCALE
  5
1C6
102
{ACAD_REACTORS
330
10C
102
}
330
10C
100
AcDbScale
 70
     0
300
1:40
140
1.0
141
40.0
290
     0
  0
SCALE
  5
1C7
102
{ACAD_REACTORS
330
10C
102
}
330
10C
100
AcDbScale
 70
     0
300
1:50
140
1.0
141
50.0
290
     0
  0
SCALE
  5
1C8
102
{ACAD_REACTORS
330
10C
102
}
330
10C
100
AcDbScale
 70
     0
300
1:100
140
1.0
141
100.0
290
     0
  0
SCALE
  5
1C9
102
{ACAD_REACTORS
330
10C
102
}
330
10C
100
AcDbScale
 70
     0
300
2:1
140
2.0
141
1.0
290
     0
  0
SCALE
  5
1CA
102
{ACAD_REACTORS
330
10C
102
}
330
10C
100
AcDbScale
 70
     0
300
4:1
140
4.0
141
1.0
290
     0
  0
SCALE
  5
1CB
102
{ACAD_REACTORS
330
10C
102
}
330
10C
100
AcDbScale
 70
     0
300
8:1
140
8.0
141
1.0
290
     0
  0
SCALE
  5
1CC
102
{ACAD_REACTORS
330
10C
102
}
330
10C
100
AcDbScale
 70
     0
300
10:1
140
10.0
141
1.0
290
     0
  0
SCALE
  5
1CD
102
{ACAD_REACTORS
330
10C
102
}
330
10C
100
AcDbScale
 70
     0
300
100:1
140
100.0
141
1.0
290
     0
  0
TABLESTYLE
  5
7F
102
{ACAD_XDICTIONARY
360
162
102
}
102
{ACAD_REACTORS
330
7E
102
}
330
7E
100
AcDbTableStyle
  3
Standard
 70
     0
 71
     0
 40
1.5
 41
1.5
280
     0
281
     0
  7
Standard
140
4.5
170
     2
 62
     0
 63
     7
283
     0
 90
      512
 91
        0
  1

274
    -2
284
     1
 64
     0
275
    -2
285
     1
 65
     0
276
    -2
286
     1
 66
     0
277
    -2
287
     1
 67
     0
278
    -2
288
     1
 68
     0
279
    -2
289
     1
 69
     0
  7
Standard
140
6.0
170
     5
 62
     0
 63
     7
283
     0
 90
      512
 91
        0
  1

274
    -2
284
     1
 64
     0
275
    -2
285
     1
 65
     0
276
    -2
286
     1
 66
     0
277
    -2
287
     1
 67
     0
278
    -2
288
     1
 68
     0
279
    -2
289
     1
 69
     0
  7
Standard
140
4.5
170
     5
 62
     0
 63
     7
283
     0
 90
      512
 91
        0
  1

274
    -2
284
     1
 64
     0
275
    -2
285
     1
 65
     0
276
    -2
286
     1
 66
     0
277
    -2
287
     1
 67
     0
278
    -2
288
     1
 68
     0
279
    -2
289
     1
 69
     0
  0
VISUALSTYLE
  5
F5
102
{ACAD_REACTORS
330
EF
102
}
330
EF
100
AcDbVisualStyle
  2
2dWireframe
 70
     4
 71
     0
 72
     2
 73
     1
 90
        0
 40
-0.6
 41
-30.0
 62
     5
 63
     7
421
 16777215
 74
     1
 91
        4
 64
     7
 65
   257
 75
     1
175
     1
 42
1.0
 92
        0
 66
   257
 43
1.0
 76
     1
 77
     6
 78
     2
 67
     7
 79
     5
170
     0
171
     0
290
     0
174
     0
 93
        1
 44
0.0
173
     0
291
     0
 45
0.0
  0
VISUALSTYLE
  5
F7
102
{ACAD_REACTORS
330
EF
102
}
330
EF
100
AcDbVisualStyle
  2
3D Hidden
 70
     6
 71
     1
 72
     2
 73
     2
 90
        0
 40
-0.6
 41
-30.0
 62
     5
 63
     7
421
 16777215
 74
     2
 91
        2
 64
     7
 65
   257
 75
     2
175
     1
 42
40.0
 92
        0
 66
   257
 43
1.0
 76
     1
 77
     6
 78
     2
 67
     7
 79
     3
170
     0
171
     0
290
     0
174
     0
 93
        1
 44
0.0
173
     0
291
     0
 45
0.0
  0
VISUALSTYLE
  5
F6
102
{ACAD_REACTORS
330
EF
102
}
330
EF
100
AcDbVisualStyle
  2
3dWireframe
 70
     5
 71
     0
 72
     2
 73
     1
 90
        0
 40
-0.6
 41
-30.0
 62
     5
 63
     7
421
 16777215
 74
     1
 91
        4
 64
     7
 65
   257
 75
     1
175
     1
 42
1.0
 92
        0
 66
   257
 43
1.0
 76
     1
 77
     6
 78
     2
 67
     7
 79
     5
170
     0
171
     0
290
     0
174
     0
 93
        1
 44
0.0
173
     0
291
     0
 45
0.0
  0
VISUALSTYLE
  5
F4
102
{ACAD_REACTORS
330
EF
102
}
330
EF
100
AcDbVisualStyle
  2
Basic
 70
     7
 71
     1
 72
     0
 73
     1
 90
        0
 40
-0.6
 41
-30.0
 62
     5
 63
     7
421
 16777215
 74
     0
 91
        4
 64
     7
 65
   257
 75
     1
175
     1
 42
1.0
 92
        8
 66
     7
 43
1.0
 76
     1
 77
     6
 78
     2
 67
     7
 79
     5
170
     0
171
     0
290
     0
174
     0
 93
        1
 44
0.0
173
     0
291
     1
 45
0.0
  0
VISUALSTYLE
  5
FB
102
{ACAD_REACTORS
330
EF
102
}
330
EF
100
AcDbVisualStyle
  2
Brighten
 70
    12
 71
     2
 72
     2
 73
     1
 90
        0
 40
-0.6
 41
-30.0
 62
     5
 63
     7
421
 16777215
 74
     1
 91
        4
 64
     7
 65
   257
 75
     1
175
     1
 42
1.0
 92
        8
 66
     7
 43
1.0
 76
     1
 77
     6
 78
     2
 67
     7
 79
     5
170
     0
171
     0
290
     0
174
     0
 93
        1
 44
50.0
173
     0
291
     1
 45
0.0
  0
VISUALSTYLE
  5
FF
102
{ACAD_REACTORS
330
EF
102
}
330
EF
100
AcDbVisualStyle
  2
ColorChange
 70
    16
 71
     2
 72
     2
 73
     3
 90
        0
 40
-0.6
 41
-30.0
 62
     5
 63
     8
421
  8421504
 74
     1
 91
        4
 64
     7
 65
   257
 75
     1
175
     1
 42
1.0
 92
        8
 66
     8
424
  8421504
 43
1.0
 76
     1
 77
     6
 78
     2
 67
     7
 79
     5
170
     0
171
     0
290
     0
174
     0
 93
        1
 44
0.0
173
     0
291
     1
 45
0.0
  0
VISUALSTYLE
  5
F8
102
{ACAD_REACTORS
330
EF
102
}
330
EF
100
AcDbVisualStyle
  2
Conceptual
 70
     9
 71
     3
 72
     2
 73
     1
 90
        0
 40
-0.6
 41
-30.0
 62
     5
 63
     7
421
 16777215
 74
     2
 91
        2
 64
     7
 65
   257
 75
     1
175
     1
 42
40.0
 92
        8
 66
     7
 43
1.0
 76
     1
 77
     6
 78
     2
 67
     7
 79
     3
170
     0
171
     0
290
     0
174
     0
 93
        1
 44
0.0
173
     0
291
     0
 45
0.0
  0
VISUALSTYLE
  5
FA
102
{ACAD_REACTORS
330
EF
102
}
330
EF
100
AcDbVisualStyle
  2
Dim
 70
    11
 71
     2
 72
     2
 73
     1
 90
        0
 40
-0.6
 41
-30.0
 62
     5
 63
     7
421
 16777215
 74
     1
 91
        4
 64
     7
 65
   257
 75
     1
175
     1
 42
1.0
 92
        8
 66
     7
 43
1.0
 76
     1
 77
     6
 78
     2
 67
     7
 79
     5
170
     0
171
     0
290
     0
174
     0
 93
        1
 44
-50.0
173
     0
291
     1
 45
0.0
  0
VISUALSTYLE
  5
FE
102
{ACAD_REACTORS
330
EF
102
}
330
EF
100
AcDbVisualStyle
  2
Facepattern
 70
    15
 71
     2
 72
     2
 73
     1
 90
        0
 40
-0.6
 41
-30.0
 62
     5
 63
     7
421
 16777215
 74
     1
 91
        4
 64
     7
 65
   257
 75
     1
175
     1
 42
1.0
 92
        8
 66
     7
 43
1.0
 76
     1
 77
     6
 78
     2
 67
     7
 79
     5
170
     0
171
     0
290
     0
174
     0
 93
        1
 44
0.0
173
     0
291
     1
 45
0.0
  0
VISUALSTYLE
  5
F0
102
{ACAD_REACTORS
330
EF
102
}
330
EF
100
AcDbVisualStyle
  2
Flat
 70
     0
 71
     2
 72
     1
 73
     1
 90
        2
 40
-0.6
 41
30.0
 62
     5
 63
     7
421
 16777215
 74
     0
 91
        4
 64
     7
 65
   257
 75
     1
175
     1
 42
1.0
 92
        8
 66
     7
 43
1.0
 76
     1
 77
     6
 78
     2
 67
     7
 79
     5
170
     0
171
     0
290
     0
174
     0
 93
        1
 44
0.0
173
     0
291
     1
 45
0.0
  0
VISUALSTYLE
  5
F1
102
{ACAD_REACTORS
330
EF
102
}
330
EF
100
AcDbVisualStyle
  2
FlatWithEdges
 70
     1
 71
     2
 72
     1
 73
     1
 90
        2
 40
-0.6
 41
30.0
 62
     5
 63
     7
421
 16777215
 74
     1
 91
        4
 64
     7
 65
   257
 75
     1
175
     1
 42
1.0
 92
        0
 66
   257
 43
1.0
 76
     1
 77
     6
 78
     2
 67
     7
 79
     5
170
     0
171
     0
290
     0
174
     0
 93
        1
 44
0.0
173
     0
291
     1
 45
0.0
  0
VISUALSTYLE
  5
F2
102
{ACAD_REACTORS
330
EF
102
}
330
EF
100
AcDbVisualStyle
  2
Gouraud
 70
     2
 71
     2
 72
     2
 73
     1
 90
        2
 40
-0.6
 41
30.0
 62
     5
 63
     7
421
 16777215
 74
     0
 91
        4
 64
     7
 65
   257
 75
     1
175
     1
 42
1.0
 92
        0
 66
     7
 43
1.0
 76
     1
 77
     6
 78
     2
 67
     7
 79
     5
170
     0
171
     0
290
     0
174
     0
 93
        1
 44
0.0
173
     0
291
     1
 45
0.0
  0
VISUALSTYLE
  5
F3
102
{ACAD_REACTORS
330
EF
102
}
330
EF
100
AcDbVisualStyle
  2
GouraudWithEdges
 70
     3
 71
     2
 72
     2
 73
     1
 90
        2
 40
-0.6
 41
30.0
 62
     5
 63
     7
421
 16777215
 74
     1
 91
        4
 64
     7
 65
   257
 75
     1
175
     1
 42
1.0
 92
        0
 66
   257
 43
1.0
 76
     1
 77
     6
 78
     2
 67
     7
 79
     5
170
     0
171
     0
290
     0
174
     0
 93
        1
 44
0.0
173
     0
291
     1
 45
0.0
  0
VISUALSTYLE
  5
FD
102
{ACAD_REACTORS
330
EF
102
}
330
EF
100
AcDbVisualStyle
  2
Linepattern
 70
    14
 71
     2
 72
     2
 73
     1
 90
        0
 40
-0.6
 41
-30.0
 62
     5
 63
     7
421
 16777215
 74
     1
 91
        4
 64
     7
 65
   257
 75
     7
175
     7
 42
1.0
 92
        8
 66
     7
 43
1.0
 76
     1
 77
     6
 78
     2
 67
     7
 79
     5
170
     0
171
     0
290
     0
174
     0
 93
        1
 44
0.0
173
     0
291
     1
 45
0.0
  0
VISUALSTYLE
  5
F9
102
{ACAD_REACTORS
330
EF
102
}
330
EF
100
AcDbVisualStyle
  2
Realistic
 70
     8
 71
     2
 72
     2
 73
     1
 90
        0
 40
-0.6
 41
-30.0
 62
     5
 63
     7
421
 16777215
 74
     1
 91
        0
 64
     7
 65
   257
 75
     1
175
     1
 42
1.0
 92
        8
 66
     8
424
  7895160
 43
1.0
 76
     1
 77
     6
 78
     2
 67
     7
 79
     5
170
     0
171
     0
290
     0
174
     0
 93
       13
 44
0.0
173
     0
291
     0
 45
0.0
  0
VISUALSTYLE
  5
FC
102
{ACAD_REACTORS
330
EF
102
}
330
EF
100
AcDbVisualStyle
  2
Thicken
 70
    13
 71
     2
 72
     2
 73
     1
 90
        0
 40
-0.6
 41
-30.0
 62
     5
 63
     7
421
 16777215
 74
     1
 91
        4
 64
     7
 65
   257
 75
     1
175
     1
 42
1.0
 92
       12
 66
     7
 43
1.0
 76
     1
 77
     6
 78
     2
 67
     7
 79
     5
170
     0
171
     0
290
     0
174
     0
 93
        1
 44
0.0
173
     0
291
     1
 45
0.0
  0
DICTIONARYVAR
  5
146
102
{ACAD_REACTORS
330
5E
102
}
330
5E
100
DictionaryVariables
280
     0
  1
1:1
  0
DICTIONARYVAR
  5
145
102
{ACAD_REACTORS
330
5E
102
}
330
5E
100
DictionaryVariables
280
     0
  1
STANDARD
  0
DICTIONARYVAR
  5
84
102
{ACAD_REACTORS
330
5E
102
}
330
5E
100
DictionaryVariables
280
     0
  1
STANDARD
  0
DICTIONARYVAR
  5
5F
102
{ACAD_REACTORS
330
5E
102
}
330
5E
100
DictionaryVariables
280
     0
  1
2
  0
DICTIONARYVAR
  5
63
102
{ACAD_REACTORS
330
5E
102
}
330
5E
100
DictionaryVariables
280
     0
  1
1
  0
DICTIONARYVAR
  5
1AE
102
{ACAD_REACTORS
330
5E
102
}
330
5E
100
DictionaryVariables
280
     0
  1
0
  0
DICTIONARYVAR
  5
1AF
102
{ACAD_REACTORS
330
5E
102
}
330
5E
100
DictionaryVariables
280
     0
  1
0
  0
DICTIONARY
  5
173
330
EE
100
AcDbDictionary
280
     1
281
     1
  3
BUMPTILE
360
175
  3
DIFFUSETILE
360
174
  3
OPACITYTILE
360
176
  3
REFLECTIONTILE
360
177
  0
DICTIONARY
  5
162
330
7F
100
AcDbDictionary
280
     1
281
     1
  3
ACAD_ROUNDTRIP_2008_TABLESTYLE_CELLSTYLEMAP
360
1E7
  0
XRECORD
  5
175
102
{ACAD_REACTORS
330
173
102
}
330
173
100
AcDbXrecord
280
     1
270
     1
271
     1
  0
XRECORD
  5
174
102
{ACAD_REACTORS
330
173
102
}
330
173
100
AcDbXrecord
280
     1
270
     1
271
     1
  0
XRECORD
  5
176
102
{ACAD_REACTORS
330
173
102
}
330
173
100
AcDbXrecord
280
     1
270
     1
271
     1
  0
XRECORD
  5
177
102
{ACAD_REACTORS
330
173
102
}
330
173
100
AcDbXrecord
280
     1
270
     1
271
     1
  0
CELLSTYLEMAP
  5
1E7
102
{ACAD_REACTORS
330
162
102
}
330
162
100
AcDbCellStyleMap
 90
        3
300
CELLSTYLE
  1
TABLEFORMAT_BEGIN
 90
        5
170
     1
 91
        0
 92
    32768
 62
   257
 93
        1
300
CONTENTFORMAT
  1
CONTENTFORMAT_BEGIN
 90
        0
 91
        0
 92
      512
 93
        0
300

 40
0.0
140
1.0
 94
        5
 62
     0
340
11
144
6.0
309
CONTENTFORMAT_END
171
     1
301
MARGIN
  1
CELLMARGIN_BEGIN
 40
1.5
 40
1.5
 40
1.5
 40
1.5
 40
4.5
 40
4.5
309
CELLMARGIN_END
 94
        6
 95
        1
302
GRIDFORMAT
  1
GRIDFORMAT_BEGIN
 90
        0
 91
        1
 62
     0
 92
       -2
340
66D
 93
        0
 40
1.125
309
GRIDFORMAT_END
 95
        2
302
GRIDFORMAT
  1
GRIDFORMAT_BEGIN
 90
        0
 91
        1
 62
     0
 92
       -2
340
66D
 93
        0
 40
1.125
309
GRIDFORMAT_END
 95
        4
302
GRIDFORMAT
  1
GRIDFORMAT_BEGIN
 90
        0
 91
        1
 62
     0
 92
       -2
340
66D
 93
        0
 40
1.125
309
GRIDFORMAT_END
 95
        8
302
GRIDFORMAT
  1
GRIDFORMAT_BEGIN
 90
        0
 91
        1
 62
     0
 92
       -2
340
66D
 93
        0
 40
1.125
309
GRIDFORMAT_END
 95
       16
302
GRIDFORMAT
  1
GRIDFORMAT_BEGIN
 90
        0
 91
        1
 62
     0
 92
       -2
340
66D
 93
        0
 40
1.125
309
GRIDFORMAT_END
 95
       32
302
GRIDFORMAT
  1
GRIDFORMAT_BEGIN
 90
        0
 91
        1
 62
     0
 92
       -2
340
66D
 93
        0
 40
1.125
309
GRIDFORMAT_END
309
TABLEFORMAT_END
  1
CELLSTYLE_BEGIN
 90
        1
 91
        1
300
_TITLE
309
CELLSTYLE_END
300
CELLSTYLE
  1
TABLEFORMAT_BEGIN
 90
        5
170
     1
 91
        0
 92
        0
 62
   257
 93
        1
300
CONTENTFORMAT
  1
CONTENTFORMAT_BEGIN
 90
        0
 91
        0
 92
      512
 93
        0
300

 40
0.0
140
1.0
 94
        5
 62
     0
340
11
144
4.5
309
CONTENTFORMAT_END
171
     1
301
MARGIN
  1
CELLMARGIN_BEGIN
 40
1.5
 40
1.5
 40
1.5
 40
1.5
 40
4.5
 40
4.5
309
CELLMARGIN_END
 94
        6
 95
        1
302
GRIDFORMAT
  1
GRIDFORMAT_BEGIN
 90
        0
 91
        1
 62
     0
 92
       -2
340
66D
 93
        0
 40
1.125
309
GRIDFORMAT_END
 95
        2
302
GRIDFORMAT
  1
GRIDFORMAT_BEGIN
 90
        0
 91
        1
 62
     0
 92
       -2
340
66D
 93
        0
 40
1.125
309
GRIDFORMAT_END
 95
        4
302
GRIDFORMAT
  1
GRIDFORMAT_BEGIN
 90
        0
 91
        1
 62
     0
 92
       -2
340
66D
 93
        0
 40
1.125
309
GRIDFORMAT_END
 95
        8
302
GRIDFORMAT
  1
GRIDFORMAT_BEGIN
 90
        0
 91
        1
 62
     0
 92
       -2
340
66D
 93
        0
 40
1.125
309
GRIDFORMAT_END
 95
       16
302
GRIDFORMAT
  1
GRIDFORMAT_BEGIN
 90
        0
 91
        1
 62
     0
 92
       -2
340
66D
 93
        0
 40
1.125
309
GRIDFORMAT_END
 95
       32
302
GRIDFORMAT
  1
GRIDFORMAT_BEGIN
 90
        0
 91
        1
 62
     0
 92
       -2
340
66D
 93
        0
 40
1.125
309
GRIDFORMAT_END
309
TABLEFORMAT_END
  1
CELLSTYLE_BEGIN
 90
        2
 91
        1
300
_HEADER
309
CELLSTYLE_END
300
CELLSTYLE
  1
TABLEFORMAT_BEGIN
 90
        5
170
     1
 91
        0
 92
        0
 62
   257
 93
        1
300
CONTENTFORMAT
  1
CONTENTFORMAT_BEGIN
 90
        0
 91
        0
 92
      512
 93
        0
300

 40
0.0
140
1.0
 94
        2
 62
     0
340
11
144
4.5
309
CONTENTFORMAT_END
171
     1
301
MARGIN
  1
CELLMARGIN_BEGIN
 40
1.5
 40
1.5
 40
1.5
 40
1.5
 40
4.5
 40
4.5
309
CELLMARGIN_END
 94
        6
 95
        1
302
GRIDFORMAT
  1
GRIDFORMAT_BEGIN
 90
        0
 91
        1
 62
     0
 92
       -2
340
66D
 93
        0
 40
1.125
309
GRIDFORMAT_END
 95
        2
302
GRIDFORMAT
  1
GRIDFORMAT_BEGIN
 90
        0
 91
        1
 62
     0
 92
       -2
340
66D
 93
        0
 40
1.125
309
GRIDFORMAT_END
 95
        4
302
GRIDFORMAT
  1
GRIDFORMAT_BEGIN
 90
        0
 91
        1
 62
     0
 92
       -2
340
66D
 93
        0
 40
1.125
309
GRIDFORMAT_END
 95
        8
302
GRIDFORMAT
  1
GRIDFORMAT_BEGIN
 90
        0
 91
        1
 62
     0
 92
       -2
340
66D
 93
        0
 40
1.125
309
GRIDFORMAT_END
 95
       16
302
GRIDFORMAT
  1
GRIDFORMAT_BEGIN
 90
        0
 91
        1
 62
     0
 92
       -2
340
66D
 93
        0
 40
1.125
309
GRIDFORMAT_END
 95
       32
302
GRIDFORMAT
  1
GRIDFORMAT_BEGIN
 90
        0
 91
        1
 62
     0
 92
       -2
340
66D
 93
        0
 40
1.125
309
GRIDFORMAT_END
309
TABLEFORMAT_END
  1
CELLSTYLE_BEGIN
 90
        3
 91
        2
300
_DATA
309
CELLSTYLE_END
  0
IMAGEDEF_REACTOR
  5
21D
330
21B
100
AcDbRasterImageDefReactor
 90
     2
330
21B
  0
IMAGEDEF
  5
21C
102
{ACAD_REACTORS
330
5E
330
21D
102
}
330
5E
100
AcDbRasterImageDef
 90
     0
  1
WDVS mit Hartbekleidung_Brüstung_8_1.tif
 10
395.000000
 20
405.000000
 11
0.002532
 21
0.002469
280
     1
281
     0
  0
ENDSEC
  0
EOF
