  0
SECTION
  2
HEADER
  9
$ACADVER
  1
AC1024
  9
$ACADMAINTVER
 70
     6
  9
$DWGCODEPAGE
  3
ANSI_1252
  9
$INSBASE
 10
0.0
 20
0.0
 30
0.0
  9
$EXTMIN
 10
-262.500018
 20
-371.249941
 30
0.000000
  9
$EXTMAX
 10
237.500023
 20
346.250078
 30
0.000000
  9
$LIMMIN
 10
0.0
 20
0.0
  9
$LIMMAX
 10
420.0
 20
297.0
  9
$ORTHOMODE
 70
     0
  9
$REGENMODE
 70
     1
  9
$FILLMODE
 70
     1
  9
$QTEXTMODE
 70
     0
  9
$MIRRTEXT
 70
     0
  9
$LTSCALE
 40
25.000000
  9
$ATTMODE
 70
     1
  9
$TEXTSIZE
 40
2.5
  9
$TRACEWID
 40
1.0
  9
$TEXTSTYLE
  7
Standard
  9
$CLAYER
  8
0
  9
$CELTYPE
  6
ByLayer
  9
$CECOLOR
 62
   256
  9
$CELTSCALE
 40
1.0
  9
$DISPSILH
 70
     0
  9
$DIMSCALE
 40
1.0
  9
$DIMASZ
 40
2.5
  9
$DIMEXO
 40
0.625
  9
$DIMDLI
 40
3.75
  9
$DIMRND
 40
0.0
  9
$DIMDLE
 40
0.0
  9
$DIMEXE
 40
1.25
  9
$DIMTP
 40
0.0
  9
$DIMTM
 40
0.0
  9
$DIMTXT
 40
2.5
  9
$DIMCEN
 40
2.5
  9
$DIMTSZ
 40
0.0
  9
$DIMTOL
 70
     0
  9
$DIMLIM
 70
     0
  9
$DIMTIH
 70
     0
  9
$DIMTOH
 70
     0
  9
$DIMSE1
 70
     0
  9
$DIMSE2
 70
     0
  9
$DIMTAD
 70
     1
  9
$DIMZIN
 70
     8
  9
$DIMBLK
  1

  9
$DIMASO
 70
     1
  9
$DIMSHO
 70
     1
  9
$DIMPOST
  1

  9
$DIMAPOST
  1

  9
$DIMALT
 70
     0
  9
$DIMALTD
 70
     3
  9
$DIMALTF
 40
0.03937007874016
  9
$DIMLFAC
 40
1.0
  9
$DIMTOFL
 70
     1
  9
$DIMTVP
 40
0.0
  9
$DIMTIX
 70
     0
  9
$DIMSOXD
 70
     0
  9
$DIMSAH
 70
     0
  9
$DIMBLK1
  1

  9
$DIMBLK2
  1

  9
$DIMSTYLE
  2
ISO-25
  9
$DIMCLRD
 70
     0
  9
$DIMCLRE
 70
     0
  9
$DIMCLRT
 70
     0
  9
$DIMTFAC
 40
1.0
  9
$DIMGAP
 40
0.625
  9
$DIMJUST
 70
     0
  9
$DIMSD1
 70
     0
  9
$DIMSD2
 70
     0
  9
$DIMTOLJ
 70
     0
  9
$DIMTZIN
 70
     8
  9
$DIMALTZ
 70
     0
  9
$DIMALTTZ
 70
     0
  9
$DIMUPT
 70
     0
  9
$DIMDEC
 70
     2
  9
$DIMTDEC
 70
     2
  9
$DIMALTU
 70
     2
  9
$DIMALTTD
 70
     3
  9
$DIMTXSTY
  7
Standard
  9
$DIMAUNIT
 70
     0
  9
$DIMADEC
 70
     0
  9
$DIMALTRND
 40
0.0
  9
$DIMAZIN
 70
     0
  9
$DIMDSEP
 70
    44
  9
$DIMATFIT
 70
     3
  9
$DIMFRAC
 70
     0
  9
$DIMLDRBLK
  1

  9
$DIMLUNIT
 70
     2
  9
$DIMLWD
 70
    -2
  9
$DIMLWE
 70
    -2
  9
$DIMTMOVE
 70
     0
  9
$DIMFXL
 40
1.0
  9
$DIMFXLON
 70
     0
  9
$DIMJOGANG
 40
0.7853981633974483
  9
$DIMTFILL
 70
     0
  9
$DIMTFILLCLR
 70
     0
  9
$DIMARCSYM
 70
     0
  9
$DIMLTYPE
  6

  9
$DIMLTEX1
  6

  9
$DIMLTEX2
  6

  9
$DIMTXTDIRECTION
 70
     0
  9
$LUNITS
 70
     2
  9
$LUPREC
 70
     4
  9
$SKETCHINC
 40
1.0
  9
$FILLETRAD
 40
10.0
  9
$AUNITS
 70
     0
  9
$AUPREC
 70
     0
  9
$MENU
  1
.
  9
$ELEVATION
 40
0.0
  9
$PELEVATION
 40
0.0
  9
$THICKNESS
 40
0.0
  9
$LIMCHECK
 70
     0
  9
$CHAMFERA
 40
10.0
  9
$CHAMFERB
 40
10.0
  9
$CHAMFERC
 40
20.0
  9
$CHAMFERD
 40
0.0
  9
$SKPOLY
 70
     0
  9
$TDCREATE
 40
2452006.439837951
  9
$TDUCREATE
 40
2452006.356504618
  9
$TDUPDATE
 40
2452006.439963946
  9
$TDUUPDATE
 40
2452006.356630613
  9
$TDINDWG
 40
0.0001273843
  9
$TDUSRTIMER
 40
0.0001272685
  9
$USRTIMER
 70
     1
  9
$ANGBASE
 50
0.0
  9
$ANGDIR
 70
     0
  9
$PDMODE
 70
     0
  9
$PDSIZE
 40
0.0
  9
$PLINEWID
 40
0.0
  9
$SPLFRAME
 70
     0
  9
$SPLINETYPE
 70
     6
  9
$SPLINESEGS
 70
     8
  9
$HANDSEED
  5
B6B
  9
$SURFTAB1
 70
     6
  9
$SURFTAB2
 70
     6
  9
$SURFTYPE
 70
     6
  9
$SURFU
 70
     6
  9
$SURFV
 70
     6
  9
$UCSBASE
  2

  9
$UCSNAME
  2

  9
$UCSORG
 10
0.0
 20
0.0
 30
0.0
  9
$UCSXDIR
 10
1.0
 20
0.0
 30
0.0
  9
$UCSYDIR
 10
0.0
 20
1.0
 30
0.0
  9
$UCSORTHOREF
  2

  9
$UCSORTHOVIEW
 70
     0
  9
$UCSORGTOP
 10
0.0
 20
0.0
 30
0.0
  9
$UCSORGBOTTOM
 10
0.0
 20
0.0
 30
0.0
  9
$UCSORGLEFT
 10
0.0
 20
0.0
 30
0.0
  9
$UCSORGRIGHT
 10
0.0
 20
0.0
 30
0.0
  9
$UCSORGFRONT
 10
0.0
 20
0.0
 30
0.0
  9
$UCSORGBACK
 10
0.0
 20
0.0
 30
0.0
  9
$PUCSBASE
  2

  9
$PUCSNAME
  2

  9
$PUCSORG
 10
0.0
 20
0.0
 30
0.0
  9
$PUCSXDIR
 10
1.0
 20
0.0
 30
0.0
  9
$PUCSYDIR
 10
0.0
 20
1.0
 30
0.0
  9
$PUCSORTHOREF
  2

  9
$PUCSORTHOVIEW
 70
     0
  9
$PUCSORGTOP
 10
0.0
 20
0.0
 30
0.0
  9
$PUCSORGBOTTOM
 10
0.0
 20
0.0
 30
0.0
  9
$PUCSORGLEFT
 10
0.0
 20
0.0
 30
0.0
  9
$PUCSORGRIGHT
 10
0.0
 20
0.0
 30
0.0
  9
$PUCSORGFRONT
 10
0.0
 20
0.0
 30
0.0
  9
$PUCSORGBACK
 10
0.0
 20
0.0
 30
0.0
  9
$USERI1
 70
     0
  9
$USERI2
 70
     0
  9
$USERI3
 70
     0
  9
$USERI4
 70
     0
  9
$USERI5
 70
     0
  9
$USERR1
 40
0.0
  9
$USERR2
 40
0.0
  9
$USERR3
 40
0.0
  9
$USERR4
 40
0.0
  9
$USERR5
 40
0.0
  9
$WORLDVIEW
 70
     1
  9
$SHADEDGE
 70
     3
  9
$SHADEDIF
 70
    70
  9
$TILEMODE
 70
     1
  9
$MAXACTVP
 70
    64
  9
$PINSBASE
 10
0.0
 20
0.0
 30
0.0
  9
$PLIMCHECK
 70
     0
  9
$PEXTMIN
 10
1.000000000000000E+20
 20
1.000000000000000E+20
 30
1.000000000000000E+20
  9
$PEXTMAX
 10
-1.000000000000000E+20
 20
-1.000000000000000E+20
 30
-1.000000000000000E+20
  9
$PLIMMIN
 10
0.0
 20
0.0
  9
$PLIMMAX
 10
420.0
 20
297.0
  9
$UNITMODE
 70
     0
  9
$VISRETAIN
 70
     1
  9
$PLINEGEN
 70
     0
  9
$PSLTSCALE
 70
     1
  9
$TREEDEPTH
 70
  3020
  9
$CMLSTYLE
  2
Standard
  9
$CMLJUST
 70
     0
  9
$CMLSCALE
 40
20.0
  9
$PROXYGRAPHICS
 70
     1
  9
$MEASUREMENT
 70
     1
  9
$CELWEIGHT
370
    -1
  9
$ENDCAPS
280
     0
  9
$JOINSTYLE
280
     0
  9
$LWDISPLAY
290
     0
  9
$INSUNITS
 70
     4
  9
$HYPERLINKBASE
  1

  9
$STYLESHEET
  1

  9
$XEDIT
290
     1
  9
$CEPSNTYPE
380
     0
  9
$PSTYLEMODE
290
     1
  9
$FINGERPRINTGUID
  2

  9
$VERSIONGUID
  2

  9
$EXTNAMES
290
     1
  9
$PSVPSCALE
 40
0.0
  9
$OLESTARTUP
290
     0
  9
$SORTENTS
280
   127
  9
$INDEXCTL
280
     0
  9
$HIDETEXT
280
     1
  9
$XCLIPFRAME
280
     2
  9
$HALOGAP
280
     0
  9
$OBSCOLOR
 70
   257
  9
$OBSLTYPE
280
     0
  9
$INTERSECTIONDISPLAY
280
     0
  9
$INTERSECTIONCOLOR
 70
   257
  9
$DIMASSOC
280
     2
  9
$PROJECTNAME
  1

  9
$CAMERADISPLAY
290
     0
  9
$LENSLENGTH
 40
50.0
  9
$CAMERAHEIGHT
 40
0.0
  9
$STEPSPERSEC
 40
2.0
  9
$STEPSIZE
 40
6.0
  9
$3DDWFPREC
 40
2.0
  9
$PSOLWIDTH
 40
5.0
  9
$PSOLHEIGHT
 40
80.0
  9
$LOFTANG1
 40
1.570796326794896
  9
$LOFTANG2
 40
1.570796326794896
  9
$LOFTMAG1
 40
0.0
  9
$LOFTMAG2
 40
0.0
  9
$LOFTPARAM
 70
     7
  9
$LOFTNORMALS
280
     1
  9
$LATITUDE
 40
37.795
  9
$LONGITUDE
 40
-122.394
  9
$NORTHDIRECTION
 40
0.0
  9
$TIMEZONE
 70
 -8000
  9
$LIGHTGLYPHDISPLAY
280
     1
  9
$TILEMODELIGHTSYNCH
280
     1
  9
$CMATERIAL
347
EC
  9
$SOLIDHIST
280
     1
  9
$SHOWHIST
280
     1
  9
$DWFFRAME
280
     2
  9
$DGNFRAME
280
     0
  9
$REALWORLDSCALE
290
     1
  9
$INTERFERECOLOR
 62
     1
  9
$INTERFEREOBJVS
345
F9
  9
$INTERFEREVPVS
346
F6
  9
$CSHADOW
280
     0
  9
$SHADOWPLANELOCATION
 40
0.0
  0
ENDSEC
  0
SECTION
  2
CLASSES
  0
CLASS
  1
ACDBDICTIONARYWDFLT
  2
AcDbDictionaryWithDefault
  3
ObjectDBX Classes
 90
        0
 91
        1
280
     0
281
     0
  0
CLASS
  1
ACDBPLACEHOLDER
  2
AcDbPlaceHolder
  3
ObjectDBX Classes
 90
        0
 91
        1
280
     0
281
     0
  0
CLASS
  1
LAYOUT
  2
AcDbLayout
  3
ObjectDBX Classes
 90
        0
 91
        2
280
     0
281
     0
  0
CLASS
  1
DICTIONARYVAR
  2
AcDbDictionaryVar
  3
ObjectDBX Classes
 90
        0
 91
        7
280
     0
281
     0
  0
CLASS
  1
TABLESTYLE
  2
AcDbTableStyle
  3
ObjectDBX Classes
 90
     4095
 91
        1
280
     0
281
     0
  0
CLASS
  1
MATERIAL
  2
AcDbMaterial
  3
ObjectDBX Classes
 90
     1153
 91
        3
280
     0
281
     0
  0
CLASS
  1
VISUALSTYLE
  2
AcDbVisualStyle
  3
ObjectDBX Classes
 90
     4095
 91
       16
280
     0
281
     0
  0
CLASS
  1
SCALE
  2
AcDbScale
  3
ObjectDBX Classes
 90
     1153
 91
       17
280
     0
281
     0
  0
CLASS
  1
MLEADERSTYLE
  2
AcDbMLeaderStyle
  3
ACDB_MLEADERSTYLE_CLASS
 90
     4095
 91
        1
280
     0
281
     0
  0
CLASS
  1
CELLSTYLEMAP
  2
AcDbCellStyleMap
  3
ObjectDBX Classes
 90
     1152
 91
        2
280
     0
281
     0
  0
CLASS
  1
EXACXREFPANELOBJECT
  2
ExAcXREFPanelObject
  3
EXAC_ESW
 90
    33793
 91
        0
280
     0
281
     0
  0
CLASS
  1
NPOCOLLECTION
  2
AcDbImpNonPersistentObjectsCollection
  3
ObjectDBX Classes
 90
     1153
 91
        0
280
     0
281
     0
  0
CLASS
  1
LAYER_INDEX
  2
AcDbLayerIndex
  3
ObjectDBX Classes
 90
        0
 91
        0
280
     0
281
     0
  0
CLASS
  1
SPATIAL_INDEX
  2
AcDbSpatialIndex
  3
ObjectDBX Classes
 90
        0
 91
        0
280
     0
281
     0
  0
CLASS
  1
IDBUFFER
  2
AcDbIdBuffer
  3
ObjectDBX Classes
 90
        0
 91
        0
280
     0
281
     0
  0
CLASS
  1
RASTERVARIABLES
  2
AcDbRasterVariables
  3
ISM
 90
        0
 91
        2
280
     0
281
     0
  0
CLASS
  1
IMAGEDEF
  2
AcDbRasterImageDef
  3
ISM
 90
        0
 91
        5
280
     0
281
     0
  0
CLASS
  1
IMAGEDEF_REACTOR
  2
AcDbRasterImageDefReactor
  3
ISM
 90
        1
 91
        5
280
     0
281
     0
  0
CLASS
  1
IMAGE
  2
AcDbRasterImage
  3
ISM
 90
     2175
 91
        5
280
     0
281
     1
  0
CLASS
  1
LWPOLYLINE
  2
AcDbPolyline
  3
ObjectDBX Classes
 90
        0
 91
        0
280
     0
281
     1
  0
CLASS
  1
OLE2FRAME
  2
AcDbOle2Frame
  3
ObjectDBX Classes
 90
        0
 91
        0
280
     0
281
     1
  0
CLASS
  1
HATCH
  2
AcDbHatch
  3
ObjectDBX Classes
 90
        0
 91
        0
280
     0
281
     1
  0
CLASS
  1
XRECORD
  2
AcDbXrecord
  3
ObjectDBX Classes
 90
        0
 91
        9
280
     0
281
     0
  0
CLASS
  1
SORTENTSTABLE
  2
AcDbSortentsTable
  3
ObjectDBX Classes
 90
        0
 91
        0
280
     0
281
     0
  0
CLASS
  1
OBJECT_PTR
  2
CAseDLPNTableRecord
  3
"ASE-LPNTableRecord"
 90
    32769
 91
        0
280
     0
281
     0
  0
CLASS
  1
PLOTSETTINGS
  2
AcDbPlotSettings
  3
ObjectDBX Classes
 90
        0
 91
        0
280
     0
281
     0
  0
CLASS
  1
VBA_PROJECT
  2
AcDbVbaProject
  3
acad
 90
        0
 91
        0
280
     0
281
     0
  0
CLASS
  1
WIPEOUT
  2
AcDbWipeout
  3
WipeOut|AutoCAD Express Tool|expresstools@autodesk.com
 90
    32895
 91
        0
280
     0
281
     1
  0
CLASS
  1
WIPEOUTVARIABLES
  2
AcDbWipeoutVariables
  3
WipeOut|AutoCAD Express Tool|expresstools@autodesk.com
 90
    32768
 91
        0
280
     0
281
     0
  0
CLASS
  1
RTEXT
  2
RText
  3
RText|AutoCAD Express Tool|expresstools@autodesk.com
 90
    32768
 91
        0
280
     0
281
     1
  0
CLASS
  1
ARCALIGNEDTEXT
  2
AcDbArcAlignedText
  3
ATEXT|AutoCAD Express Tool|expresstools@autodesk.com
 90
    32768
 91
        0
280
     0
281
     1
  0
ENDSEC
  0
SECTION
  2
TABLES
  0
TABLE
  2
VPORT
  5
AFA
100
AcDbSymbolTable
 70
     1
  0
VPORT
  5
AFB
100
AcDbSymbolTableRecord
100
AcDbViewportTableRecord
  2
*ACTIVE
 70
     0
 10
0.000000
 20
0.000000
 11
1.000000
 21
1.000000
 12
50.000000
 22
50.000000
 13
0.000000
 23
0.000000
 14
1.000000
 24
1.000000
 15
10.000000
 25
10.000000
 16
0.000000
 26
0.000000
 36
1.000000
 17
0.000000
 27
0.000000
 37
0.000000
 40
100.000000
 41
1.387409
 42
50.000000
 43
0.000000
 44
0.000000
 50
0.000000
 51
0.000000
 71
     0
 72
   100
 73
     1
 74
     1
 75
     0
 76
     0
 77
     0
 78
     0
  0
ENDTAB
  0
TABLE
  2
LTYPE
  5
AFC
330
0
100
AcDbSymbolTable
 70
     9
  0
LTYPE
  5
AFD
330
AFC
100
AcDbSymbolTableRecord
100
AcDbLinetypeTableRecord
  2
ByBlock
 70
     0
  3

 72
    65
 73
     0
 40
0.000000
  0
LTYPE
  5
AFE
330
AFC
100
AcDbSymbolTableRecord
100
AcDbLinetypeTableRecord
  2
ByLayer
 70
     0
  3

 72
    65
 73
     0
 40
0.000000
  0
LTYPE
  5
AFF
330
AFC
100
AcDbSymbolTableRecord
100
AcDbLinetypeTableRecord
  2
CONTINUOUS
 70
     0
  3
Solid line
 72
    65
 73
     0
 40
0.000000
  0
LTYPE
  5
B00
330
AFC
100
AcDbSymbolTableRecord
100
AcDbLinetypeTableRecord
  2
HIDDEN
 70
     0
  3
_ _ _ _ _ _ _ _ _ _ _ _ _ _ _ _ _ _ _ _ _ _ _
 72
    65
 73
     2
 40
0.375000
 49
0.250000
 74
     0
 49
-0.125000
 74
     0
  0
LTYPE
  5
B01
330
AFC
100
AcDbSymbolTableRecord
100
AcDbLinetypeTableRecord
  2
DOT
 70
     0
  3
...............................................
 72
    65
 73
     2
 40
0.250000
 49
0.000000
 74
     0
 49
-0.250000
 74
     0
  0
LTYPE
  5
B02
330
AFC
100
AcDbSymbolTableRecord
100
AcDbLinetypeTableRecord
  2
DASHED
 70
     0
  3
__ __ __ __ __ __ __ __ __ __ __ __ __ __ __ 
 72
    65
 73
     2
 40
0.750000
 49
0.500000
 74
     0
 49
-0.250000
 74
     0
  0
LTYPE
  5
B03
330
AFC
100
AcDbSymbolTableRecord
100
AcDbLinetypeTableRecord
  2
DIVIDE
 70
     0
  3
__ . . __ . . __ . . __ . . __ . . __ . . __
 72
    65
 73
     6
 40
1.250000
 49
0.500000
 74
     0
 49
-0.250000
 74
     0
 49
0.000000
 74
     0
 49
-0.250000
 74
     0
 49
0.000000
 74
     0
 49
-0.250000
 74
     0
  0
LTYPE
  5
B04
330
AFC
100
AcDbSymbolTableRecord
100
AcDbLinetypeTableRecord
  2
DASHDOT
 70
     0
  3
__ . __ . __ . __ . __ . __ . __ . __ . __ . __
 72
    65
 73
     4
 40
1.000000
 49
0.500000
 74
     0
 49
-0.250000
 74
     0
 49
0.000000
 74
     0
 49
-0.250000
 74
     0
  0
LTYPE
  5
B05
330
AFC
100
AcDbSymbolTableRecord
100
AcDbLinetypeTableRecord
  2
BORDER
 70
     0
  3
__ __ . __ __ . __ __ . __ __ . __ __ . __ __
 72
    65
 73
     6
 40
1.750000
 49
0.500000
 74
     0
 49
-0.250000
 74
     0
 49
0.500000
 74
     0
 49
-0.250000
 74
     0
 49
0.000000
 74
     0
 49
-0.250000
 74
     0
  0
LTYPE
  5
B06
330
AFC
100
AcDbSymbolTableRecord
100
AcDbLinetypeTableRecord
  2
CENTER
 70
     0
  3
____ _ ____ _ ____ _ ____ _ ____ _ ____ _ ____
 72
    65
 73
     4
 40
2.000000
 49
1.250000
 74
     0
 49
-0.250000
 74
     0
 49
0.250000
 74
     0
 49
-0.250000
 74
     0
  0
LTYPE
  5
B07
330
AFC
100
AcDbSymbolTableRecord
100
AcDbLinetypeTableRecord
  2
PHANTOM
 70
     0
  3
_____ _ _ _____ _ _ _____ _ _ _____ _ _ ____
 72
    65
 73
     6
 40
2.500000
 49
1.250000
 74
     0
 49
-0.250000
 74
     0
 49
0.250000
 74
     0
 49
-0.250000
 74
     0
 49
0.250000
 74
     0
 49
-0.250000
 74
     0
  0
ENDTAB
  0
TABLE
  2
LAYER
  5
B08
100
AcDbSymbolTable
 70
     4
  0
LAYER
  5
B09
100
AcDbSymbolTableRecord
100
AcDbLayerTableRecord
  2
0
 70
     0
 62
     7
  6
CONTINUOUS
370
    -3
390
     0
  0
LAYER
  5
B0A
100
AcDbSymbolTableRecord
100
AcDbLayerTableRecord
  2
Detail
 70
     0
 62
     7
  6
CONTINUOUS
370
    -3
390
     0
  0
LAYER
  5
B0B
100
AcDbSymbolTableRecord
100
AcDbLayerTableRecord
  2
SCHRAFF
 70
     0
 62
     7
  6
CONTINUOUS
370
    -3
390
     0
  0
LAYER
  5
B0C
100
AcDbSymbolTableRecord
100
AcDbLayerTableRecord
  2
L
 70
     0
 62
     7
  6
CONTINUOUS
370
    -3
390
     0
  0
ENDTAB
  0
TABLE
  2
STYLE
  5
B0D
100
AcDbSymbolTable
 70
     2
  0
STYLE
  5
201
100
AcDbSymbolTableRecord
100
AcDbTextStyleTableRecord
  2
STANDARD
 70
     0
 40
0.000000
 41
1.000000
 50
0.000000
 71
     0
 42
3.500000
  3
txt
  4

  0
STYLE
  5
5F3
100
AcDbSymbolTableRecord
100
AcDbTextStyleTableRecord
  2
Arial
 70
     0
 40
0.000000
 41
1.000000
 50
0.000000
 71
     0
 42
3.500000
  3
Arial.ttf
  4

1001
ACAD
1000
Arial
1071
     0
  0
ENDTAB
  0
TABLE
  2
DIMSTYLE
  5
B0E
100
AcDbSymbolTable
 70
     0
100
AcDbDimStyleTable
  0
ENDTAB
  0
TABLE
  2
VIEW
  5
B0F
100
AcDbSymbolTable
 70
     0
  0
ENDTAB
  0
TABLE
  2
UCS
  5
B10
100
AcDbSymbolTable
 70
     0
  0
ENDTAB
  0
TABLE
  2
APPID
  5
B11
100
AcDbSymbolTable
 70
     1
  0
APPID
  5
B12
100
AcDbSymbolTableRecord
100
AcDbRegAppTableRecord
  2
ACAD
 70
     0
  0
ENDTAB
  0
TABLE
  2
BLOCK_RECORD
  5
B13
100
AcDbSymbolTable
 70
    88
  0
BLOCK_RECORD
  5
202
102
{ACAD_XDICTIONARY
360
203
102
}
100
AcDbSymbolTableRecord
100
AcDbBlockTableRecord
  2
*Model_Space
  0
BLOCK_RECORD
  5
B14
100
AcDbSymbolTableRecord
100
AcDbBlockTableRecord
  2
*Paper_Space
  0
BLOCK_RECORD
  5
B15
100
AcDbSymbolTableRecord
100
AcDbBlockTableRecord
  2
*Paper_Space0
  0
BLOCK_RECORD
  5
B16
100
AcDbSymbolTableRecord
100
AcDbBlockTableRecord
  2
B
  0
BLOCK_RECORD
  5
B17
100
AcDbSymbolTableRecord
100
AcDbBlockTableRecord
  2
B-2
  0
BLOCK_RECORD
  5
B18
100
AcDbSymbolTableRecord
100
AcDbBlockTableRecord
  2
B-3
  0
BLOCK_RECORD
  5
B19
100
AcDbSymbolTableRecord
100
AcDbBlockTableRecord
  2
B-4
  0
BLOCK_RECORD
  5
B1A
100
AcDbSymbolTableRecord
100
AcDbBlockTableRecord
  2
B-5
  0
BLOCK_RECORD
  5
B1B
100
AcDbSymbolTableRecord
100
AcDbBlockTableRecord
  2
B-6
  0
BLOCK_RECORD
  5
B1C
100
AcDbSymbolTableRecord
100
AcDbBlockTableRecord
  2
B-7
  0
BLOCK_RECORD
  5
B1D
100
AcDbSymbolTableRecord
100
AcDbBlockTableRecord
  2
B-8
  0
BLOCK_RECORD
  5
B1E
100
AcDbSymbolTableRecord
100
AcDbBlockTableRecord
  2
B-9
  0
BLOCK_RECORD
  5
B1F
100
AcDbSymbolTableRecord
100
AcDbBlockTableRecord
  2
B-10
  0
BLOCK_RECORD
  5
B20
100
AcDbSymbolTableRecord
100
AcDbBlockTableRecord
  2
B-11
  0
BLOCK_RECORD
  5
B21
100
AcDbSymbolTableRecord
100
AcDbBlockTableRecord
  2
B-12
  0
BLOCK_RECORD
  5
B22
100
AcDbSymbolTableRecord
100
AcDbBlockTableRecord
  2
B-13
  0
BLOCK_RECORD
  5
B23
100
AcDbSymbolTableRecord
100
AcDbBlockTableRecord
  2
B-14
  0
BLOCK_RECORD
  5
B24
100
AcDbSymbolTableRecord
100
AcDbBlockTableRecord
  2
B-15
  0
BLOCK_RECORD
  5
B25
100
AcDbSymbolTableRecord
100
AcDbBlockTableRecord
  2
B-16
  0
BLOCK_RECORD
  5
B26
100
AcDbSymbolTableRecord
100
AcDbBlockTableRecord
  2
B-17
  0
BLOCK_RECORD
  5
B27
100
AcDbSymbolTableRecord
100
AcDbBlockTableRecord
  2
B-18
  0
BLOCK_RECORD
  5
B28
100
AcDbSymbolTableRecord
100
AcDbBlockTableRecord
  2
B-19
  0
BLOCK_RECORD
  5
B29
100
AcDbSymbolTableRecord
100
AcDbBlockTableRecord
  2
B-20
  0
BLOCK_RECORD
  5
B2A
100
AcDbSymbolTableRecord
100
AcDbBlockTableRecord
  2
B-21
  0
BLOCK_RECORD
  5
B2B
100
AcDbSymbolTableRecord
100
AcDbBlockTableRecord
  2
B-22
  0
BLOCK_RECORD
  5
B2C
100
AcDbSymbolTableRecord
100
AcDbBlockTableRecord
  2
B-23
  0
BLOCK_RECORD
  5
B2D
100
AcDbSymbolTableRecord
100
AcDbBlockTableRecord
  2
B-24
  0
BLOCK_RECORD
  5
B2E
100
AcDbSymbolTableRecord
100
AcDbBlockTableRecord
  2
B-25
  0
BLOCK_RECORD
  5
B2F
100
AcDbSymbolTableRecord
100
AcDbBlockTableRecord
  2
B-26
  0
BLOCK_RECORD
  5
B30
100
AcDbSymbolTableRecord
100
AcDbBlockTableRecord
  2
B-27
  0
BLOCK_RECORD
  5
B31
100
AcDbSymbolTableRecord
100
AcDbBlockTableRecord
  2
B-28
  0
BLOCK_RECORD
  5
B32
100
AcDbSymbolTableRecord
100
AcDbBlockTableRecord
  2
B-29
  0
BLOCK_RECORD
  5
B33
100
AcDbSymbolTableRecord
100
AcDbBlockTableRecord
  2
B-30
  0
BLOCK_RECORD
  5
B34
100
AcDbSymbolTableRecord
100
AcDbBlockTableRecord
  2
B-31
  0
BLOCK_RECORD
  5
B35
100
AcDbSymbolTableRecord
100
AcDbBlockTableRecord
  2
B-32
  0
BLOCK_RECORD
  5
B36
100
AcDbSymbolTableRecord
100
AcDbBlockTableRecord
  2
B-33
  0
BLOCK_RECORD
  5
B37
100
AcDbSymbolTableRecord
100
AcDbBlockTableRecord
  2
B-34
  0
BLOCK_RECORD
  5
B38
100
AcDbSymbolTableRecord
100
AcDbBlockTableRecord
  2
B-35
  0
BLOCK_RECORD
  5
B39
100
AcDbSymbolTableRecord
100
AcDbBlockTableRecord
  2
B-36
  0
BLOCK_RECORD
  5
B3A
100
AcDbSymbolTableRecord
100
AcDbBlockTableRecord
  2
B-37
  0
BLOCK_RECORD
  5
B3B
100
AcDbSymbolTableRecord
100
AcDbBlockTableRecord
  2
B-39
  0
BLOCK_RECORD
  5
B3C
100
AcDbSymbolTableRecord
100
AcDbBlockTableRecord
  2
B-40
  0
BLOCK_RECORD
  5
B3D
100
AcDbSymbolTableRecord
100
AcDbBlockTableRecord
  2
B-41
  0
BLOCK_RECORD
  5
B3E
100
AcDbSymbolTableRecord
100
AcDbBlockTableRecord
  2
B-42
  0
BLOCK_RECORD
  5
B3F
100
AcDbSymbolTableRecord
100
AcDbBlockTableRecord
  2
B-43
  0
BLOCK_RECORD
  5
B40
100
AcDbSymbolTableRecord
100
AcDbBlockTableRecord
  2
B-44
  0
BLOCK_RECORD
  5
B41
100
AcDbSymbolTableRecord
100
AcDbBlockTableRecord
  2
B-45
  0
BLOCK_RECORD
  5
B42
100
AcDbSymbolTableRecord
100
AcDbBlockTableRecord
  2
B-46
  0
BLOCK_RECORD
  5
B43
100
AcDbSymbolTableRecord
100
AcDbBlockTableRecord
  2
B-47
  0
BLOCK_RECORD
  5
B44
100
AcDbSymbolTableRecord
100
AcDbBlockTableRecord
  2
B-48
  0
BLOCK_RECORD
  5
B45
100
AcDbSymbolTableRecord
100
AcDbBlockTableRecord
  2
B-49
  0
BLOCK_RECORD
  5
B46
100
AcDbSymbolTableRecord
100
AcDbBlockTableRecord
  2
B-50
  0
BLOCK_RECORD
  5
B47
100
AcDbSymbolTableRecord
100
AcDbBlockTableRecord
  2
B-51
  0
BLOCK_RECORD
  5
B48
100
AcDbSymbolTableRecord
100
AcDbBlockTableRecord
  2
B-52
  0
BLOCK_RECORD
  5
B49
100
AcDbSymbolTableRecord
100
AcDbBlockTableRecord
  2
B-53
  0
BLOCK_RECORD
  5
B4A
100
AcDbSymbolTableRecord
100
AcDbBlockTableRecord
  2
B-54
  0
BLOCK_RECORD
  5
B4B
100
AcDbSymbolTableRecord
100
AcDbBlockTableRecord
  2
B-55
  0
BLOCK_RECORD
  5
B4C
100
AcDbSymbolTableRecord
100
AcDbBlockTableRecord
  2
B-56
  0
BLOCK_RECORD
  5
B4D
100
AcDbSymbolTableRecord
100
AcDbBlockTableRecord
  2
B-57
  0
BLOCK_RECORD
  5
B4E
100
AcDbSymbolTableRecord
100
AcDbBlockTableRecord
  2
B-58
  0
BLOCK_RECORD
  5
B4F
100
AcDbSymbolTableRecord
100
AcDbBlockTableRecord
  2
B-59
  0
BLOCK_RECORD
  5
B50
100
AcDbSymbolTableRecord
100
AcDbBlockTableRecord
  2
B-60
  0
BLOCK_RECORD
  5
B51
100
AcDbSymbolTableRecord
100
AcDbBlockTableRecord
  2
B-62
  0
BLOCK_RECORD
  5
B52
100
AcDbSymbolTableRecord
100
AcDbBlockTableRecord
  2
B-63
  0
BLOCK_RECORD
  5
B53
100
AcDbSymbolTableRecord
100
AcDbBlockTableRecord
  2
B-64
  0
BLOCK_RECORD
  5
B54
100
AcDbSymbolTableRecord
100
AcDbBlockTableRecord
  2
B-65
  0
BLOCK_RECORD
  5
B55
100
AcDbSymbolTableRecord
100
AcDbBlockTableRecord
  2
B-66
  0
BLOCK_RECORD
  5
B56
100
AcDbSymbolTableRecord
100
AcDbBlockTableRecord
  2
B-67
  0
BLOCK_RECORD
  5
B57
100
AcDbSymbolTableRecord
100
AcDbBlockTableRecord
  2
B-68
  0
BLOCK_RECORD
  5
B58
100
AcDbSymbolTableRecord
100
AcDbBlockTableRecord
  2
B-69
  0
BLOCK_RECORD
  5
B59
100
AcDbSymbolTableRecord
100
AcDbBlockTableRecord
  2
B-70
  0
BLOCK_RECORD
  5
B5A
100
AcDbSymbolTableRecord
100
AcDbBlockTableRecord
  2
B-71
  0
BLOCK_RECORD
  5
B5B
100
AcDbSymbolTableRecord
100
AcDbBlockTableRecord
  2
B-72
  0
BLOCK_RECORD
  5
B5C
100
AcDbSymbolTableRecord
100
AcDbBlockTableRecord
  2
B-73
  0
BLOCK_RECORD
  5
B5D
100
AcDbSymbolTableRecord
100
AcDbBlockTableRecord
  2
B-74
  0
BLOCK_RECORD
  5
B5E
100
AcDbSymbolTableRecord
100
AcDbBlockTableRecord
  2
B-75
  0
BLOCK_RECORD
  5
B5F
100
AcDbSymbolTableRecord
100
AcDbBlockTableRecord
  2
B-76
  0
BLOCK_RECORD
  5
B60
100
AcDbSymbolTableRecord
100
AcDbBlockTableRecord
  2
B-77
  0
BLOCK_RECORD
  5
B61
100
AcDbSymbolTableRecord
100
AcDbBlockTableRecord
  2
B-78
  0
BLOCK_RECORD
  5
B62
100
AcDbSymbolTableRecord
100
AcDbBlockTableRecord
  2
B-79
  0
BLOCK_RECORD
  5
B63
100
AcDbSymbolTableRecord
100
AcDbBlockTableRecord
  2
B-80
  0
BLOCK_RECORD
  5
B64
100
AcDbSymbolTableRecord
100
AcDbBlockTableRecord
  2
B-81
  0
BLOCK_RECORD
  5
B65
100
AcDbSymbolTableRecord
100
AcDbBlockTableRecord
  2
B-82
  0
BLOCK_RECORD
  5
B66
100
AcDbSymbolTableRecord
100
AcDbBlockTableRecord
  2
B-83
  0
BLOCK_RECORD
  5
B67
100
AcDbSymbolTableRecord
100
AcDbBlockTableRecord
  2
B-84
  0
BLOCK_RECORD
  5
B68
100
AcDbSymbolTableRecord
100
AcDbBlockTableRecord
  2
B-85
  0
BLOCK_RECORD
  5
B69
100
AcDbSymbolTableRecord
100
AcDbBlockTableRecord
  2
B-86
  0
BLOCK_RECORD
  5
B6A
100
AcDbSymbolTableRecord
100
AcDbBlockTableRecord
  2
B-87
  0
ENDTAB
  0
ENDSEC
  0
SECTION
  2
BLOCKS
  0
BLOCK
  5
204
100
AcDbEntity
  8
0
100
AcDbBlockBegin
  2
*Model_Space
 70
     0
 10
0.000000
 20
0.000000
 30
0.000000
  3
*Model_Space
  1

  0
ENDBLK
  5
205
100
AcDbEntity
  8
0
100
AcDbBlockEnd
  0
BLOCK
  5
206
100
AcDbEntity
 67
     1
  8
0
100
AcDbBlockBegin
  2
*Paper_Space
 70
     0
 10
0.000000
 20
0.000000
 30
0.000000
  3
*Paper_Space
  1

  0
ENDBLK
  5
207
100
AcDbEntity
 67
     1
  8
0
100
AcDbBlockEnd
  0
BLOCK
  5
208
100
AcDbEntity
 67
     1
  8
0
100
AcDbBlockBegin
  2
*Paper_Space0
 70
     0
 10
0.000000
 20
0.000000
 30
0.000000
  3
*Paper_Space0
  1

  0
ENDBLK
  5
209
100
AcDbEntity
 67
     1
  8
0
100
AcDbBlockEnd
  0
BLOCK
  5
20A
100
AcDbEntity
  8
SCHRAFF
100
AcDbBlockBegin
  2
B
 70
    66
 10
0.000000
 20
0.000000
 30
0.000000
  0
HATCH
  5
20B
100
AcDbEntity
  8
SCHRAFF
 62
   254
440
     0
100
AcDbHatch
 10
0.000000
 20
0.000000
 30
0.000000
210
0.000000
220
0.000000
230
1.000000
  2
SOLID
 70
     1
 71
     1
 91
     1
 92
    18
 72
     1
 73
     0
 93
     5
 10
-82.500018
 20
-26.249941
 42
0.000000
 10
-150.500018
 20
-26.249941
 42
0.000000
 10
-150.500018
 20
-28.249941
 42
0.000000
 10
-82.500018
 20
-28.249941
 42
0.000000
 10
-82.500018
 20
-26.249941
 42
0.000000
 97
     0
 75
     0
 76
     1
 98
     0
  0
HATCH
  5
20C
100
AcDbEntity
  8
SCHRAFF
 62
   254
440
     0
100
AcDbHatch
 10
0.000000
 20
0.000000
 30
0.000000
210
0.000000
220
0.000000
230
1.000000
  2
SOLID
 70
     1
 71
     1
 91
     1
 92
    18
 72
     1
 73
     0
 93
     5
 10
-150.500018
 20
-51.249941
 42
0.000000
 10
-150.500018
 20
-26.249941
 42
0.000000
 10
-152.500018
 20
-26.249941
 42
0.000000
 10
-152.500018
 20
-51.249941
 42
0.000000
 10
-150.500018
 20
-51.249941
 42
0.000000
 97
     0
 75
     0
 76
     1
 98
     0
  0
HATCH
  5
20D
100
AcDbEntity
  8
SCHRAFF
 62
   254
440
     0
100
AcDbHatch
 10
0.000000
 20
0.000000
 30
0.000000
210
0.000000
220
0.000000
230
1.000000
  2
SOLID
 70
     1
 71
     1
 91
     1
 92
    18
 72
     1
 73
     0
 93
     5
 10
-150.500018
 20
-51.249941
 42
0.000000
 10
-107.500018
 20
-51.249941
 42
0.000000
 10
-107.500018
 20
-49.249941
 42
0.000000
 10
-150.500018
 20
-49.249941
 42
0.000000
 10
-150.500018
 20
-51.249941
 42
0.000000
 97
     0
 75
     0
 76
     1
 98
     0
  0
LWPOLYLINE
  5
20E
100
AcDbEntity
  8
Detail
  6
CONTINUOUS
 62
     6
100
AcDbPolyline
 90
     5
 10
-150.500018
 20
-26.249941
 42
0.000000
 10
-82.500018
 20
-26.249941
 42
0.000000
 10
-82.500018
 20
-28.249941
 42
0.000000
 10
-150.500018
 20
-28.249941
 42
0.000000
 10
-150.500018
 20
-26.249941
 42
0.000000
  0
LWPOLYLINE
  5
214
100
AcDbEntity
  8
Detail
  6
CONTINUOUS
 62
     6
100
AcDbPolyline
 90
     5
 10
-150.500018
 20
-49.249941
 42
0.000000
 10
-107.500018
 20
-49.249941
 42
0.000000
 10
-107.500018
 20
-51.249941
 42
0.000000
 10
-150.500018
 20
-51.249941
 42
0.000000
 10
-150.500018
 20
-49.249941
 42
0.000000
  0
LWPOLYLINE
  5
21A
100
AcDbEntity
  8
Detail
  6
CONTINUOUS
 62
     6
100
AcDbPolyline
 90
     5
 10
-152.500018
 20
-26.249941
 42
0.000000
 10
-150.500018
 20
-26.249941
 42
0.000000
 10
-150.500018
 20
-51.249941
 42
0.000000
 10
-152.500018
 20
-51.249941
 42
0.000000
 10
-152.500018
 20
-26.249941
 42
0.000000
  0
ENDBLK
  5
220
100
AcDbEntity
  8
0
100
AcDbBlockEnd
  0
BLOCK
  5
221
100
AcDbEntity
  8
SCHRAFF
100
AcDbBlockBegin
  2
B-2
 70
    66
 10
0.000000
 20
0.000000
 30
0.000000
  0
HATCH
  5
222
100
AcDbEntity
  8
SCHRAFF
 62
    21
440
     0
100
AcDbHatch
 10
0.000000
 20
0.000000
 30
0.000000
210
0.000000
220
0.000000
230
1.000000
  2
SOLID
 70
     1
 71
     1
 91
     1
 92
    18
 72
     1
 73
     0
 93
   327
 10
-47.500018
 20
-14.249941
 42
0.000000
 10
-47.500018
 20
-13.249941
 42
0.000000
 10
-47.000018
 20
-12.249941
 42
0.000000
 10
-47.500018
 20
-11.249941
 42
0.000000
 10
-47.500018
 20
-10.249941
 42
0.000000
 10
-48.000018
 20
-9.249941
 42
0.000000
 10
-47.500018
 20
-8.249941
 42
0.000000
 10
-47.500018
 20
-7.249941
 42
0.000000
 10
-47.000018
 20
-6.249941
 42
0.000000
 10
-47.500018
 20
-5.249941
 42
0.000000
 10
-47.500018
 20
-4.249941
 42
0.000000
 10
-48.000018
 20
-3.249941
 42
0.000000
 10
-47.500018
 20
-2.249941
 42
0.000000
 10
-47.500018
 20
-1.249941
 42
0.000000
 10
-47.000018
 20
-0.249941
 42
0.000000
 10
-47.500018
 20
0.750059
 42
0.000000
 10
-47.500018
 20
1.750059
 42
0.000000
 10
-48.000018
 20
2.750059
 42
0.000000
 10
-47.500018
 20
3.750059
 42
0.000000
 10
-47.500018
 20
4.742392
 42
0.000000
 10
-47.000018
 20
5.750059
 42
0.000000
 10
-47.500018
 20
6.750059
 42
0.000000
 10
-47.500018
 20
7.750059
 42
0.000000
 10
-48.000018
 20
8.750059
 42
0.000000
 10
-47.500018
 20
9.750059
 42
0.000000
 10
-47.500018
 20
10.750059
 42
0.000000
 10
-47.000018
 20
11.750059
 42
0.000000
 10
-47.500018
 20
12.750059
 42
0.000000
 10
-47.500018
 20
13.750059
 42
0.000000
 10
-48.000018
 20
14.750059
 42
0.000000
 10
-47.500018
 20
15.750059
 42
0.000000
 10
-47.500018
 20
16.750059
 42
0.000000
 10
-47.000018
 20
17.750059
 42
0.000000
 10
-47.500018
 20
18.750059
 42
0.000000
 10
-47.500018
 20
19.750059
 42
0.000000
 10
-48.000018
 20
20.750059
 42
0.000000
 10
-47.500018
 20
21.750059
 42
0.000000
 10
-47.500018
 20
22.750059
 42
0.000000
 10
-47.000018
 20
23.750059
 42
0.000000
 10
-47.500018
 20
24.750059
 42
0.000000
 10
-47.500018
 20
25.750059
 42
0.000000
 10
-48.000018
 20
26.750059
 42
0.000000
 10
-47.500018
 20
27.750059
 42
0.000000
 10
-47.500018
 20
28.750059
 42
0.000000
 10
-47.000018
 20
29.750059
 42
0.000000
 10
-47.500018
 20
30.750059
 42
0.000000
 10
-47.500018
 20
31.750059
 42
0.000000
 10
-48.000018
 20
32.750059
 42
0.000000
 10
-47.500018
 20
33.750059
 42
0.000000
 10
-47.500018
 20
34.750059
 42
0.000000
 10
-47.000018
 20
35.750059
 42
0.000000
 10
-47.500018
 20
36.750059
 42
0.000000
 10
-47.500018
 20
37.750059
 42
0.000000
 10
-48.000018
 20
38.750059
 42
0.000000
 10
-47.500018
 20
39.750059
 42
0.000000
 10
-47.500018
 20
40.750059
 42
0.000000
 10
-47.000018
 20
41.750059
 42
0.000000
 10
-47.500018
 20
42.750059
 42
0.000000
 10
-47.500018
 20
43.750059
 42
0.000000
 10
-48.000018
 20
44.750059
 42
0.000000
 10
-47.500018
 20
45.750059
 42
0.000000
 10
-47.500018
 20
46.750059
 42
0.000000
 10
-47.000018
 20
47.750059
 42
0.000000
 10
-47.500018
 20
48.750059
 42
0.000000
 10
-47.500018
 20
49.750059
 42
0.000000
 10
-48.000018
 20
50.750059
 42
0.000000
 10
-47.500018
 20
51.750059
 42
0.000000
 10
-47.500018
 20
52.750059
 42
0.000000
 10
-47.000018
 20
53.750059
 42
0.000000
 10
-47.500018
 20
54.750059
 42
0.000000
 10
-47.500018
 20
55.750059
 42
0.000000
 10
-48.000018
 20
56.750059
 42
0.000000
 10
-47.500018
 20
57.750059
 42
0.000000
 10
-47.500018
 20
58.750059
 42
0.000000
 10
-47.000018
 20
59.750059
 42
0.000000
 10
-47.500018
 20
60.750059
 42
0.000000
 10
-47.500018
 20
61.750059
 42
0.000000
 10
-48.000018
 20
62.750059
 42
0.000000
 10
-47.500018
 20
63.750059
 42
0.000000
 10
-47.500018
 20
64.750059
 42
0.000000
 10
-47.000018
 20
65.750059
 42
0.000000
 10
-47.500018
 20
66.750059
 42
0.000000
 10
-47.500018
 20
67.750059
 42
0.000000
 10
-48.000018
 20
68.750059
 42
0.000000
 10
-47.500018
 20
69.750059
 42
0.000000
 10
-47.500018
 20
70.750059
 42
0.000000
 10
-47.000018
 20
71.750059
 42
0.000000
 10
-47.500018
 20
72.750059
 42
0.000000
 10
-47.500018
 20
73.750059
 42
0.000000
 10
-48.000018
 20
74.750059
 42
0.000000
 10
-47.500018
 20
75.750059
 42
0.000000
 10
-47.500018
 20
76.750059
 42
0.000000
 10
-47.000018
 20
77.750059
 42
0.000000
 10
-47.500018
 20
78.750059
 42
0.000000
 10
-47.500018
 20
79.750059
 42
0.000000
 10
-48.000018
 20
80.750059
 42
0.000000
 10
-47.500018
 20
81.750059
 42
0.000000
 10
-47.500018
 20
82.750059
 42
0.000000
 10
-47.000018
 20
83.750059
 42
0.000000
 10
-47.500018
 20
84.750059
 42
0.000000
 10
-47.500018
 20
85.750059
 42
0.000000
 10
-48.000018
 20
86.750059
 42
0.000000
 10
-47.500018
 20
87.750059
 42
0.000000
 10
-47.500018
 20
88.750059
 42
0.000000
 10
-47.000018
 20
89.750059
 42
0.000000
 10
-47.500018
 20
90.750059
 42
0.000000
 10
-47.500018
 20
91.750059
 42
0.000000
 10
-48.000018
 20
92.750059
 42
0.000000
 10
-47.500018
 20
93.750059
 42
0.000000
 10
-47.500018
 20
94.750059
 42
0.000000
 10
-47.000018
 20
95.750059
 42
0.000000
 10
-47.500018
 20
96.750059
 42
0.000000
 10
-47.500018
 20
97.750059
 42
0.000000
 10
-48.000018
 20
98.750059
 42
0.000000
 10
-47.500018
 20
99.750059
 42
0.000000
 10
-47.500018
 20
100.750059
 42
0.000000
 10
-47.000018
 20
101.750059
 42
0.000000
 10
-47.500018
 20
102.750059
 42
0.000000
 10
-47.500018
 20
103.750059
 42
0.000000
 10
-48.000018
 20
104.750059
 42
0.000000
 10
-47.500018
 20
105.750059
 42
0.000000
 10
-47.500018
 20
106.750059
 42
0.000000
 10
-47.000018
 20
107.750059
 42
0.000000
 10
-47.500018
 20
108.750059
 42
0.000000
 10
-47.500018
 20
109.750059
 42
0.000000
 10
-48.000018
 20
110.750059
 42
0.000000
 10
-47.500018
 20
111.750059
 42
0.000000
 10
-47.500018
 20
112.750059
 42
0.000000
 10
-47.000018
 20
113.750059
 42
0.000000
 10
-47.500018
 20
114.750059
 42
0.000000
 10
-47.500018
 20
115.750059
 42
0.000000
 10
-48.000018
 20
116.750059
 42
0.000000
 10
-47.500018
 20
117.750059
 42
0.000000
 10
-47.500018
 20
118.750059
 42
0.000000
 10
-47.000018
 20
119.750059
 42
0.000000
 10
-47.500018
 20
120.750059
 42
0.000000
 10
-47.500018
 20
121.750059
 42
0.000000
 10
-48.000018
 20
122.750059
 42
0.000000
 10
-47.500018
 20
123.750059
 42
0.000000
 10
-47.500018
 20
124.750059
 42
0.000000
 10
-47.000018
 20
125.750059
 42
0.000000
 10
-47.500018
 20
126.750059
 42
0.000000
 10
-47.500018
 20
127.750059
 42
0.000000
 10
-48.000018
 20
128.750059
 42
0.000000
 10
-47.500018
 20
129.750059
 42
0.000000
 10
-47.500018
 20
130.750059
 42
0.000000
 10
-47.000018
 20
131.750059
 42
0.000000
 10
-47.500018
 20
132.750059
 42
0.000000
 10
-47.500018
 20
133.750059
 42
0.000000
 10
-48.000018
 20
134.750059
 42
0.000000
 10
-47.500018
 20
135.750059
 42
0.000000
 10
-47.500018
 20
136.750059
 42
0.000000
 10
-47.000018
 20
137.750059
 42
0.000000
 10
-47.500018
 20
138.750059
 42
0.000000
 10
-47.500018
 20
139.750059
 42
0.000000
 10
-48.000018
 20
140.750059
 42
0.000000
 10
-47.500018
 20
141.750059
 42
0.000000
 10
-47.500018
 20
142.742392
 42
0.000000
 10
-47.000018
 20
143.750059
 42
0.000000
 10
-47.500018
 20
144.750059
 42
0.000000
 10
-47.500018
 20
145.750059
 42
0.000000
 10
-48.000018
 20
146.750059
 42
0.000000
 10
-47.500018
 20
147.750059
 42
0.000000
 10
-47.500018
 20
148.750059
 42
0.000000
 10
-47.000018
 20
149.750059
 42
0.000000
 10
-47.500018
 20
150.750059
 42
0.000000
 10
-47.500018
 20
151.750059
 42
0.000000
 10
-48.000018
 20
152.750059
 42
0.000000
 10
-47.500018
 20
153.750059
 42
0.000000
 10
-47.500018
 20
154.750059
 42
0.000000
 10
-47.000018
 20
155.750059
 42
0.000000
 10
-47.500018
 20
156.750059
 42
0.000000
 10
-47.500018
 20
157.750059
 42
0.000000
 10
-48.000018
 20
158.750059
 42
0.000000
 10
-47.500018
 20
159.750059
 42
0.000000
 10
-47.500018
 20
160.750059
 42
0.000000
 10
-47.000018
 20
161.750059
 42
0.000000
 10
-47.500018
 20
162.750059
 42
0.000000
 10
-47.500018
 20
163.750059
 42
0.000000
 10
-48.000018
 20
164.750059
 42
0.000000
 10
-47.500018
 20
165.750059
 42
0.000000
 10
-47.500018
 20
166.750059
 42
0.000000
 10
-47.000018
 20
167.750059
 42
0.000000
 10
-47.500018
 20
168.750059
 42
0.000000
 10
-47.500018
 20
169.750059
 42
0.000000
 10
-48.000018
 20
170.750059
 42
0.000000
 10
-47.500018
 20
171.750059
 42
0.000000
 10
-47.500018
 20
172.750059
 42
0.000000
 10
-47.000018
 20
173.750059
 42
0.000000
 10
-47.495620
 20
174.741263
 42
0.000000
 10
-47.500018
 20
175.750059
 42
0.000000
 10
-48.000018
 20
176.750059
 42
0.000000
 10
-47.500018
 20
177.750059
 42
0.000000
 10
-47.500018
 20
178.750059
 42
0.000000
 10
-47.000018
 20
179.750059
 42
0.000000
 10
-47.500018
 20
180.750059
 42
0.000000
 10
-47.500018
 20
181.750059
 42
0.000000
 10
-48.000018
 20
182.750059
 42
0.000000
 10
-47.500018
 20
183.750059
 42
0.000000
 10
-47.500018
 20
184.750059
 42
0.000000
 10
-47.000018
 20
185.750059
 42
0.000000
 10
-47.500018
 20
186.750059
 42
0.000000
 10
-47.500018
 20
187.750059
 42
0.000000
 10
-48.000018
 20
188.750059
 42
0.000000
 10
-47.500018
 20
189.750059
 42
0.000000
 10
-47.500018
 20
190.750059
 42
0.000000
 10
-47.000018
 20
191.750059
 42
0.000000
 10
-47.500018
 20
192.750059
 42
0.000000
 10
-47.500018
 20
193.750059
 42
0.000000
 10
-48.000018
 20
194.750059
 42
0.000000
 10
-47.500018
 20
195.750059
 42
0.000000
 10
-47.500018
 20
196.750059
 42
0.000000
 10
-47.000018
 20
197.750059
 42
0.000000
 10
-47.500018
 20
198.750059
 42
0.000000
 10
-47.500018
 20
199.750059
 42
0.000000
 10
-48.000018
 20
200.750059
 42
0.000000
 10
-47.500018
 20
201.750059
 42
0.000000
 10
-47.500018
 20
202.750059
 42
0.000000
 10
-47.000018
 20
203.750059
 42
0.000000
 10
-47.500018
 20
204.750059
 42
0.000000
 10
-47.500018
 20
205.750059
 42
0.000000
 10
-48.000018
 20
206.750059
 42
0.000000
 10
-47.500018
 20
207.750059
 42
0.000000
 10
-47.500018
 20
208.750059
 42
0.000000
 10
-47.000018
 20
209.750059
 42
0.000000
 10
-47.500018
 20
210.750059
 42
0.000000
 10
-47.500018
 20
211.750059
 42
0.000000
 10
-48.000018
 20
212.750059
 42
0.000000
 10
-47.500018
 20
213.750059
 42
0.000000
 10
-47.500018
 20
214.750059
 42
0.000000
 10
-47.000018
 20
215.750059
 42
0.000000
 10
-47.500018
 20
216.750059
 42
0.000000
 10
-47.500018
 20
217.750059
 42
0.000000
 10
-48.000018
 20
218.750059
 42
0.000000
 10
-47.500018
 20
219.750059
 42
0.000000
 10
-47.500018
 20
220.750059
 42
0.000000
 10
-47.000018
 20
221.750059
 42
0.000000
 10
-47.500018
 20
222.750059
 42
0.000000
 10
-47.500018
 20
223.750059
 42
0.000000
 10
-48.000018
 20
224.750059
 42
0.000000
 10
-47.500018
 20
225.750059
 42
0.000000
 10
-47.500018
 20
226.750059
 42
0.000000
 10
-47.000018
 20
227.750059
 42
0.000000
 10
-47.500018
 20
228.750059
 42
0.000000
 10
-47.500018
 20
229.750059
 42
0.000000
 10
-48.000018
 20
230.750059
 42
0.000000
 10
-47.500018
 20
231.750059
 42
0.000000
 10
-47.500018
 20
232.750059
 42
0.000000
 10
-47.000018
 20
233.750059
 42
0.000000
 10
-47.500018
 20
234.750059
 42
0.000000
 10
-47.500018
 20
235.750059
 42
0.000000
 10
-48.000018
 20
236.750059
 42
0.000000
 10
-47.500018
 20
237.750059
 42
0.000000
 10
-47.500018
 20
238.750059
 42
0.000000
 10
-47.000018
 20
239.750059
 42
0.000000
 10
-47.500018
 20
240.750059
 42
0.000000
 10
-47.500018
 20
241.750059
 42
0.000000
 10
-48.000018
 20
242.750059
 42
0.000000
 10
-47.500018
 20
243.750059
 42
0.000000
 10
-47.500018
 20
244.750059
 42
0.000000
 10
-47.000018
 20
245.750059
 42
0.000000
 10
-47.500018
 20
246.750059
 42
0.000000
 10
-47.500018
 20
247.750059
 42
0.000000
 10
-48.000018
 20
248.750059
 42
0.000000
 10
-47.500018
 20
249.750059
 42
0.000000
 10
-47.500018
 20
250.742392
 42
0.000000
 10
-47.000018
 20
251.750059
 42
0.000000
 10
-47.500018
 20
252.750059
 42
0.000000
 10
-47.500018
 20
253.750059
 42
0.000000
 10
-48.000018
 20
254.750059
 42
0.000000
 10
-47.500018
 20
255.750059
 42
0.000000
 10
-47.500018
 20
256.750059
 42
0.000000
 10
-47.000018
 20
257.750059
 42
0.000000
 10
-47.500018
 20
258.750059
 42
0.000000
 10
-47.500018
 20
259.750059
 42
0.000000
 10
-48.000018
 20
260.750059
 42
0.000000
 10
-47.500018
 20
261.750059
 42
0.000000
 10
-47.500018
 20
262.750059
 42
0.000000
 10
-47.000018
 20
263.750059
 42
0.000000
 10
-47.500018
 20
264.750059
 42
0.000000
 10
-47.500018
 20
265.750059
 42
0.000000
 10
-48.000018
 20
266.750059
 42
0.000000
 10
-47.500018
 20
267.750059
 42
0.000000
 10
-47.500018
 20
268.750059
 42
0.000000
 10
-47.000018
 20
269.750059
 42
0.000000
 10
-47.500018
 20
270.750059
 42
0.000000
 10
-47.500018
 20
271.750059
 42
0.000000
 10
-48.000018
 20
272.750059
 42
0.000000
 10
-47.500018
 20
273.750059
 42
0.000000
 10
-47.500018
 20
274.750059
 42
0.000000
 10
-47.000018
 20
275.750059
 42
0.000000
 10
-47.500018
 20
276.750059
 42
0.000000
 10
-47.500018
 20
277.750059
 42
0.000000
 10
-48.000018
 20
278.750059
 42
0.000000
 10
-47.500018
 20
279.750059
 42
0.000000
 10
-47.500018
 20
280.750059
 42
0.000000
 10
-47.000018
 20
281.750059
 42
0.000000
 10
-47.500018
 20
282.750059
 42
0.000000
 10
-47.500018
 20
283.750059
 42
0.000000
 10
-48.000018
 20
284.750059
 42
0.000000
 10
-47.500018
 20
285.750059
 42
0.000000
 10
-47.500018
 20
286.742392
 42
0.000000
 10
-47.000018
 20
287.750059
 42
0.000000
 10
-47.500018
 20
288.750059
 42
0.000000
 10
-47.500018
 20
289.750059
 42
0.000000
 10
-48.000018
 20
290.750059
 42
0.000000
 10
-47.500018
 20
291.750059
 42
0.000000
 10
-47.500018
 20
292.750059
 42
0.000000
 10
-47.000018
 20
293.750059
 42
0.000000
 10
-47.500018
 20
294.750059
 42
0.000000
 10
-47.500018
 20
295.750059
 42
0.000000
 10
-47.750027
 20
296.250078
 42
0.000000
 10
-57.500018
 20
296.250078
 42
0.000000
 10
-57.500018
 20
-26.249941
 42
0.000000
 10
-47.500018
 20
-26.249941
 42
0.000000
 10
-47.500018
 20
-25.249941
 42
0.000000
 10
-47.000018
 20
-24.249941
 42
0.000000
 10
-47.500018
 20
-23.249941
 42
0.000000
 10
-47.500018
 20
-22.249941
 42
0.000000
 10
-48.000018
 20
-21.249941
 42
0.000000
 10
-47.500018
 20
-20.249941
 42
0.000000
 10
-47.500018
 20
-19.249941
 42
0.000000
 10
-47.007096
 20
-18.264098
 42
0.000000
 10
-47.500018
 20
-17.249941
 42
0.000000
 10
-47.500018
 20
-16.249941
 42
0.000000
 10
-48.000018
 20
-15.249941
 42
0.000000
 10
-47.500018
 20
-14.249941
 42
0.000000
 97
     0
 75
     0
 76
     1
 98
     0
  0
HATCH
  5
223
100
AcDbEntity
  8
SCHRAFF
 62
    21
440
     0
100
AcDbHatch
 10
0.000000
 20
0.000000
 30
0.000000
210
0.000000
220
0.000000
230
1.000000
  2
SOLID
 70
     1
 71
     1
 91
     1
 92
    18
 72
     1
 73
     0
 93
   259
 10
-7.500018
 20
-31.749941
 42
0.000000
 10
-8.500018
 20
-31.249941
 42
0.000000
 10
-9.500018
 20
-31.249941
 42
0.000000
 10
-10.500018
 20
-30.749941
 42
0.000000
 10
-11.507685
 20
-31.249941
 42
0.000000
 10
-12.500018
 20
-31.249941
 42
0.000000
 10
-13.500018
 20
-31.749941
 42
0.000000
 10
-14.500018
 20
-31.249941
 42
0.000000
 10
-15.500018
 20
-31.249941
 42
0.000000
 10
-16.500018
 20
-30.749941
 42
0.000000
 10
-17.500018
 20
-31.249941
 42
0.000000
 10
-18.500018
 20
-31.249941
 42
0.000000
 10
-19.500018
 20
-31.749941
 42
0.000000
 10
-20.500018
 20
-31.249941
 42
0.000000
 10
-21.500018
 20
-31.249941
 42
0.000000
 10
-22.500018
 20
-30.749941
 42
0.000000
 10
-23.500018
 20
-31.249941
 42
0.000000
 10
-24.500018
 20
-31.249941
 42
0.000000
 10
-25.500018
 20
-31.749941
 42
0.000000
 10
-26.500018
 20
-31.249941
 42
0.000000
 10
-27.500018
 20
-31.249941
 42
0.000000
 10
-28.500018
 20
-30.749941
 42
0.000000
 10
-29.500018
 20
-31.249941
 42
0.000000
 10
-30.500018
 20
-31.249941
 42
0.000000
 10
-31.500018
 20
-31.749941
 42
0.000000
 10
-32.500018
 20
-31.249941
 42
0.000000
 10
-33.500018
 20
-31.249941
 42
0.000000
 10
-34.500018
 20
-30.749941
 42
0.000000
 10
-35.507685
 20
-31.249941
 42
0.000000
 10
-36.500018
 20
-31.249941
 42
0.000000
 10
-37.500018
 20
-31.749941
 42
0.000000
 10
-38.500018
 20
-31.249941
 42
0.000000
 10
-39.500018
 20
-31.249941
 42
0.000000
 10
-40.500018
 20
-30.749941
 42
0.000000
 10
-41.500018
 20
-31.249941
 42
0.000000
 10
-42.500018
 20
-31.249941
 42
0.000000
 10
-42.500018
 20
-41.249941
 42
0.000000
 10
212.500023
 20
-41.249941
 42
0.000000
 10
212.499982
 20
-31.249941
 42
0.000000
 10
211.499982
 20
-30.749941
 42
0.000000
 10
210.499982
 20
-31.249941
 42
0.000000
 10
209.499982
 20
-31.249941
 42
0.000000
 10
208.499982
 20
-31.749941
 42
0.000000
 10
207.499982
 20
-31.249941
 42
0.000000
 10
206.499982
 20
-31.249941
 42
0.000000
 10
205.499982
 20
-30.749941
 42
0.000000
 10
204.499982
 20
-31.249941
 42
0.000000
 10
203.499982
 20
-31.249941
 42
0.000000
 10
202.499982
 20
-31.749941
 42
0.000000
 10
201.499982
 20
-31.249941
 42
0.000000
 10
200.499982
 20
-31.249941
 42
0.000000
 10
199.499982
 20
-30.749941
 42
0.000000
 10
198.499982
 20
-31.249941
 42
0.000000
 10
197.499982
 20
-31.249941
 42
0.000000
 10
196.499982
 20
-31.749941
 42
0.000000
 10
195.499982
 20
-31.249941
 42
0.000000
 10
194.499982
 20
-31.249941
 42
0.000000
 10
193.499982
 20
-30.749941
 42
0.000000
 10
192.499982
 20
-31.249941
 42
0.000000
 10
191.499982
 20
-31.249941
 42
0.000000
 10
190.499982
 20
-31.749941
 42
0.000000
 10
189.499982
 20
-31.249941
 42
0.000000
 10
188.499982
 20
-31.249941
 42
0.000000
 10
187.499982
 20
-30.749941
 42
0.000000
 10
186.499982
 20
-31.249941
 42
0.000000
 10
185.499982
 20
-31.249941
 42
0.000000
 10
184.499982
 20
-31.749941
 42
0.000000
 10
183.499982
 20
-31.249941
 42
0.000000
 10
182.499982
 20
-31.249941
 42
0.000000
 10
181.499982
 20
-30.749941
 42
0.000000
 10
180.499982
 20
-31.249941
 42
0.000000
 10
179.499982
 20
-31.249941
 42
0.000000
 10
178.499982
 20
-31.749941
 42
0.000000
 10
177.499982
 20
-31.249941
 42
0.000000
 10
176.499982
 20
-31.249941
 42
0.000000
 10
175.499982
 20
-30.749941
 42
0.000000
 10
174.499982
 20
-31.249941
 42
0.000000
 10
173.499982
 20
-31.249941
 42
0.000000
 10
172.499982
 20
-31.749941
 42
0.000000
 10
171.499982
 20
-31.249941
 42
0.000000
 10
170.499982
 20
-31.249941
 42
0.000000
 10
169.499982
 20
-30.749941
 42
0.000000
 10
168.499982
 20
-31.249941
 42
0.000000
 10
167.499982
 20
-31.249941
 42
0.000000
 10
166.499982
 20
-31.749941
 42
0.000000
 10
165.499982
 20
-31.249941
 42
0.000000
 10
164.499982
 20
-31.249941
 42
0.000000
 10
163.499982
 20
-30.749941
 42
0.000000
 10
162.499982
 20
-31.249941
 42
0.000000
 10
161.499982
 20
-31.249941
 42
0.000000
 10
160.499982
 20
-31.749941
 42
0.000000
 10
159.499982
 20
-31.249941
 42
0.000000
 10
158.491186
 20
-31.245543
 42
0.000000
 10
157.499982
 20
-30.749941
 42
0.000000
 10
156.499982
 20
-31.249941
 42
0.000000
 10
155.499982
 20
-31.249941
 42
0.000000
 10
154.499982
 20
-31.749941
 42
0.000000
 10
153.499982
 20
-31.249941
 42
0.000000
 10
152.499982
 20
-31.249941
 42
0.000000
 10
151.499982
 20
-30.749941
 42
0.000000
 10
150.499982
 20
-31.249941
 42
0.000000
 10
149.499982
 20
-31.249941
 42
0.000000
 10
148.499982
 20
-31.749941
 42
0.000000
 10
147.499982
 20
-31.249941
 42
0.000000
 10
146.499982
 20
-31.249941
 42
0.000000
 10
145.499982
 20
-30.749941
 42
0.000000
 10
144.499982
 20
-31.249941
 42
0.000000
 10
143.499982
 20
-31.249941
 42
0.000000
 10
142.499982
 20
-31.749941
 42
0.000000
 10
141.499982
 20
-31.249941
 42
0.000000
 10
140.499982
 20
-31.249941
 42
0.000000
 10
139.499982
 20
-30.749941
 42
0.000000
 10
138.499982
 20
-31.249941
 42
0.000000
 10
137.499982
 20
-31.249941
 42
0.000000
 10
136.499982
 20
-31.749941
 42
0.000000
 10
135.499982
 20
-31.249941
 42
0.000000
 10
134.499982
 20
-31.249941
 42
0.000000
 10
133.499982
 20
-30.749941
 42
0.000000
 10
132.499982
 20
-31.249941
 42
0.000000
 10
131.499982
 20
-31.249941
 42
0.000000
 10
130.499982
 20
-31.749941
 42
0.000000
 10
129.499982
 20
-31.249941
 42
0.000000
 10
128.499982
 20
-31.249941
 42
0.000000
 10
127.499982
 20
-30.749941
 42
0.000000
 10
126.492315
 20
-31.249941
 42
0.000000
 10
125.499982
 20
-31.249941
 42
0.000000
 10
124.499982
 20
-31.749941
 42
0.000000
 10
123.499982
 20
-31.249941
 42
0.000000
 10
122.499982
 20
-31.249941
 42
0.000000
 10
121.499982
 20
-30.749941
 42
0.000000
 10
120.499982
 20
-31.249941
 42
0.000000
 10
119.499982
 20
-31.249941
 42
0.000000
 10
118.499982
 20
-31.749941
 42
0.000000
 10
117.499982
 20
-31.249941
 42
0.000000
 10
116.499982
 20
-31.249941
 42
0.000000
 10
115.499982
 20
-30.749941
 42
0.000000
 10
114.499982
 20
-31.249941
 42
0.000000
 10
113.499982
 20
-31.249941
 42
0.000000
 10
112.499982
 20
-31.749941
 42
0.000000
 10
111.499982
 20
-31.249941
 42
0.000000
 10
110.499982
 20
-31.249941
 42
0.000000
 10
109.499982
 20
-30.749941
 42
0.000000
 10
108.499982
 20
-31.249941
 42
0.000000
 10
107.499982
 20
-31.249941
 42
0.000000
 10
106.499982
 20
-31.749941
 42
0.000000
 10
105.499982
 20
-31.249941
 42
0.000000
 10
104.499982
 20
-31.249941
 42
0.000000
 10
103.499982
 20
-30.749941
 42
0.000000
 10
102.499982
 20
-31.249941
 42
0.000000
 10
101.499982
 20
-31.249941
 42
0.000000
 10
100.499982
 20
-31.749941
 42
0.000000
 10
99.499982
 20
-31.249941
 42
0.000000
 10
98.499982
 20
-31.249941
 42
0.000000
 10
97.499982
 20
-30.749941
 42
0.000000
 10
96.499982
 20
-31.249941
 42
0.000000
 10
95.499982
 20
-31.249941
 42
0.000000
 10
94.499982
 20
-31.749941
 42
0.000000
 10
93.499982
 20
-31.249941
 42
0.000000
 10
92.499982
 20
-31.249941
 42
0.000000
 10
91.499982
 20
-30.749941
 42
0.000000
 10
90.499982
 20
-31.249941
 42
0.000000
 10
89.499982
 20
-31.249941
 42
0.000000
 10
88.499982
 20
-31.749941
 42
0.000000
 10
87.499982
 20
-31.249941
 42
0.000000
 10
86.499982
 20
-31.249941
 42
0.000000
 10
85.499982
 20
-30.749941
 42
0.000000
 10
84.499982
 20
-31.249941
 42
0.000000
 10
83.499982
 20
-31.249941
 42
0.000000
 10
82.499982
 20
-31.749941
 42
0.000000
 10
81.499982
 20
-31.249941
 42
0.000000
 10
80.499982
 20
-31.249941
 42
0.000000
 10
79.499982
 20
-30.749941
 42
0.000000
 10
78.499982
 20
-31.249941
 42
0.000000
 10
77.499982
 20
-31.249941
 42
0.000000
 10
76.499982
 20
-31.749941
 42
0.000000
 10
75.499982
 20
-31.249941
 42
0.000000
 10
74.499982
 20
-31.249941
 42
0.000000
 10
73.499982
 20
-30.749941
 42
0.000000
 10
72.499982
 20
-31.249941
 42
0.000000
 10
71.499982
 20
-31.249941
 42
0.000000
 10
70.499982
 20
-31.749941
 42
0.000000
 10
69.499982
 20
-31.249941
 42
0.000000
 10
68.499982
 20
-31.249941
 42
0.000000
 10
67.499982
 20
-30.749941
 42
0.000000
 10
66.499982
 20
-31.249941
 42
0.000000
 10
65.499982
 20
-31.249941
 42
0.000000
 10
64.499982
 20
-31.749941
 42
0.000000
 10
63.499982
 20
-31.249941
 42
0.000000
 10
62.499982
 20
-31.249941
 42
0.000000
 10
61.499982
 20
-30.749941
 42
0.000000
 10
60.499982
 20
-31.249941
 42
0.000000
 10
59.499982
 20
-31.249941
 42
0.000000
 10
58.499982
 20
-31.749941
 42
0.000000
 10
57.499982
 20
-31.249941
 42
0.000000
 10
56.499982
 20
-31.249941
 42
0.000000
 10
55.499982
 20
-30.749941
 42
0.000000
 10
54.499982
 20
-31.249941
 42
0.000000
 10
53.499982
 20
-31.249941
 42
0.000000
 10
52.499982
 20
-31.749941
 42
0.000000
 10
51.499982
 20
-31.249941
 42
0.000000
 10
50.499982
 20
-31.249941
 42
0.000000
 10
49.499982
 20
-30.749941
 42
0.000000
 10
48.499982
 20
-31.249941
 42
0.000000
 10
47.499982
 20
-31.249941
 42
0.000000
 10
46.499982
 20
-31.749941
 42
0.000000
 10
45.499982
 20
-31.249941
 42
0.000000
 10
44.499982
 20
-31.249941
 42
0.000000
 10
43.499982
 20
-30.749941
 42
0.000000
 10
42.499982
 20
-31.249941
 42
0.000000
 10
41.499982
 20
-31.249941
 42
0.000000
 10
40.499982
 20
-31.749941
 42
0.000000
 10
39.499982
 20
-31.249941
 42
0.000000
 10
38.499982
 20
-31.249941
 42
0.000000
 10
37.499982
 20
-30.749941
 42
0.000000
 10
36.499982
 20
-31.249941
 42
0.000000
 10
35.499982
 20
-31.249941
 42
0.000000
 10
34.499982
 20
-31.749941
 42
0.000000
 10
33.499982
 20
-31.249941
 42
0.000000
 10
32.499982
 20
-31.249941
 42
0.000000
 10
31.499982
 20
-30.749941
 42
0.000000
 10
30.499982
 20
-31.249941
 42
0.000000
 10
29.499982
 20
-31.249941
 42
0.000000
 10
28.499982
 20
-31.749941
 42
0.000000
 10
27.499982
 20
-31.249941
 42
0.000000
 10
26.499982
 20
-31.249941
 42
0.000000
 10
25.499982
 20
-30.749941
 42
0.000000
 10
24.499982
 20
-31.249941
 42
0.000000
 10
23.499982
 20
-31.249941
 42
0.000000
 10
22.499982
 20
-31.749941
 42
0.000000
 10
21.499982
 20
-31.249941
 42
0.000000
 10
20.499982
 20
-31.249941
 42
0.000000
 10
19.499982
 20
-30.749941
 42
0.000000
 10
18.499982
 20
-31.249941
 42
0.000000
 10
17.499982
 20
-31.249941
 42
0.000000
 10
16.499982
 20
-31.749941
 42
0.000000
 10
15.499982
 20
-31.249941
 42
0.000000
 10
14.499982
 20
-31.249941
 42
0.000000
 10
13.499982
 20
-30.749941
 42
0.000000
 10
12.499982
 20
-31.249941
 42
0.000000
 10
11.499982
 20
-31.249941
 42
0.000000
 10
10.499982
 20
-31.749941
 42
0.000000
 10
9.499982
 20
-31.249941
 42
0.000000
 10
8.499982
 20
-31.249941
 42
0.000000
 10
7.499982
 20
-30.749941
 42
0.000000
 10
6.499982
 20
-31.249941
 42
0.000000
 10
5.499982
 20
-31.249941
 42
0.000000
 10
4.499982
 20
-31.749941
 42
0.000000
 10
3.499982
 20
-31.249941
 42
0.000000
 10
2.499982
 20
-31.249941
 42
0.000000
 10
1.499982
 20
-30.749941
 42
0.000000
 10
0.499982
 20
-31.249941
 42
0.000000
 10
-0.500018
 20
-31.249941
 42
0.000000
 10
-1.500018
 20
-31.749941
 42
0.000000
 10
-2.500018
 20
-31.249941
 42
0.000000
 10
-3.500018
 20
-31.249941
 42
0.000000
 10
-4.500018
 20
-30.749941
 42
0.000000
 10
-5.500018
 20
-31.249941
 42
0.000000
 10
-6.500018
 20
-31.249941
 42
0.000000
 10
-7.500018
 20
-31.749941
 42
0.000000
 97
     0
 75
     0
 76
     1
 98
     0
  0
ENDBLK
  5
224
100
AcDbEntity
  8
0
100
AcDbBlockEnd
  0
BLOCK
  5
225
100
AcDbEntity
  8
Detail
100
AcDbBlockBegin
  2
B-3
 70
    66
 10
0.000000
 20
0.000000
 30
0.000000
  0
LWPOLYLINE
  5
226
100
AcDbEntity
  8
Detail
  6
CONTINUOUS
 62
     6
100
AcDbPolyline
 90
   256
 10
212.499982
 20
-31.249941
 42
0.000000
 10
211.499982
 20
-30.749941
 42
0.000000
 10
210.499982
 20
-31.249941
 42
0.000000
 10
209.499982
 20
-31.249941
 42
0.000000
 10
208.499982
 20
-31.749941
 42
0.000000
 10
207.499982
 20
-31.249941
 42
0.000000
 10
206.499982
 20
-31.249941
 42
0.000000
 10
205.499982
 20
-30.749941
 42
0.000000
 10
204.499982
 20
-31.249941
 42
0.000000
 10
203.499982
 20
-31.249941
 42
0.000000
 10
202.499982
 20
-31.749941
 42
0.000000
 10
201.499982
 20
-31.249941
 42
0.000000
 10
200.499982
 20
-31.249941
 42
0.000000
 10
199.499982
 20
-30.749941
 42
0.000000
 10
198.499982
 20
-31.249941
 42
0.000000
 10
197.499982
 20
-31.249941
 42
0.000000
 10
196.499982
 20
-31.749941
 42
0.000000
 10
195.499982
 20
-31.249941
 42
0.000000
 10
194.499982
 20
-31.249941
 42
0.000000
 10
193.499982
 20
-30.749941
 42
0.000000
 10
192.499982
 20
-31.249941
 42
0.000000
 10
191.499982
 20
-31.249941
 42
0.000000
 10
190.499982
 20
-31.749941
 42
0.000000
 10
189.499982
 20
-31.249941
 42
0.000000
 10
188.499982
 20
-31.249941
 42
0.000000
 10
187.499982
 20
-30.749941
 42
0.000000
 10
186.499982
 20
-31.249941
 42
0.000000
 10
185.499982
 20
-31.249941
 42
0.000000
 10
184.499982
 20
-31.749941
 42
0.000000
 10
183.499982
 20
-31.249941
 42
0.000000
 10
182.499982
 20
-31.249941
 42
0.000000
 10
181.499982
 20
-30.749941
 42
0.000000
 10
180.499982
 20
-31.249941
 42
0.000000
 10
179.499982
 20
-31.249941
 42
0.000000
 10
178.499982
 20
-31.749941
 42
0.000000
 10
177.499982
 20
-31.249941
 42
0.000000
 10
176.499982
 20
-31.249941
 42
0.000000
 10
175.499982
 20
-30.749941
 42
0.000000
 10
174.499982
 20
-31.249941
 42
0.000000
 10
173.499982
 20
-31.249941
 42
0.000000
 10
172.499982
 20
-31.749941
 42
0.000000
 10
171.499982
 20
-31.249941
 42
0.000000
 10
170.499982
 20
-31.249941
 42
0.000000
 10
169.499982
 20
-30.749941
 42
0.000000
 10
168.499982
 20
-31.249941
 42
0.000000
 10
167.499982
 20
-31.249941
 42
0.000000
 10
166.499982
 20
-31.749941
 42
0.000000
 10
165.499982
 20
-31.249941
 42
0.000000
 10
164.499982
 20
-31.249941
 42
0.000000
 10
163.499982
 20
-30.749941
 42
0.000000
 10
162.499982
 20
-31.249941
 42
0.000000
 10
161.499982
 20
-31.249941
 42
0.000000
 10
160.499982
 20
-31.749941
 42
0.000000
 10
159.499982
 20
-31.249941
 42
0.000000
 10
158.491186
 20
-31.245543
 42
0.000000
 10
157.499982
 20
-30.749941
 42
0.000000
 10
156.499982
 20
-31.249941
 42
0.000000
 10
155.499982
 20
-31.249941
 42
0.000000
 10
154.499982
 20
-31.749941
 42
0.000000
 10
153.499982
 20
-31.249941
 42
0.000000
 10
152.499982
 20
-31.249941
 42
0.000000
 10
151.499982
 20
-30.749941
 42
0.000000
 10
150.499982
 20
-31.249941
 42
0.000000
 10
149.499982
 20
-31.249941
 42
0.000000
 10
148.499982
 20
-31.749941
 42
0.000000
 10
147.499982
 20
-31.249941
 42
0.000000
 10
146.499982
 20
-31.249941
 42
0.000000
 10
145.499982
 20
-30.749941
 42
0.000000
 10
144.499982
 20
-31.249941
 42
0.000000
 10
143.499982
 20
-31.249941
 42
0.000000
 10
142.499982
 20
-31.749941
 42
0.000000
 10
141.499982
 20
-31.249941
 42
0.000000
 10
140.499982
 20
-31.249941
 42
0.000000
 10
139.499982
 20
-30.749941
 42
0.000000
 10
138.499982
 20
-31.249941
 42
0.000000
 10
137.499982
 20
-31.249941
 42
0.000000
 10
136.499982
 20
-31.749941
 42
0.000000
 10
135.499982
 20
-31.249941
 42
0.000000
 10
134.499982
 20
-31.249941
 42
0.000000
 10
133.499982
 20
-30.749941
 42
0.000000
 10
132.499982
 20
-31.249941
 42
0.000000
 10
131.499982
 20
-31.249941
 42
0.000000
 10
130.499982
 20
-31.749941
 42
0.000000
 10
129.499982
 20
-31.249941
 42
0.000000
 10
128.499982
 20
-31.249941
 42
0.000000
 10
127.499982
 20
-30.749941
 42
0.000000
 10
126.492315
 20
-31.249941
 42
0.000000
 10
125.499982
 20
-31.249941
 42
0.000000
 10
124.499982
 20
-31.749941
 42
0.000000
 10
123.499982
 20
-31.249941
 42
0.000000
 10
122.499982
 20
-31.249941
 42
0.000000
 10
121.499982
 20
-30.749941
 42
0.000000
 10
120.499982
 20
-31.249941
 42
0.000000
 10
119.499982
 20
-31.249941
 42
0.000000
 10
118.499982
 20
-31.749941
 42
0.000000
 10
117.499982
 20
-31.249941
 42
0.000000
 10
116.499982
 20
-31.249941
 42
0.000000
 10
115.499982
 20
-30.749941
 42
0.000000
 10
114.499982
 20
-31.249941
 42
0.000000
 10
113.499982
 20
-31.249941
 42
0.000000
 10
112.499982
 20
-31.749941
 42
0.000000
 10
111.499982
 20
-31.249941
 42
0.000000
 10
110.499982
 20
-31.249941
 42
0.000000
 10
109.499982
 20
-30.749941
 42
0.000000
 10
108.499982
 20
-31.249941
 42
0.000000
 10
107.499982
 20
-31.249941
 42
0.000000
 10
106.499982
 20
-31.749941
 42
0.000000
 10
105.499982
 20
-31.249941
 42
0.000000
 10
104.499982
 20
-31.249941
 42
0.000000
 10
103.499982
 20
-30.749941
 42
0.000000
 10
102.499982
 20
-31.249941
 42
0.000000
 10
101.499982
 20
-31.249941
 42
0.000000
 10
100.499982
 20
-31.749941
 42
0.000000
 10
99.499982
 20
-31.249941
 42
0.000000
 10
98.499982
 20
-31.249941
 42
0.000000
 10
97.499982
 20
-30.749941
 42
0.000000
 10
96.499982
 20
-31.249941
 42
0.000000
 10
95.499982
 20
-31.249941
 42
0.000000
 10
94.499982
 20
-31.749941
 42
0.000000
 10
93.499982
 20
-31.249941
 42
0.000000
 10
92.499982
 20
-31.249941
 42
0.000000
 10
91.499982
 20
-30.749941
 42
0.000000
 10
90.499982
 20
-31.249941
 42
0.000000
 10
89.499982
 20
-31.249941
 42
0.000000
 10
88.499982
 20
-31.749941
 42
0.000000
 10
87.499982
 20
-31.249941
 42
0.000000
 10
86.499982
 20
-31.249941
 42
0.000000
 10
85.499982
 20
-30.749941
 42
0.000000
 10
84.499982
 20
-31.249941
 42
0.000000
 10
83.499982
 20
-31.249941
 42
0.000000
 10
82.499982
 20
-31.749941
 42
0.000000
 10
81.499982
 20
-31.249941
 42
0.000000
 10
80.499982
 20
-31.249941
 42
0.000000
 10
79.499982
 20
-30.749941
 42
0.000000
 10
78.499982
 20
-31.249941
 42
0.000000
 10
77.499982
 20
-31.249941
 42
0.000000
 10
76.499982
 20
-31.749941
 42
0.000000
 10
75.499982
 20
-31.249941
 42
0.000000
 10
74.499982
 20
-31.249941
 42
0.000000
 10
73.499982
 20
-30.749941
 42
0.000000
 10
72.499982
 20
-31.249941
 42
0.000000
 10
71.499982
 20
-31.249941
 42
0.000000
 10
70.499982
 20
-31.749941
 42
0.000000
 10
69.499982
 20
-31.249941
 42
0.000000
 10
68.499982
 20
-31.249941
 42
0.000000
 10
67.499982
 20
-30.749941
 42
0.000000
 10
66.499982
 20
-31.249941
 42
0.000000
 10
65.499982
 20
-31.249941
 42
0.000000
 10
64.499982
 20
-31.749941
 42
0.000000
 10
63.499982
 20
-31.249941
 42
0.000000
 10
62.499982
 20
-31.249941
 42
0.000000
 10
61.499982
 20
-30.749941
 42
0.000000
 10
60.499982
 20
-31.249941
 42
0.000000
 10
59.499982
 20
-31.249941
 42
0.000000
 10
58.499982
 20
-31.749941
 42
0.000000
 10
57.499982
 20
-31.249941
 42
0.000000
 10
56.499982
 20
-31.249941
 42
0.000000
 10
55.499982
 20
-30.749941
 42
0.000000
 10
54.499982
 20
-31.249941
 42
0.000000
 10
53.499982
 20
-31.249941
 42
0.000000
 10
52.499982
 20
-31.749941
 42
0.000000
 10
51.499982
 20
-31.249941
 42
0.000000
 10
50.499982
 20
-31.249941
 42
0.000000
 10
49.499982
 20
-30.749941
 42
0.000000
 10
48.499982
 20
-31.249941
 42
0.000000
 10
47.499982
 20
-31.249941
 42
0.000000
 10
46.499982
 20
-31.749941
 42
0.000000
 10
45.499982
 20
-31.249941
 42
0.000000
 10
44.499982
 20
-31.249941
 42
0.000000
 10
43.499982
 20
-30.749941
 42
0.000000
 10
42.499982
 20
-31.249941
 42
0.000000
 10
41.499982
 20
-31.249941
 42
0.000000
 10
40.499982
 20
-31.749941
 42
0.000000
 10
39.499982
 20
-31.249941
 42
0.000000
 10
38.499982
 20
-31.249941
 42
0.000000
 10
37.499982
 20
-30.749941
 42
0.000000
 10
36.499982
 20
-31.249941
 42
0.000000
 10
35.499982
 20
-31.249941
 42
0.000000
 10
34.499982
 20
-31.749941
 42
0.000000
 10
33.499982
 20
-31.249941
 42
0.000000
 10
32.499982
 20
-31.249941
 42
0.000000
 10
31.499982
 20
-30.749941
 42
0.000000
 10
30.499982
 20
-31.249941
 42
0.000000
 10
29.499982
 20
-31.249941
 42
0.000000
 10
28.499982
 20
-31.749941
 42
0.000000
 10
27.499982
 20
-31.249941
 42
0.000000
 10
26.499982
 20
-31.249941
 42
0.000000
 10
25.499982
 20
-30.749941
 42
0.000000
 10
24.499982
 20
-31.249941
 42
0.000000
 10
23.499982
 20
-31.249941
 42
0.000000
 10
22.499982
 20
-31.749941
 42
0.000000
 10
21.499982
 20
-31.249941
 42
0.000000
 10
20.499982
 20
-31.249941
 42
0.000000
 10
19.499982
 20
-30.749941
 42
0.000000
 10
18.499982
 20
-31.249941
 42
0.000000
 10
17.499982
 20
-31.249941
 42
0.000000
 10
16.499982
 20
-31.749941
 42
0.000000
 10
15.499982
 20
-31.249941
 42
0.000000
 10
14.499982
 20
-31.249941
 42
0.000000
 10
13.499982
 20
-30.749941
 42
0.000000
 10
12.499982
 20
-31.249941
 42
0.000000
 10
11.499982
 20
-31.249941
 42
0.000000
 10
10.499982
 20
-31.749941
 42
0.000000
 10
9.499982
 20
-31.249941
 42
0.000000
 10
8.499982
 20
-31.249941
 42
0.000000
 10
7.499982
 20
-30.749941
 42
0.000000
 10
6.499982
 20
-31.249941
 42
0.000000
 10
5.499982
 20
-31.249941
 42
0.000000
 10
4.499982
 20
-31.749941
 42
0.000000
 10
3.499982
 20
-31.249941
 42
0.000000
 10
2.499982
 20
-31.249941
 42
0.000000
 10
1.499982
 20
-30.749941
 42
0.000000
 10
0.499982
 20
-31.249941
 42
0.000000
 10
-0.500018
 20
-31.249941
 42
0.000000
 10
-1.500018
 20
-31.749941
 42
0.000000
 10
-2.500018
 20
-31.249941
 42
0.000000
 10
-3.500018
 20
-31.249941
 42
0.000000
 10
-4.500018
 20
-30.749941
 42
0.000000
 10
-5.500018
 20
-31.249941
 42
0.000000
 10
-6.500018
 20
-31.249941
 42
0.000000
 10
-7.500018
 20
-31.749941
 42
0.000000
 10
-8.500018
 20
-31.249941
 42
0.000000
 10
-9.500018
 20
-31.249941
 42
0.000000
 10
-10.500018
 20
-30.749941
 42
0.000000
 10
-11.507685
 20
-31.249941
 42
0.000000
 10
-12.500018
 20
-31.249941
 42
0.000000
 10
-13.500018
 20
-31.749941
 42
0.000000
 10
-14.500018
 20
-31.249941
 42
0.000000
 10
-15.500018
 20
-31.249941
 42
0.000000
 10
-16.500018
 20
-30.749941
 42
0.000000
 10
-17.500018
 20
-31.249941
 42
0.000000
 10
-18.500018
 20
-31.249941
 42
0.000000
 10
-19.500018
 20
-31.749941
 42
0.000000
 10
-20.500018
 20
-31.249941
 42
0.000000
 10
-21.500018
 20
-31.249941
 42
0.000000
 10
-22.500018
 20
-30.749941
 42
0.000000
 10
-23.500018
 20
-31.249941
 42
0.000000
 10
-24.500018
 20
-31.249941
 42
0.000000
 10
-25.500018
 20
-31.749941
 42
0.000000
 10
-26.500018
 20
-31.249941
 42
0.000000
 10
-27.500018
 20
-31.249941
 42
0.000000
 10
-28.500018
 20
-30.749941
 42
0.000000
 10
-29.500018
 20
-31.249941
 42
0.000000
 10
-30.500018
 20
-31.249941
 42
0.000000
 10
-31.500018
 20
-31.749941
 42
0.000000
 10
-32.500018
 20
-31.249941
 42
0.000000
 10
-33.500018
 20
-31.249941
 42
0.000000
 10
-34.500018
 20
-30.749941
 42
0.000000
 10
-35.507685
 20
-31.249941
 42
0.000000
 10
-36.500018
 20
-31.249941
 42
0.000000
 10
-37.500018
 20
-31.749941
 42
0.000000
 10
-38.500018
 20
-31.249941
 42
0.000000
 10
-39.500018
 20
-31.249941
 42
0.000000
 10
-40.500018
 20
-30.749941
 42
0.000000
 10
-41.500018
 20
-31.249941
 42
0.000000
 10
-42.500018
 20
-31.249941
 42
0.000000
  0
ENDBLK
  5
327
100
AcDbEntity
  8
0
100
AcDbBlockEnd
  0
BLOCK
  5
328
100
AcDbEntity
  8
SCHRAFF
100
AcDbBlockBegin
  2
B-4
 70
    66
 10
0.000000
 20
0.000000
 30
0.000000
  0
HATCH
  5
329
100
AcDbEntity
  8
SCHRAFF
 62
     8
440
     0
100
AcDbHatch
 10
0.000000
 20
0.000000
 30
0.000000
210
0.000000
220
0.000000
230
1.000000
  2
SOLID
 70
     1
 71
     1
 91
     1
 92
    18
 72
     1
 73
     0
 93
     5
 10
-82.500018
 20
-26.249941
 42
0.000000
 10
-82.500018
 20
-41.249941
 42
0.000000
 10
-52.500018
 20
-41.249941
 42
0.000000
 10
-52.500018
 20
-26.249941
 42
0.000000
 10
-82.500018
 20
-26.249941
 42
0.000000
 97
     0
 75
     0
 76
     1
 98
     0
  0
ENDBLK
  5
32A
100
AcDbEntity
  8
0
100
AcDbBlockEnd
  0
BLOCK
  5
32B
100
AcDbEntity
  8
SCHRAFF
100
AcDbBlockBegin
  2
B-5
 70
    66
 10
0.000000
 20
0.000000
 30
0.000000
  0
HATCH
  5
32C
100
AcDbEntity
  8
SCHRAFF
 62
    61
440
     0
100
AcDbHatch
 10
0.000000
 20
0.000000
 30
0.000000
210
0.000000
220
0.000000
230
1.000000
  2
SOLID
 70
     1
 71
     1
 91
     1
 92
    18
 72
     1
 73
     0
 93
     7
 10
-82.500018
 20
-28.249941
 42
0.000000
 10
-150.500018
 20
-28.249941
 42
0.000000
 10
-150.500018
 20
-49.249941
 42
0.000000
 10
-107.500018
 20
-49.249941
 42
0.000000
 10
-99.500018
 20
-41.249941
 42
0.000000
 10
-82.500018
 20
-41.249941
 42
0.000000
 10
-82.500018
 20
-28.249941
 42
0.000000
 97
     0
 75
     0
 76
     1
 98
     0
  0
ENDBLK
  5
32D
100
AcDbEntity
  8
0
100
AcDbBlockEnd
  0
BLOCK
  5
32E
100
AcDbEntity
  8
SCHRAFF
100
AcDbBlockBegin
  2
B-6
 70
    66
 10
0.000000
 20
0.000000
 30
0.000000
  0
LWPOLYLINE
  5
32F
100
AcDbEntity
  8
SCHRAFF
  6
CONTINUOUS
 62
     9
100
AcDbPolyline
 90
    15
 10
-82.500018
 20
-49.249941
 42
-0.203535
 10
-85.934538
 20
-47.877006
 42
-0.194298
 10
-87.357163
 20
-44.562437
 42
-0.098212
 10
-86.965584
 20
-42.718523
 42
0.000000
 10
-83.008502
 20
-35.025440
 42
0.112379
 10
-82.500018
 20
-32.937443
 42
0.194298
 10
-83.922644
 20
-29.622876
 42
0.203535
 10
-87.357165
 20
-28.249941
 42
0.203535
 10
-90.791681
 20
-29.622881
 42
0.194298
 10
-92.214303
 20
-32.937443
 42
0.112379
 10
-91.705819
 20
-35.025440
 42
0.000000
 10
-87.865645
 20
-42.474447
 42
-0.112379
 10
-87.357165
 20
-44.562437
 42
-0.194298
 10
-88.779789
 20
-47.877001
 42
-0.203535
 10
-92.214304
 20
-49.249938
 42
0.000000
  0
LWPOLYLINE
  5
33F
100
AcDbEntity
  8
SCHRAFF
  6
CONTINUOUS
 62
     9
100
AcDbPolyline
 90
    15
 10
-92.214304
 20
-49.249941
 42
-0.203535
 10
-95.648823
 20
-47.877006
 42
-0.194298
 10
-97.071449
 20
-44.562437
 42
-0.098212
 10
-96.679870
 20
-42.718523
 42
0.000000
 10
-92.722787
 20
-35.025440
 42
0.112379
 10
-92.214304
 20
-32.937443
 42
0.194298
 10
-93.636930
 20
-29.622876
 42
0.203535
 10
-97.071451
 20
-28.249941
 42
0.203535
 10
-100.505967
 20
-29.622881
 42
0.194298
 10
-101.928589
 20
-32.937443
 42
0.112379
 10
-101.420105
 20
-35.025440
 42
0.000000
 10
-97.579931
 20
-42.474447
 42
-0.112379
 10
-97.071451
 20
-44.562437
 42
-0.194298
 10
-98.494075
 20
-47.877001
 42
-0.203535
 10
-101.928589
 20
-49.249938
 42
0.000000
  0
LWPOLYLINE
  5
34F
100
AcDbEntity
  8
SCHRAFF
  6
CONTINUOUS
 62
     9
100
AcDbPolyline
 90
    15
 10
-101.928590
 20
-49.249941
 42
-0.203535
 10
-105.363109
 20
-47.877006
 42
-0.194298
 10
-106.785735
 20
-44.562437
 42
-0.098212
 10
-106.394155
 20
-42.718523
 42
0.000000
 10
-102.437073
 20
-35.025440
 42
0.112379
 10
-101.928589
 20
-32.937443
 42
0.194298
 10
-103.351216
 20
-29.622876
 42
0.203535
 10
-106.785737
 20
-28.249941
 42
0.203535
 10
-110.220253
 20
-29.622881
 42
0.194298
 10
-111.642874
 20
-32.937443
 42
0.112379
 10
-111.134391
 20
-35.025440
 42
0.000000
 10
-107.294217
 20
-42.474447
 42
-0.112379
 10
-106.785737
 20
-44.562437
 42
-0.194298
 10
-108.208361
 20
-47.877001
 42
-0.203535
 10
-111.642875
 20
-49.249938
 42
0.000000
  0
LWPOLYLINE
  5
35F
100
AcDbEntity
  8
SCHRAFF
  6
CONTINUOUS
 62
     9
100
AcDbPolyline
 90
    15
 10
-111.642875
 20
-49.249941
 42
-0.203535
 10
-115.077395
 20
-47.877006
 42
-0.194298
 10
-116.500021
 20
-44.562437
 42
-0.098212
 10
-116.108441
 20
-42.718523
 42
0.000000
 10
-112.151359
 20
-35.025440
 42
0.112379
 10
-111.642875
 20
-32.937443
 42
0.194298
 10
-113.065502
 20
-29.622876
 42
0.203535
 10
-116.500022
 20
-28.249941
 42
0.203535
 10
-119.934538
 20
-29.622881
 42
0.194298
 10
-121.357160
 20
-32.937443
 42
0.112379
 10
-120.848676
 20
-35.025440
 42
0.000000
 10
-117.008502
 20
-42.474447
 42
-0.112379
 10
-116.500022
 20
-44.562437
 42
-0.194298
 10
-117.922646
 20
-47.877001
 42
-0.203535
 10
-121.357161
 20
-49.249938
 42
0.000000
  0
LWPOLYLINE
  5
36F
100
AcDbEntity
  8
SCHRAFF
  6
CONTINUOUS
 62
     9
100
AcDbPolyline
 90
    15
 10
-121.357161
 20
-49.249941
 42
-0.203535
 10
-124.791681
 20
-47.877006
 42
-0.194298
 10
-126.214306
 20
-44.562437
 42
-0.098212
 10
-125.822727
 20
-42.718523
 42
0.000000
 10
-121.865644
 20
-35.025440
 42
0.112379
 10
-121.357161
 20
-32.937443
 42
0.194298
 10
-122.779787
 20
-29.622876
 42
0.203535
 10
-126.214308
 20
-28.249941
 42
0.203535
 10
-129.648824
 20
-29.622881
 42
0.194298
 10
-131.071446
 20
-32.937443
 42
0.112379
 10
-130.562962
 20
-35.025440
 42
0.000000
 10
-126.722788
 20
-42.474447
 42
-0.112379
 10
-126.214308
 20
-44.562437
 42
-0.194298
 10
-127.636932
 20
-47.877001
 42
-0.203535
 10
-131.071447
 20
-49.249938
 42
0.000000
  0
LWPOLYLINE
  5
37F
100
AcDbEntity
  8
SCHRAFF
  6
CONTINUOUS
 62
     9
100
AcDbPolyline
 90
    15
 10
-131.071447
 20
-49.249941
 42
-0.203535
 10
-134.505966
 20
-47.877006
 42
-0.194298
 10
-135.928592
 20
-44.562437
 42
-0.098212
 10
-135.537013
 20
-42.718523
 42
0.000000
 10
-131.579930
 20
-35.025440
 42
0.112379
 10
-131.071447
 20
-32.937443
 42
0.194298
 10
-132.494073
 20
-29.622876
 42
0.203535
 10
-135.928594
 20
-28.249941
 42
0.203535
 10
-139.363110
 20
-29.622881
 42
0.194298
 10
-140.785732
 20
-32.937443
 42
0.112379
 10
-140.277248
 20
-35.025440
 42
0.000000
 10
-136.437074
 20
-42.474447
 42
-0.112379
 10
-135.928594
 20
-44.562437
 42
-0.194298
 10
-137.351218
 20
-47.877001
 42
-0.203535
 10
-140.785732
 20
-49.249938
 42
0.000000
  0
LWPOLYLINE
  5
38F
100
AcDbEntity
  8
SCHRAFF
  6
CONTINUOUS
 62
     9
100
AcDbPolyline
 90
    15
 10
-140.785733
 20
-49.249941
 42
-0.203535
 10
-144.220252
 20
-47.877006
 42
-0.194298
 10
-145.642878
 20
-44.562437
 42
-0.098212
 10
-145.251298
 20
-42.718523
 42
0.000000
 10
-141.294216
 20
-35.025440
 42
0.112379
 10
-140.785732
 20
-32.937443
 42
0.194298
 10
-142.208359
 20
-29.622876
 42
0.203535
 10
-145.642879
 20
-28.249941
 42
0.203535
 10
-149.077395
 20
-29.622881
 42
0.194298
 10
-150.500017
 20
-32.937443
 42
0.112379
 10
-149.991534
 20
-35.025440
 42
0.000000
 10
-146.151359
 20
-42.474447
 42
-0.112379
 10
-145.642879
 20
-44.562437
 42
-0.194298
 10
-147.065503
 20
-47.877001
 42
-0.203535
 10
-150.500018
 20
-49.249938
 42
0.000000
  0
ENDBLK
  5
39F
100
AcDbEntity
  8
0
100
AcDbBlockEnd
  0
BLOCK
  5
3A0
100
AcDbEntity
  8
SCHRAFF
100
AcDbBlockBegin
  2
B-7
 70
    66
 10
0.000000
 20
0.000000
 30
0.000000
  0
HATCH
  5
3A1
100
AcDbEntity
  8
SCHRAFF
 62
     9
440
     0
100
AcDbHatch
 10
0.000000
 20
0.000000
 30
0.000000
210
0.000000
220
0.000000
230
1.000000
  2
SOLID
 70
     1
 71
     1
 91
     1
 92
    18
 72
     1
 73
     0
 93
     6
 10
212.500023
 20
-41.249941
 42
0.000000
 10
-99.500018
 20
-41.249941
 42
0.000000
 10
-107.500018
 20
-49.249941
 42
0.000000
 10
-107.500018
 20
-51.249941
 42
0.000000
 10
212.500023
 20
-51.249941
 42
0.000000
 10
212.500023
 20
-41.249941
 42
0.000000
 97
     0
 75
     0
 76
     1
 98
     0
  0
ENDBLK
  5
3A2
100
AcDbEntity
  8
0
100
AcDbBlockEnd
  0
BLOCK
  5
3A3
100
AcDbEntity
  8
SCHRAFF
100
AcDbBlockBegin
  2
B-8
 70
    66
 10
0.000000
 20
0.000000
 30
0.000000
  0
IMAGE
  5
3A4
100
AcDbEntity
  8
SCHRAFF
100
AcDbRasterImage
 10
140.969928
 20
-349.249941
 30
0.000000
 11
0.204938
 21
-0.000000
 31
0.000000
 12
-0.000000
 22
0.204938
 32
-0.000000
 13
395.000000
 23
405.000000
340
3A5
 70
     7
280
     0
281
    50
282
    50
283
     0
360
3A6
 71
     1
 91
     2
 14
-0.500000
 24
-0.500000
 14
394.500000
 24
404.500000
  0
ENDBLK
  5
3A7
100
AcDbEntity
  8
0
100
AcDbBlockEnd
  0
BLOCK
  5
3A8
100
AcDbEntity
  8
SCHRAFF
100
AcDbBlockBegin
  2
B-9
 70
    66
 10
0.000000
 20
0.000000
 30
0.000000
  0
HATCH
  5
3A9
100
AcDbEntity
  8
SCHRAFF
 62
    51
440
     0
100
AcDbHatch
 10
0.000000
 20
0.000000
 30
0.000000
210
0.000000
220
0.000000
230
1.000000
  2
SOLID
 70
     1
 71
     1
 91
     1
 92
    18
 72
     1
 73
     0
 93
     5
 10
127.489689
 20
-71.249941
 42
0.000000
 10
127.489689
 20
-51.249941
 42
0.000000
 10
67.489689
 20
-51.249941
 42
0.000000
 10
67.489689
 20
-71.249941
 42
0.000000
 10
127.489689
 20
-71.249941
 42
0.000000
 97
     0
 75
     0
 76
     1
 98
     0
  0
HATCH
  5
3AA
100
AcDbEntity
  8
SCHRAFF
  6
CONTINUOUS
 62
     9
100
AcDbHatch
 10
0.000000
 20
0.000000
 30
0.000000
210
0.000000
220
0.000000
230
1.000000
  2
_U
 70
     0
 71
     1
 91
     1
 92
    18
 72
     1
 73
     0
 93
     5
 10
127.489689
 20
-51.249941
 42
0.000000
 10
67.489689
 20
-51.249941
 42
0.000000
 10
67.489689
 20
-71.249941
 42
0.000000
 10
127.489689
 20
-71.249941
 42
0.000000
 10
127.489689
 20
-51.249941
 42
0.000000
 97
     0
 75
     0
 76
     0
 52
0.000000
 41
1.000000
 77
     0
 78
     1
 53
90.000000
 43
-0.000000
 44
0.000000
 45
-6.875000
 46
0.000000
 79
     0
 98
     0
  0
ENDBLK
  5
3AB
100
AcDbEntity
  8
0
100
AcDbBlockEnd
  0
BLOCK
  5
3AC
100
AcDbEntity
  8
SCHRAFF
100
AcDbBlockBegin
  2
B-10
 70
    66
 10
0.000000
 20
0.000000
 30
0.000000
  0
HATCH
  5
3AD
100
AcDbEntity
  8
SCHRAFF
 62
    51
440
     0
100
AcDbHatch
 10
0.000000
 20
0.000000
 30
0.000000
210
0.000000
220
0.000000
230
1.000000
  2
SOLID
 70
     1
 71
     1
 91
     1
 92
    18
 72
     1
 73
     0
 93
     9
 10
212.500023
 20
-51.249941
 42
0.000000
 10
127.489689
 20
-51.249941
 42
0.000000
 10
127.489689
 20
-71.249941
 42
0.000000
 10
67.489689
 20
-71.249941
 42
0.000000
 10
67.489689
 20
-51.249941
 42
0.000000
 10
-142.500018
 20
-51.249941
 42
0.000000
 10
-142.500018
 20
-131.249941
 42
0.000000
 10
212.500023
 20
-131.249941
 42
0.000000
 10
212.500023
 20
-51.249941
 42
0.000000
 97
     0
 75
     0
 76
     1
 98
     0
  0
HATCH
  5
3AE
100
AcDbEntity
  8
SCHRAFF
  6
CONTINUOUS
 62
     9
100
AcDbHatch
 10
0.000000
 20
0.000000
 30
0.000000
210
0.000000
220
0.000000
230
1.000000
  2
_U
 70
     0
 71
     1
 91
     1
 92
    18
 72
     1
 73
     0
 93
     9
 10
-142.500018
 20
-131.249941
 42
0.000000
 10
211.500023
 20
-131.249941
 42
0.000000
 10
212.500023
 20
-51.249941
 42
0.000000
 10
127.489689
 20
-51.249941
 42
0.000000
 10
127.489689
 20
-71.249941
 42
0.000000
 10
67.489689
 20
-71.249941
 42
0.000000
 10
67.489689
 20
-51.249941
 42
0.000000
 10
-142.500018
 20
-51.249941
 42
0.000000
 10
-142.500018
 20
-131.249941
 42
0.000000
 97
     0
 75
     0
 76
     0
 52
0.000000
 41
1.000000
 77
     0
 78
     1
 53
90.000000
 43
-0.000000
 44
0.000000
 45
-13.750000
 46
0.000000
 79
     0
 98
     0
  0
ENDBLK
  5
3AF
100
AcDbEntity
  8
0
100
AcDbBlockEnd
  0
BLOCK
  5
3B0
100
AcDbEntity
  8
SCHRAFF
100
AcDbBlockBegin
  2
B-11
 70
    66
 10
0.000000
 20
0.000000
 30
0.000000
  0
HATCH
  5
3B1
100
AcDbEntity
  8
SCHRAFF
 62
    51
440
     0
100
AcDbHatch
 10
0.000000
 20
0.000000
 30
0.000000
210
0.000000
220
0.000000
230
1.000000
  2
SOLID
 70
     1
 71
     1
 91
     1
 92
    18
 72
     1
 73
     0
 93
     5
 10
-87.500018
 20
103.750056
 42
0.000000
 10
-67.500018
 20
103.750056
 42
0.000000
 10
-67.500018
 20
163.750056
 42
0.000000
 10
-87.500018
 20
163.750056
 42
0.000000
 10
-87.500018
 20
103.750056
 42
0.000000
 97
     0
 75
     0
 76
     1
 98
     0
  0
ENDBLK
  5
3B2
100
AcDbEntity
  8
0
100
AcDbBlockEnd
  0
BLOCK
  5
3B3
100
AcDbEntity
  8
SCHRAFF
100
AcDbBlockBegin
  2
B-12
 70
    66
 10
0.000000
 20
0.000000
 30
0.000000
  0
LWPOLYLINE
  5
3B4
100
AcDbEntity
  8
SCHRAFF
  6
CONTINUOUS
 62
     9
100
AcDbPolyline
 90
    15
 10
-142.500018
 20
-51.249941
 42
-0.200848
 10
-143.153797
 20
-52.851980
 42
-0.196979
 10
-144.732163
 20
-53.515567
 42
-0.100066
 10
-145.610217
 20
-53.332914
 42
0.000000
 10
-149.273590
 20
-51.487124
 42
0.114434
 10
-150.267874
 20
-51.249941
 42
0.196979
 10
-151.846239
 20
-51.913528
 42
0.200848
 10
-152.500018
 20
-53.515568
 42
0.200848
 10
-151.846237
 20
-55.117606
 42
0.196978
 10
-150.267874
 20
-55.781191
 42
0.114434
 10
-149.273590
 20
-55.544007
 42
0.000000
 10
-145.726443
 20
-53.752750
 42
-0.114434
 10
-144.732163
 20
-53.515568
 42
-0.196979
 10
-143.153799
 20
-54.179154
 42
-0.200847
 10
-142.500019
 20
-55.781191
 42
0.000000
  0
LWPOLYLINE
  5
3C4
100
AcDbEntity
  8
SCHRAFF
  6
CONTINUOUS
 62
     9
100
AcDbPolyline
 90
    15
 10
-142.500018
 20
-55.781191
 42
-0.200848
 10
-143.153797
 20
-57.383230
 42
-0.196979
 10
-144.732163
 20
-58.046817
 42
-0.100066
 10
-145.610217
 20
-57.864164
 42
0.000000
 10
-149.273590
 20
-56.018374
 42
0.114434
 10
-150.267874
 20
-55.781191
 42
0.196979
 10
-151.846239
 20
-56.444778
 42
0.200848
 10
-152.500018
 20
-58.046818
 42
0.200848
 10
-151.846237
 20
-59.648856
 42
0.196978
 10
-150.267874
 20
-60.312441
 42
0.114434
 10
-149.273590
 20
-60.075257
 42
0.000000
 10
-145.726443
 20
-58.284000
 42
-0.114434
 10
-144.732163
 20
-58.046818
 42
-0.196979
 10
-143.153799
 20
-58.710404
 42
-0.200847
 10
-142.500019
 20
-60.312441
 42
0.000000
  0
LWPOLYLINE
  5
3D4
100
AcDbEntity
  8
SCHRAFF
  6
CONTINUOUS
 62
     9
100
AcDbPolyline
 90
    15
 10
-142.500018
 20
-60.312441
 42
-0.200848
 10
-143.153797
 20
-61.914480
 42
-0.196979
 10
-144.732163
 20
-62.578067
 42
-0.100066
 10
-145.610217
 20
-62.395414
 42
0.000000
 10
-149.273590
 20
-60.549624
 42
0.114434
 10
-150.267874
 20
-60.312441
 42
0.196979
 10
-151.846239
 20
-60.976028
 42
0.200848
 10
-152.500018
 20
-62.578068
 42
0.200848
 10
-151.846237
 20
-64.180106
 42
0.196978
 10
-150.267874
 20
-64.843691
 42
0.114434
 10
-149.273590
 20
-64.606507
 42
0.000000
 10
-145.726443
 20
-62.815250
 42
-0.114434
 10
-144.732163
 20
-62.578068
 42
-0.196979
 10
-143.153799
 20
-63.241654
 42
-0.200847
 10
-142.500019
 20
-64.843691
 42
0.000000
  0
LWPOLYLINE
  5
3E4
100
AcDbEntity
  8
SCHRAFF
  6
CONTINUOUS
 62
     9
100
AcDbPolyline
 90
    15
 10
-142.500018
 20
-64.843691
 42
-0.200848
 10
-143.153797
 20
-66.445730
 42
-0.196979
 10
-144.732163
 20
-67.109317
 42
-0.100066
 10
-145.610217
 20
-66.926664
 42
0.000000
 10
-149.273590
 20
-65.080874
 42
0.114434
 10
-150.267874
 20
-64.843691
 42
0.196979
 10
-151.846239
 20
-65.507278
 42
0.200848
 10
-152.500018
 20
-67.109318
 42
0.200848
 10
-151.846237
 20
-68.711356
 42
0.196978
 10
-150.267874
 20
-69.374941
 42
0.114434
 10
-149.273590
 20
-69.137757
 42
0.000000
 10
-145.726443
 20
-67.346500
 42
-0.114434
 10
-144.732163
 20
-67.109318
 42
-0.196979
 10
-143.153799
 20
-67.772904
 42
-0.200847
 10
-142.500019
 20
-69.374941
 42
0.000000
  0
LWPOLYLINE
  5
3F4
100
AcDbEntity
  8
SCHRAFF
  6
CONTINUOUS
 62
     9
100
AcDbPolyline
 90
    15
 10
-142.500018
 20
-69.374941
 42
-0.200848
 10
-143.153797
 20
-70.976980
 42
-0.196979
 10
-144.732163
 20
-71.640567
 42
-0.100066
 10
-145.610217
 20
-71.457914
 42
0.000000
 10
-149.273590
 20
-69.612124
 42
0.114434
 10
-150.267874
 20
-69.374941
 42
0.196979
 10
-151.846239
 20
-70.038528
 42
0.200848
 10
-152.500018
 20
-71.640568
 42
0.200848
 10
-151.846237
 20
-73.242606
 42
0.196978
 10
-150.267874
 20
-73.906191
 42
0.114434
 10
-149.273590
 20
-73.669007
 42
0.000000
 10
-145.726443
 20
-71.877750
 42
-0.114434
 10
-144.732163
 20
-71.640568
 42
-0.196979
 10
-143.153799
 20
-72.304154
 42
-0.200847
 10
-142.500019
 20
-73.906191
 42
0.000000
  0
LWPOLYLINE
  5
404
100
AcDbEntity
  8
SCHRAFF
  6
CONTINUOUS
 62
     9
100
AcDbPolyline
 90
    15
 10
-142.500018
 20
-73.906191
 42
-0.200848
 10
-143.153797
 20
-75.508230
 42
-0.196979
 10
-144.732163
 20
-76.171817
 42
-0.100066
 10
-145.610217
 20
-75.989164
 42
0.000000
 10
-149.273590
 20
-74.143374
 42
0.114434
 10
-150.267874
 20
-73.906191
 42
0.196979
 10
-151.846239
 20
-74.569778
 42
0.200848
 10
-152.500018
 20
-76.171818
 42
0.200848
 10
-151.846237
 20
-77.773856
 42
0.196978
 10
-150.267874
 20
-78.437441
 42
0.114434
 10
-149.273590
 20
-78.200257
 42
0.000000
 10
-145.726443
 20
-76.409000
 42
-0.114434
 10
-144.732163
 20
-76.171818
 42
-0.196979
 10
-143.153799
 20
-76.835404
 42
-0.200847
 10
-142.500019
 20
-78.437441
 42
0.000000
  0
LWPOLYLINE
  5
414
100
AcDbEntity
  8
SCHRAFF
  6
CONTINUOUS
 62
     9
100
AcDbPolyline
 90
    15
 10
-142.500018
 20
-78.437441
 42
-0.200848
 10
-143.153797
 20
-80.039480
 42
-0.196979
 10
-144.732163
 20
-80.703067
 42
-0.100066
 10
-145.610217
 20
-80.520414
 42
0.000000
 10
-149.273590
 20
-78.674624
 42
0.114434
 10
-150.267874
 20
-78.437441
 42
0.196979
 10
-151.846239
 20
-79.101028
 42
0.200848
 10
-152.500018
 20
-80.703068
 42
0.200848
 10
-151.846237
 20
-82.305106
 42
0.196978
 10
-150.267874
 20
-82.968691
 42
0.114434
 10
-149.273590
 20
-82.731507
 42
0.000000
 10
-145.726443
 20
-80.940250
 42
-0.114434
 10
-144.732163
 20
-80.703068
 42
-0.196979
 10
-143.153799
 20
-81.366654
 42
-0.200847
 10
-142.500019
 20
-82.968691
 42
0.000000
  0
LWPOLYLINE
  5
424
100
AcDbEntity
  8
SCHRAFF
  6
CONTINUOUS
 62
     9
100
AcDbPolyline
 90
    15
 10
-142.500018
 20
-82.968691
 42
-0.200848
 10
-143.153797
 20
-84.570730
 42
-0.196979
 10
-144.732163
 20
-85.234317
 42
-0.100066
 10
-145.610217
 20
-85.051664
 42
0.000000
 10
-149.273590
 20
-83.205874
 42
0.114434
 10
-150.267874
 20
-82.968691
 42
0.196979
 10
-151.846239
 20
-83.632278
 42
0.200848
 10
-152.500018
 20
-85.234318
 42
0.200848
 10
-151.846237
 20
-86.836356
 42
0.196978
 10
-150.267874
 20
-87.499941
 42
0.114434
 10
-149.273590
 20
-87.262757
 42
0.000000
 10
-145.726443
 20
-85.471500
 42
-0.114434
 10
-144.732163
 20
-85.234318
 42
-0.196979
 10
-143.153799
 20
-85.897904
 42
-0.200847
 10
-142.500019
 20
-87.499941
 42
0.000000
  0
LWPOLYLINE
  5
434
100
AcDbEntity
  8
SCHRAFF
  6
CONTINUOUS
 62
     9
100
AcDbPolyline
 90
    15
 10
-142.500018
 20
-87.499941
 42
-0.200848
 10
-143.153797
 20
-89.101980
 42
-0.196979
 10
-144.732163
 20
-89.765567
 42
-0.100066
 10
-145.610217
 20
-89.582914
 42
0.000000
 10
-149.273590
 20
-87.737124
 42
0.114434
 10
-150.267874
 20
-87.499941
 42
0.196979
 10
-151.846239
 20
-88.163528
 42
0.200848
 10
-152.500018
 20
-89.765568
 42
0.200848
 10
-151.846237
 20
-91.367606
 42
0.196978
 10
-150.267874
 20
-92.031191
 42
0.114434
 10
-149.273590
 20
-91.794007
 42
0.000000
 10
-145.726443
 20
-90.002750
 42
-0.114434
 10
-144.732163
 20
-89.765568
 42
-0.196979
 10
-143.153799
 20
-90.429154
 42
-0.200847
 10
-142.500019
 20
-92.031191
 42
0.000000
  0
LWPOLYLINE
  5
444
100
AcDbEntity
  8
SCHRAFF
  6
CONTINUOUS
 62
     9
100
AcDbPolyline
 90
    15
 10
-142.500018
 20
-92.031191
 42
-0.200848
 10
-143.153797
 20
-93.633230
 42
-0.196979
 10
-144.732163
 20
-94.296817
 42
-0.100066
 10
-145.610217
 20
-94.114164
 42
0.000000
 10
-149.273590
 20
-92.268374
 42
0.114434
 10
-150.267874
 20
-92.031191
 42
0.196979
 10
-151.846239
 20
-92.694778
 42
0.200848
 10
-152.500018
 20
-94.296818
 42
0.200848
 10
-151.846237
 20
-95.898856
 42
0.196978
 10
-150.267874
 20
-96.562441
 42
0.114434
 10
-149.273590
 20
-96.325257
 42
0.000000
 10
-145.726443
 20
-94.534000
 42
-0.114434
 10
-144.732163
 20
-94.296818
 42
-0.196979
 10
-143.153799
 20
-94.960404
 42
-0.200847
 10
-142.500019
 20
-96.562441
 42
0.000000
  0
LWPOLYLINE
  5
454
100
AcDbEntity
  8
SCHRAFF
  6
CONTINUOUS
 62
     9
100
AcDbPolyline
 90
    15
 10
-142.500018
 20
-96.562441
 42
-0.200848
 10
-143.153797
 20
-98.164480
 42
-0.196979
 10
-144.732163
 20
-98.828067
 42
-0.100066
 10
-145.610217
 20
-98.645414
 42
0.000000
 10
-149.273590
 20
-96.799624
 42
0.114434
 10
-150.267874
 20
-96.562441
 42
0.196979
 10
-151.846239
 20
-97.226028
 42
0.200848
 10
-152.500018
 20
-98.828068
 42
0.200848
 10
-151.846237
 20
-100.430106
 42
0.196978
 10
-150.267874
 20
-101.093691
 42
0.114434
 10
-149.273590
 20
-100.856507
 42
0.000000
 10
-145.726443
 20
-99.065250
 42
-0.114434
 10
-144.732163
 20
-98.828068
 42
-0.196979
 10
-143.153799
 20
-99.491654
 42
-0.200847
 10
-142.500019
 20
-101.093691
 42
0.000000
  0
LWPOLYLINE
  5
464
100
AcDbEntity
  8
SCHRAFF
  6
CONTINUOUS
 62
     9
100
AcDbPolyline
 90
    15
 10
-142.500018
 20
-101.093691
 42
-0.200848
 10
-143.153797
 20
-102.695730
 42
-0.196979
 10
-144.732163
 20
-103.359317
 42
-0.100066
 10
-145.610217
 20
-103.176664
 42
0.000000
 10
-149.273590
 20
-101.330874
 42
0.114434
 10
-150.267874
 20
-101.093691
 42
0.196979
 10
-151.846239
 20
-101.757278
 42
0.200848
 10
-152.500018
 20
-103.359318
 42
0.200848
 10
-151.846237
 20
-104.961356
 42
0.196978
 10
-150.267874
 20
-105.624941
 42
0.114434
 10
-149.273590
 20
-105.387757
 42
0.000000
 10
-145.726443
 20
-103.596500
 42
-0.114434
 10
-144.732163
 20
-103.359318
 42
-0.196979
 10
-143.153799
 20
-104.022904
 42
-0.200847
 10
-142.500019
 20
-105.624941
 42
0.000000
  0
LWPOLYLINE
  5
474
100
AcDbEntity
  8
SCHRAFF
  6
CONTINUOUS
 62
     9
100
AcDbPolyline
 90
    15
 10
-142.500018
 20
-105.624941
 42
-0.200848
 10
-143.153797
 20
-107.226980
 42
-0.196979
 10
-144.732163
 20
-107.890567
 42
-0.100066
 10
-145.610217
 20
-107.707914
 42
0.000000
 10
-149.273590
 20
-105.862124
 42
0.114434
 10
-150.267874
 20
-105.624941
 42
0.196979
 10
-151.846239
 20
-106.288528
 42
0.200848
 10
-152.500018
 20
-107.890568
 42
0.200848
 10
-151.846237
 20
-109.492606
 42
0.196978
 10
-150.267874
 20
-110.156191
 42
0.114434
 10
-149.273590
 20
-109.919007
 42
0.000000
 10
-145.726443
 20
-108.127750
 42
-0.114434
 10
-144.732163
 20
-107.890568
 42
-0.196979
 10
-143.153799
 20
-108.554154
 42
-0.200847
 10
-142.500019
 20
-110.156191
 42
0.000000
  0
LWPOLYLINE
  5
484
100
AcDbEntity
  8
SCHRAFF
  6
CONTINUOUS
 62
     9
100
AcDbPolyline
 90
    15
 10
-142.500018
 20
-110.156191
 42
-0.200848
 10
-143.153797
 20
-111.758230
 42
-0.196979
 10
-144.732163
 20
-112.421817
 42
-0.100066
 10
-145.610217
 20
-112.239164
 42
0.000000
 10
-149.273590
 20
-110.393374
 42
0.114434
 10
-150.267874
 20
-110.156191
 42
0.196979
 10
-151.846239
 20
-110.819778
 42
0.200848
 10
-152.500018
 20
-112.421818
 42
0.200848
 10
-151.846237
 20
-114.023856
 42
0.196978
 10
-150.267874
 20
-114.687441
 42
0.114434
 10
-149.273590
 20
-114.450257
 42
0.000000
 10
-145.726443
 20
-112.659000
 42
-0.114434
 10
-144.732163
 20
-112.421818
 42
-0.196979
 10
-143.153799
 20
-113.085404
 42
-0.200847
 10
-142.500019
 20
-114.687441
 42
0.000000
  0
LWPOLYLINE
  5
494
100
AcDbEntity
  8
SCHRAFF
  6
CONTINUOUS
 62
     9
100
AcDbPolyline
 90
    15
 10
-142.500018
 20
-114.687441
 42
-0.200848
 10
-143.153797
 20
-116.289480
 42
-0.196979
 10
-144.732163
 20
-116.953067
 42
-0.100066
 10
-145.610217
 20
-116.770414
 42
0.000000
 10
-149.273590
 20
-114.924624
 42
0.114434
 10
-150.267874
 20
-114.687441
 42
0.196979
 10
-151.846239
 20
-115.351028
 42
0.200848
 10
-152.500018
 20
-116.953068
 42
0.200848
 10
-151.846237
 20
-118.555106
 42
0.196978
 10
-150.267874
 20
-119.218691
 42
0.114434
 10
-149.273590
 20
-118.981507
 42
0.000000
 10
-145.726443
 20
-117.190250
 42
-0.114434
 10
-144.732163
 20
-116.953068
 42
-0.196979
 10
-143.153799
 20
-117.616654
 42
-0.200847
 10
-142.500019
 20
-119.218691
 42
0.000000
  0
LWPOLYLINE
  5
4A4
100
AcDbEntity
  8
SCHRAFF
  6
CONTINUOUS
 62
     9
100
AcDbPolyline
 90
    15
 10
-142.500018
 20
-119.218691
 42
-0.200848
 10
-143.153797
 20
-120.820730
 42
-0.196979
 10
-144.732163
 20
-121.484317
 42
-0.100066
 10
-145.610217
 20
-121.301664
 42
0.000000
 10
-149.273590
 20
-119.455874
 42
0.114434
 10
-150.267874
 20
-119.218691
 42
0.196979
 10
-151.846239
 20
-119.882278
 42
0.200848
 10
-152.500018
 20
-121.484318
 42
0.200848
 10
-151.846237
 20
-123.086356
 42
0.196978
 10
-150.267874
 20
-123.749941
 42
0.114434
 10
-149.273590
 20
-123.512757
 42
0.000000
 10
-145.726443
 20
-121.721500
 42
-0.114434
 10
-144.732163
 20
-121.484318
 42
-0.196979
 10
-143.153799
 20
-122.147904
 42
-0.200847
 10
-142.500019
 20
-123.749941
 42
0.000000
  0
LWPOLYLINE
  5
4B4
100
AcDbEntity
  8
SCHRAFF
  6
CONTINUOUS
 62
     9
100
AcDbPolyline
 90
    15
 10
-142.500018
 20
-123.749941
 42
-0.200848
 10
-143.153797
 20
-125.351980
 42
-0.196979
 10
-144.732163
 20
-126.015567
 42
-0.100066
 10
-145.610217
 20
-125.832914
 42
0.000000
 10
-149.273590
 20
-123.987124
 42
0.114434
 10
-150.267874
 20
-123.749941
 42
0.196979
 10
-151.846239
 20
-124.413528
 42
0.200848
 10
-152.500018
 20
-126.015568
 42
0.200848
 10
-151.846237
 20
-127.617606
 42
0.196978
 10
-150.267874
 20
-128.281191
 42
0.114434
 10
-149.273590
 20
-128.044007
 42
0.000000
 10
-145.726443
 20
-126.252750
 42
-0.114434
 10
-144.732163
 20
-126.015568
 42
-0.196979
 10
-143.153799
 20
-126.679154
 42
-0.200847
 10
-142.500019
 20
-128.281191
 42
0.000000
  0
LWPOLYLINE
  5
4C4
100
AcDbEntity
  8
SCHRAFF
  6
CONTINUOUS
 62
     9
100
AcDbPolyline
 90
    15
 10
-142.500018
 20
-128.281191
 42
-0.200848
 10
-143.153797
 20
-129.883230
 42
-0.196979
 10
-144.732163
 20
-130.546817
 42
-0.100066
 10
-145.610217
 20
-130.364164
 42
0.000000
 10
-149.273590
 20
-128.518374
 42
0.114434
 10
-150.267874
 20
-128.281191
 42
0.196979
 10
-151.846239
 20
-128.944778
 42
0.200848
 10
-152.500018
 20
-130.546818
 42
0.200848
 10
-151.846237
 20
-132.148856
 42
0.196978
 10
-150.267874
 20
-132.812441
 42
0.114434
 10
-149.273590
 20
-132.575257
 42
0.000000
 10
-145.726443
 20
-130.784000
 42
-0.114434
 10
-144.732163
 20
-130.546818
 42
-0.196979
 10
-143.153799
 20
-131.210404
 42
-0.200847
 10
-142.500019
 20
-132.812441
 42
0.000000
  0
LWPOLYLINE
  5
4D4
100
AcDbEntity
  8
SCHRAFF
  6
CONTINUOUS
 62
     9
100
AcDbPolyline
 90
    15
 10
-142.500018
 20
-132.812441
 42
-0.200848
 10
-143.153797
 20
-134.414480
 42
-0.196979
 10
-144.732163
 20
-135.078067
 42
-0.100066
 10
-145.610217
 20
-134.895414
 42
0.000000
 10
-149.273590
 20
-133.049624
 42
0.114434
 10
-150.267874
 20
-132.812441
 42
0.196979
 10
-151.846239
 20
-133.476028
 42
0.200848
 10
-152.500018
 20
-135.078068
 42
0.200848
 10
-151.846237
 20
-136.680106
 42
0.196978
 10
-150.267874
 20
-137.343691
 42
0.114434
 10
-149.273590
 20
-137.106507
 42
0.000000
 10
-145.726443
 20
-135.315250
 42
-0.114434
 10
-144.732163
 20
-135.078068
 42
-0.196979
 10
-143.153799
 20
-135.741654
 42
-0.200847
 10
-142.500019
 20
-137.343691
 42
0.000000
  0
LWPOLYLINE
  5
4E4
100
AcDbEntity
  8
SCHRAFF
  6
CONTINUOUS
 62
     9
100
AcDbPolyline
 90
    15
 10
-142.500018
 20
-137.343691
 42
-0.200848
 10
-143.153797
 20
-138.945730
 42
-0.196979
 10
-144.732163
 20
-139.609317
 42
-0.100066
 10
-145.610217
 20
-139.426664
 42
0.000000
 10
-149.273590
 20
-137.580874
 42
0.114434
 10
-150.267874
 20
-137.343691
 42
0.196979
 10
-151.846239
 20
-138.007278
 42
0.200848
 10
-152.500018
 20
-139.609318
 42
0.200848
 10
-151.846237
 20
-141.211356
 42
0.196978
 10
-150.267874
 20
-141.874941
 42
0.114434
 10
-149.273590
 20
-141.637757
 42
0.000000
 10
-145.726443
 20
-139.846500
 42
-0.114434
 10
-144.732163
 20
-139.609318
 42
-0.196979
 10
-143.153799
 20
-140.272904
 42
-0.200847
 10
-142.500019
 20
-141.874941
 42
0.000000
  0
LWPOLYLINE
  5
4F4
100
AcDbEntity
  8
SCHRAFF
  6
CONTINUOUS
 62
     9
100
AcDbPolyline
 90
    15
 10
-142.500018
 20
-141.874941
 42
-0.200848
 10
-143.153797
 20
-143.476980
 42
-0.196979
 10
-144.732163
 20
-144.140567
 42
-0.100066
 10
-145.610217
 20
-143.957914
 42
0.000000
 10
-149.273590
 20
-142.112124
 42
0.114434
 10
-150.267874
 20
-141.874941
 42
0.196979
 10
-151.846239
 20
-142.538528
 42
0.200848
 10
-152.500018
 20
-144.140568
 42
0.200848
 10
-151.846237
 20
-145.742606
 42
0.196978
 10
-150.267874
 20
-146.406191
 42
0.114434
 10
-149.273590
 20
-146.169007
 42
0.000000
 10
-145.726443
 20
-144.377750
 42
-0.114434
 10
-144.732163
 20
-144.140568
 42
-0.196979
 10
-143.153799
 20
-144.804154
 42
-0.200847
 10
-142.500019
 20
-146.406191
 42
0.000000
  0
LWPOLYLINE
  5
504
100
AcDbEntity
  8
SCHRAFF
  6
CONTINUOUS
 62
     9
100
AcDbPolyline
 90
    15
 10
-142.500018
 20
-146.406191
 42
-0.200848
 10
-143.153797
 20
-148.008230
 42
-0.196979
 10
-144.732163
 20
-148.671817
 42
-0.100066
 10
-145.610217
 20
-148.489164
 42
0.000000
 10
-149.273590
 20
-146.643374
 42
0.114434
 10
-150.267874
 20
-146.406191
 42
0.196979
 10
-151.846239
 20
-147.069778
 42
0.200848
 10
-152.500018
 20
-148.671818
 42
0.200848
 10
-151.846237
 20
-150.273856
 42
0.196978
 10
-150.267874
 20
-150.937441
 42
0.114434
 10
-149.273590
 20
-150.700257
 42
0.000000
 10
-145.726443
 20
-148.909000
 42
-0.114434
 10
-144.732163
 20
-148.671818
 42
-0.196979
 10
-143.153799
 20
-149.335404
 42
-0.200847
 10
-142.500019
 20
-150.937441
 42
0.000000
  0
LWPOLYLINE
  5
514
100
AcDbEntity
  8
SCHRAFF
  6
CONTINUOUS
 62
     9
100
AcDbPolyline
 90
    15
 10
-142.500018
 20
-150.937441
 42
-0.200848
 10
-143.153797
 20
-152.539480
 42
-0.196979
 10
-144.732163
 20
-153.203067
 42
-0.100066
 10
-145.610217
 20
-153.020414
 42
0.000000
 10
-149.273590
 20
-151.174624
 42
0.114434
 10
-150.267874
 20
-150.937441
 42
0.196979
 10
-151.846239
 20
-151.601028
 42
0.200848
 10
-152.500018
 20
-153.203068
 42
0.200848
 10
-151.846237
 20
-154.805106
 42
0.196978
 10
-150.267874
 20
-155.468691
 42
0.114434
 10
-149.273590
 20
-155.231507
 42
0.000000
 10
-145.726443
 20
-153.440250
 42
-0.114434
 10
-144.732163
 20
-153.203068
 42
-0.196979
 10
-143.153799
 20
-153.866654
 42
-0.200847
 10
-142.500019
 20
-155.468691
 42
0.000000
  0
LWPOLYLINE
  5
524
100
AcDbEntity
  8
SCHRAFF
  6
CONTINUOUS
 62
     9
100
AcDbPolyline
 90
    15
 10
-142.500018
 20
-155.468691
 42
-0.200848
 10
-143.153797
 20
-157.070730
 42
-0.196979
 10
-144.732163
 20
-157.734317
 42
-0.100066
 10
-145.610217
 20
-157.551664
 42
0.000000
 10
-149.273590
 20
-155.705874
 42
0.114434
 10
-150.267874
 20
-155.468691
 42
0.196979
 10
-151.846239
 20
-156.132278
 42
0.200848
 10
-152.500018
 20
-157.734318
 42
0.200848
 10
-151.846237
 20
-159.336356
 42
0.196978
 10
-150.267874
 20
-159.999941
 42
0.114434
 10
-149.273590
 20
-159.762757
 42
0.000000
 10
-145.726443
 20
-157.971500
 42
-0.114434
 10
-144.732163
 20
-157.734318
 42
-0.196979
 10
-143.153799
 20
-158.397904
 42
-0.200847
 10
-142.500019
 20
-159.999941
 42
0.000000
  0
LWPOLYLINE
  5
534
100
AcDbEntity
  8
SCHRAFF
  6
CONTINUOUS
 62
     9
100
AcDbPolyline
 90
    15
 10
-142.500018
 20
-159.999941
 42
-0.200848
 10
-143.153797
 20
-161.601980
 42
-0.196979
 10
-144.732163
 20
-162.265567
 42
-0.100066
 10
-145.610217
 20
-162.082914
 42
0.000000
 10
-149.273590
 20
-160.237124
 42
0.114434
 10
-150.267874
 20
-159.999941
 42
0.196979
 10
-151.846239
 20
-160.663528
 42
0.200848
 10
-152.500018
 20
-162.265568
 42
0.200848
 10
-151.846237
 20
-163.867606
 42
0.196978
 10
-150.267874
 20
-164.531191
 42
0.114434
 10
-149.273590
 20
-164.294007
 42
0.000000
 10
-145.726443
 20
-162.502750
 42
-0.114434
 10
-144.732163
 20
-162.265568
 42
-0.196979
 10
-143.153799
 20
-162.929154
 42
-0.200847
 10
-142.500019
 20
-164.531191
 42
0.000000
  0
LWPOLYLINE
  5
544
100
AcDbEntity
  8
SCHRAFF
  6
CONTINUOUS
 62
     9
100
AcDbPolyline
 90
    15
 10
-142.500018
 20
-164.531191
 42
-0.200848
 10
-143.153797
 20
-166.133230
 42
-0.196979
 10
-144.732163
 20
-166.796817
 42
-0.100066
 10
-145.610217
 20
-166.614164
 42
0.000000
 10
-149.273590
 20
-164.768374
 42
0.114434
 10
-150.267874
 20
-164.531191
 42
0.196979
 10
-151.846239
 20
-165.194778
 42
0.200848
 10
-152.500018
 20
-166.796818
 42
0.200848
 10
-151.846237
 20
-168.398856
 42
0.196978
 10
-150.267874
 20
-169.062441
 42
0.114434
 10
-149.273590
 20
-168.825257
 42
0.000000
 10
-145.726443
 20
-167.034000
 42
-0.114434
 10
-144.732163
 20
-166.796818
 42
-0.196979
 10
-143.153799
 20
-167.460404
 42
-0.200847
 10
-142.500019
 20
-169.062441
 42
0.000000
  0
LWPOLYLINE
  5
554
100
AcDbEntity
  8
SCHRAFF
  6
CONTINUOUS
 62
     9
100
AcDbPolyline
 90
    15
 10
-142.500018
 20
-169.062441
 42
-0.200848
 10
-143.153797
 20
-170.664480
 42
-0.196979
 10
-144.732163
 20
-171.328067
 42
-0.100066
 10
-145.610217
 20
-171.145414
 42
0.000000
 10
-149.273590
 20
-169.299624
 42
0.114434
 10
-150.267874
 20
-169.062441
 42
0.196979
 10
-151.846239
 20
-169.726028
 42
0.200848
 10
-152.500018
 20
-171.328068
 42
0.200848
 10
-151.846237
 20
-172.930106
 42
0.196978
 10
-150.267874
 20
-173.593691
 42
0.114434
 10
-149.273590
 20
-173.356507
 42
0.000000
 10
-145.726443
 20
-171.565250
 42
-0.114434
 10
-144.732163
 20
-171.328068
 42
-0.196979
 10
-143.153799
 20
-171.991654
 42
-0.200847
 10
-142.500019
 20
-173.593691
 42
0.000000
  0
LWPOLYLINE
  5
564
100
AcDbEntity
  8
SCHRAFF
  6
CONTINUOUS
 62
     9
100
AcDbPolyline
 90
    15
 10
-142.500018
 20
-173.593691
 42
-0.200848
 10
-143.153797
 20
-175.195730
 42
-0.196979
 10
-144.732163
 20
-175.859317
 42
-0.100066
 10
-145.610217
 20
-175.676664
 42
0.000000
 10
-149.273590
 20
-173.830874
 42
0.114434
 10
-150.267874
 20
-173.593691
 42
0.196979
 10
-151.846239
 20
-174.257278
 42
0.200848
 10
-152.500018
 20
-175.859318
 42
0.200848
 10
-151.846237
 20
-177.461356
 42
0.196978
 10
-150.267874
 20
-178.124941
 42
0.114434
 10
-149.273590
 20
-177.887757
 42
0.000000
 10
-145.726443
 20
-176.096500
 42
-0.114434
 10
-144.732163
 20
-175.859318
 42
-0.196979
 10
-143.153799
 20
-176.522904
 42
-0.200847
 10
-142.500019
 20
-178.124941
 42
0.000000
  0
LWPOLYLINE
  5
574
100
AcDbEntity
  8
SCHRAFF
  6
CONTINUOUS
 62
     9
100
AcDbPolyline
 90
    15
 10
-142.500018
 20
-178.124941
 42
-0.200848
 10
-143.153797
 20
-179.726980
 42
-0.196979
 10
-144.732163
 20
-180.390567
 42
-0.100066
 10
-145.610217
 20
-180.207914
 42
0.000000
 10
-149.273590
 20
-178.362124
 42
0.114434
 10
-150.267874
 20
-178.124941
 42
0.196979
 10
-151.846239
 20
-178.788528
 42
0.200848
 10
-152.500018
 20
-180.390568
 42
0.200848
 10
-151.846237
 20
-181.992606
 42
0.196978
 10
-150.267874
 20
-182.656191
 42
0.114434
 10
-149.273590
 20
-182.419007
 42
0.000000
 10
-145.726443
 20
-180.627750
 42
-0.114434
 10
-144.732163
 20
-180.390568
 42
-0.196979
 10
-143.153799
 20
-181.054154
 42
-0.200847
 10
-142.500019
 20
-182.656191
 42
0.000000
  0
LWPOLYLINE
  5
584
100
AcDbEntity
  8
SCHRAFF
  6
CONTINUOUS
 62
     9
100
AcDbPolyline
 90
    15
 10
-142.500018
 20
-182.656191
 42
-0.200848
 10
-143.153797
 20
-184.258230
 42
-0.196979
 10
-144.732163
 20
-184.921817
 42
-0.100066
 10
-145.610217
 20
-184.739164
 42
0.000000
 10
-149.273590
 20
-182.893374
 42
0.114434
 10
-150.267874
 20
-182.656191
 42
0.196979
 10
-151.846239
 20
-183.319778
 42
0.200848
 10
-152.500018
 20
-184.921818
 42
0.200848
 10
-151.846237
 20
-186.523856
 42
0.196978
 10
-150.267874
 20
-187.187441
 42
0.114434
 10
-149.273590
 20
-186.950257
 42
0.000000
 10
-145.726443
 20
-185.159000
 42
-0.114434
 10
-144.732163
 20
-184.921818
 42
-0.196979
 10
-143.153799
 20
-185.585404
 42
-0.200847
 10
-142.500019
 20
-187.187441
 42
0.000000
  0
LWPOLYLINE
  5
594
100
AcDbEntity
  8
SCHRAFF
  6
CONTINUOUS
 62
     9
100
AcDbPolyline
 90
    15
 10
-142.500018
 20
-187.187441
 42
-0.200848
 10
-143.153797
 20
-188.789480
 42
-0.196979
 10
-144.732163
 20
-189.453067
 42
-0.100066
 10
-145.610217
 20
-189.270414
 42
0.000000
 10
-149.273590
 20
-187.424624
 42
0.114434
 10
-150.267874
 20
-187.187441
 42
0.196979
 10
-151.846239
 20
-187.851028
 42
0.200848
 10
-152.500018
 20
-189.453068
 42
0.200848
 10
-151.846237
 20
-191.055106
 42
0.196978
 10
-150.267874
 20
-191.718691
 42
0.114434
 10
-149.273590
 20
-191.481507
 42
0.000000
 10
-145.726443
 20
-189.690250
 42
-0.114434
 10
-144.732163
 20
-189.453068
 42
-0.196979
 10
-143.153799
 20
-190.116654
 42
-0.200847
 10
-142.500019
 20
-191.718691
 42
0.000000
  0
LWPOLYLINE
  5
5A4
100
AcDbEntity
  8
SCHRAFF
  6
CONTINUOUS
 62
     9
100
AcDbPolyline
 90
    15
 10
-142.500018
 20
-191.718691
 42
-0.200848
 10
-143.153797
 20
-193.320730
 42
-0.196979
 10
-144.732163
 20
-193.984317
 42
-0.100066
 10
-145.610217
 20
-193.801664
 42
0.000000
 10
-149.273590
 20
-191.955874
 42
0.114434
 10
-150.267874
 20
-191.718691
 42
0.196979
 10
-151.846239
 20
-192.382278
 42
0.200848
 10
-152.500018
 20
-193.984318
 42
0.200848
 10
-151.846237
 20
-195.586356
 42
0.196978
 10
-150.267874
 20
-196.249941
 42
0.114434
 10
-149.273590
 20
-196.012757
 42
0.000000
 10
-145.726443
 20
-194.221500
 42
-0.114434
 10
-144.732163
 20
-193.984318
 42
-0.196979
 10
-143.153799
 20
-194.647904
 42
-0.200847
 10
-142.500019
 20
-196.249941
 42
0.000000
  0
ENDBLK
  5
5B4
100
AcDbEntity
  8
0
100
AcDbBlockEnd
  0
BLOCK
  5
5B5
100
AcDbEntity
  8
SCHRAFF
100
AcDbBlockBegin
  2
B-13
 70
    66
 10
0.000000
 20
0.000000
 30
0.000000
  0
HATCH
  5
5B6
100
AcDbEntity
  8
SCHRAFF
 62
   254
440
     0
100
AcDbHatch
 10
0.000000
 20
0.000000
 30
0.000000
210
0.000000
220
0.000000
230
1.000000
  2
SOLID
 70
     1
 71
     1
 91
     1
 92
    18
 72
     1
 73
     0
 93
     5
 10
-142.500018
 20
-136.249941
 42
0.000000
 10
212.500023
 20
-136.249941
 42
0.000000
 10
212.500023
 20
-131.249941
 42
0.000000
 10
-142.500018
 20
-131.249941
 42
0.000000
 10
-142.500018
 20
-136.249941
 42
0.000000
 97
     0
 75
     0
 76
     1
 98
     0
  0
ENDBLK
  5
5B7
100
AcDbEntity
  8
0
100
AcDbBlockEnd
  0
BLOCK
  5
5B8
100
AcDbEntity
  8
SCHRAFF
100
AcDbBlockBegin
  2
B-14
 70
    66
 10
0.000000
 20
0.000000
 30
0.000000
  0
HATCH
  5
5B9
100
AcDbEntity
  8
SCHRAFF
 62
    51
440
     0
100
AcDbHatch
 10
0.000000
 20
0.000000
 30
0.000000
210
0.000000
220
0.000000
230
1.000000
  2
SOLID
 70
     1
 71
     1
 91
     1
 92
    18
 72
     1
 73
     0
 93
     9
 10
-147.500018
 20
296.250078
 42
0.000000
 10
-147.500018
 20
-26.249941
 42
0.000000
 10
-67.500018
 20
-26.249941
 42
0.000000
 10
-67.500018
 20
103.750056
 42
0.000000
 10
-87.500018
 20
103.750056
 42
0.000000
 10
-87.500018
 20
163.750056
 42
0.000000
 10
-67.500018
 20
163.750056
 42
0.000000
 10
-67.500018
 20
296.250078
 42
0.000000
 10
-147.500018
 20
296.250078
 42
0.000000
 97
     0
 75
     0
 76
     1
 98
     0
  0
HATCH
  5
5BA
100
AcDbEntity
  8
SCHRAFF
  6
CONTINUOUS
 62
     9
100
AcDbHatch
 10
0.000000
 20
0.000000
 30
0.000000
210
0.000000
220
0.000000
230
1.000000
  2
_U
 70
     0
 71
     1
 91
     1
 92
    18
 72
     1
 73
     0
 93
     9
 10
-67.500018
 20
-26.249941
 42
0.000000
 10
-67.500018
 20
103.750056
 42
0.000000
 10
-87.500018
 20
103.750056
 42
0.000000
 10
-87.500018
 20
163.750056
 42
0.000000
 10
-67.500018
 20
163.750056
 42
0.000000
 10
-67.500018
 20
296.250078
 42
0.000000
 10
-147.500018
 20
296.250078
 42
0.000000
 10
-147.500018
 20
-26.249941
 42
0.000000
 10
-67.500018
 20
-26.249941
 42
0.000000
 97
     0
 75
     0
 76
     0
 52
0.000000
 41
1.000000
 77
     0
 78
     1
 53
90.000000
 43
-0.000000
 44
0.000000
 45
-13.750000
 46
0.000000
 79
     0
 98
     0
  0
ENDBLK
  5
5BB
100
AcDbEntity
  8
0
100
AcDbBlockEnd
  0
BLOCK
  5
5BC
100
AcDbEntity
  8
SCHRAFF
100
AcDbBlockBegin
  2
B-15
 70
    66
 10
0.000000
 20
0.000000
 30
0.000000
  0
HATCH
  5
5BD
100
AcDbEntity
  8
SCHRAFF
 62
   254
440
     0
100
AcDbHatch
 10
0.000000
 20
0.000000
 30
0.000000
210
0.000000
220
0.000000
230
1.000000
  2
SOLID
 70
     1
 71
     1
 91
     1
 92
    18
 72
     1
 73
     0
 93
     5
 10
-152.500018
 20
-26.249941
 42
0.000000
 10
-147.500018
 20
-26.249941
 42
0.000000
 10
-147.500018
 20
296.250078
 42
0.000000
 10
-152.500018
 20
296.250078
 42
0.000000
 10
-152.500018
 20
-26.249941
 42
0.000000
 97
     0
 75
     0
 76
     1
 98
     0
  0
ENDBLK
  5
5BE
100
AcDbEntity
  8
0
100
AcDbBlockEnd
  0
BLOCK
  5
5BF
100
AcDbEntity
  8
Detail
100
AcDbBlockBegin
  2
B-16
 70
    66
 10
0.000000
 20
0.000000
 30
0.000000
  0
LWPOLYLINE
  5
5C0
100
AcDbEntity
  8
Detail
  6
CONTINUOUS
 62
     6
100
AcDbPolyline
 90
     4
 10
212.500023
 20
-131.249941
 42
0.000000
 10
-142.500018
 20
-131.249941
 42
0.000000
 10
-142.500018
 20
-136.249941
 42
0.000000
 10
212.500023
 20
-136.249941
 42
0.000000
  0
ENDBLK
  5
5C5
100
AcDbEntity
  8
0
100
AcDbBlockEnd
  0
BLOCK
  5
5C6
100
AcDbEntity
  8
L
100
AcDbBlockBegin
  2
B-17
 70
    66
 10
0.000000
 20
0.000000
 30
0.000000
  0
LWPOLYLINE
  5
5C7
100
AcDbEntity
  8
L
  6
CONTINUOUS
 62
     3
100
AcDbPolyline
 90
     4
 10
-142.500018
 20
-196.249941
 42
0.000000
 10
-142.500018
 20
-51.249941
 42
0.000000
 10
-152.500018
 20
-51.249941
 42
0.000000
 10
-152.500018
 20
-196.249941
 42
0.000000
  0
ENDBLK
  5
5CC
100
AcDbEntity
  8
0
100
AcDbBlockEnd
  0
BLOCK
  5
5CD
100
AcDbEntity
  8
SCHRAFF
100
AcDbBlockBegin
  2
B-18
 70
    66
 10
0.000000
 20
0.000000
 30
0.000000
  0
HATCH
  5
5CE
100
AcDbEntity
  8
SCHRAFF
 62
     9
440
     0
100
AcDbHatch
 10
0.000000
 20
0.000000
 30
0.000000
210
0.000000
220
0.000000
230
1.000000
  2
SOLID
 70
     1
 71
     1
 91
     1
 92
    18
 72
     1
 73
     0
 93
     5
 10
-57.500018
 20
-26.249941
 42
0.000000
 10
-57.500018
 20
296.250078
 42
0.000000
 10
-67.500018
 20
296.250078
 42
0.000000
 10
-67.500018
 20
-26.249941
 42
0.000000
 10
-57.500018
 20
-26.249941
 42
0.000000
 97
     0
 75
     0
 76
     1
 98
     0
  0
ENDBLK
  5
5CF
100
AcDbEntity
  8
0
100
AcDbBlockEnd
  0
BLOCK
  5
5D0
100
AcDbEntity
  8
SCHRAFF
100
AcDbBlockBegin
  2
B-19
 70
    66
 10
0.000000
 20
0.000000
 30
0.000000
  0
HATCH
  5
5D1
100
AcDbEntity
  8
SCHRAFF
  6
CONTINUOUS
 62
     9
100
AcDbHatch
 10
0.000000
 20
0.000000
 30
0.000000
210
0.000000
220
0.000000
230
1.000000
  2
_U
 70
     0
 71
     1
 91
     1
 92
    18
 72
     1
 73
     0
 93
     5
 10
-142.500018
 20
-136.249941
 42
0.000000
 10
-142.500018
 20
-196.249941
 42
0.000000
 10
212.500023
 20
-196.249941
 42
0.000000
 10
212.500023
 20
-136.249941
 42
0.000000
 10
-142.500018
 20
-136.249941
 42
0.000000
 97
     0
 75
     0
 76
     0
 52
0.000000
 41
1.000000
 77
     0
 78
     1
 53
45.000000
 43
-0.000000
 44
0.000000
 45
-17.677670
 46
17.677670
 79
     0
 98
     0
  0
ENDBLK
  5
5D2
100
AcDbEntity
  8
0
100
AcDbBlockEnd
  0
BLOCK
  5
5D3
100
AcDbEntity
  8
Detail
100
AcDbBlockBegin
  2
B-20
 70
    66
 10
0.000000
 20
0.000000
 30
0.000000
  0
ENDBLK
  5
5D4
100
AcDbEntity
  8
0
100
AcDbBlockEnd
  0
BLOCK
  5
5D5
100
AcDbEntity
  8
Detail
100
AcDbBlockBegin
  2
B-21
 70
    66
 10
0.000000
 20
0.000000
 30
0.000000
  0
LWPOLYLINE
  5
5D6
100
AcDbEntity
  8
Detail
  6
CONTINUOUS
 62
     2
100
AcDbPolyline
 90
     3
 10
212.500023
 20
-136.249941
 42
0.000000
 10
-142.500018
 20
-136.249941
 42
0.000000
 10
-142.500018
 20
-196.249941
 42
0.000000
  0
ENDBLK
  5
5DA
100
AcDbEntity
  8
0
100
AcDbBlockEnd
  0
BLOCK
  5
5DB
100
AcDbEntity
  8
Detail
100
AcDbBlockBegin
  2
B-22
 70
    66
 10
0.000000
 20
0.000000
 30
0.000000
  0
LWPOLYLINE
  5
5DC
100
AcDbEntity
  8
Detail
  6
CONTINUOUS
 62
     6
100
AcDbPolyline
 90
     4
 10
-67.500018
 20
296.250078
 42
0.000000
 10
-67.500018
 20
-26.249941
 42
0.000000
 10
-57.500018
 20
-26.249941
 42
0.000000
 10
-57.500018
 20
296.250078
 42
0.000000
  0
ENDBLK
  5
5E1
100
AcDbEntity
  8
0
100
AcDbBlockEnd
  0
BLOCK
  5
5E2
100
AcDbEntity
  8
Detail
100
AcDbBlockBegin
  2
B-23
 70
    66
 10
0.000000
 20
0.000000
 30
0.000000
  0
LWPOLYLINE
  5
5E3
100
AcDbEntity
  8
Detail
  6
HIDDEN
 62
     9
100
AcDbPolyline
 90
     2
 10
-58.500018
 20
296.250078
 42
0.000000
 10
-58.500018
 20
-26.249941
 42
0.000000
  0
ENDBLK
  5
5E6
100
AcDbEntity
  8
0
100
AcDbBlockEnd
  0
BLOCK
  5
5E7
100
AcDbEntity
  8
Detail
100
AcDbBlockBegin
  2
B-24
 70
    66
 10
0.000000
 20
0.000000
 30
0.000000
  0
LWPOLYLINE
  5
5E8
100
AcDbEntity
  8
Detail
  6
HIDDEN
 62
     9
100
AcDbPolyline
 90
     2
 10
-100.500018
 20
-42.249941
 42
0.000000
 10
212.500023
 20
-42.249941
 42
0.000000
  0
LWPOLYLINE
  5
5EB
100
AcDbEntity
  8
Detail
  6
CONTINUOUS
 62
     6
100
AcDbPolyline
 90
     5
 10
212.500023
 20
-51.249941
 42
0.000000
 10
-107.500018
 20
-51.249941
 42
0.000000
 10
-107.500018
 20
-49.249941
 42
0.000000
 10
-99.500018
 20
-41.249941
 42
0.000000
 10
212.500023
 20
-41.249941
 42
0.000000
  0
ENDBLK
  5
5F1
100
AcDbEntity
  8
0
100
AcDbBlockEnd
  0
BLOCK
  5
5F2
100
AcDbEntity
  8
Detail
100
AcDbBlockBegin
  2
B-25
 70
    66
 10
0.000000
 20
0.000000
 30
0.000000
  0
MTEXT
  5
5F4
100
AcDbEntity
  8
Detail
 62
     7
100
AcDbMText
 10
79.375020
 20
86.250056
 30
0.000000
 40
4.999990
 41
38.902407
 71
     1
 72
     5
  1
Klebemörtel
  7
Arial
 50
0.000000
  0
ENDBLK
  5
5F5
100
AcDbEntity
  8
0
100
AcDbBlockEnd
  0
BLOCK
  5
5F6
100
AcDbEntity
  8
Detail
100
AcDbBlockBegin
  2
B-26
 70
    66
 10
0.000000
 20
0.000000
 30
0.000000
  0
MTEXT
  5
5F7
100
AcDbEntity
  8
Detail
 62
     7
100
AcDbMText
 10
79.375020
 20
61.250056
 30
0.000000
 40
4.999990
 41
50.347379
 71
     1
 72
     5
  1
MW-Dämmstoff
  7
Arial
 50
0.000000
  0
ENDBLK
  5
5F8
100
AcDbEntity
  8
0
100
AcDbBlockEnd
  0
BLOCK
  5
5F9
100
AcDbEntity
  8
Detail
100
AcDbBlockBegin
  2
B-27
 70
    66
 10
0.000000
 20
0.000000
 30
0.000000
  0
MTEXT
  5
5FA
100
AcDbEntity
  8
Detail
 62
     7
100
AcDbMText
 10
79.375020
 20
36.250056
 30
0.000000
 40
4.999990
 41
62.947349
 71
     1
 72
     5
  1
Putzabschlussprofil
  7
Arial
 50
0.000000
  0
ENDBLK
  5
5FB
100
AcDbEntity
  8
0
100
AcDbBlockEnd
  0
BLOCK
  5
5FC
100
AcDbEntity
  8
Detail
100
AcDbBlockBegin
  2
B-28
 70
    66
 10
0.000000
 20
0.000000
 30
0.000000
  0
MTEXT
  5
5FD
100
AcDbEntity
  8
Detail
 62
     7
100
AcDbMText
 10
79.375020
 20
131.250066
 30
0.000000
 40
4.999990
 41
82.372302
 71
     7
 72
     5
  1
Verdübelung versenkt mit
  7
Arial
 50
0.000000
  0
MTEXT
  5
5FE
100
AcDbEntity
  8
Detail
 62
     7
100
AcDbMText
 10
79.375020
 20
123.750081
 30
0.000000
 40
4.999990
 41
82.634802
 71
     7
 72
     5
  1
Thermorondell abgedeckt
  7
Arial
 50
0.000000
  0
ENDBLK
  5
5FF
100
AcDbEntity
  8
0
100
AcDbBlockEnd
  0
BLOCK
  5
600
100
AcDbEntity
  8
Detail
100
AcDbBlockBegin
  2
B-29
 70
    66
 10
0.000000
 20
0.000000
 30
0.000000
  0
MTEXT
  5
601
100
AcDbEntity
  8
Detail
 62
     7
100
AcDbMText
 10
79.375020
 20
11.250056
 30
0.000000
 40
4.999990
 41
80.744806
 71
     1
 72
     5
  1
Fugendichtband Typ B15
  7
Arial
 50
0.000000
  0
ENDBLK
  5
602
100
AcDbEntity
  8
0
100
AcDbBlockEnd
  0
BLOCK
  5
603
100
AcDbEntity
  8
SCHRAFF
100
AcDbBlockBegin
  2
B-30
 70
    66
 10
0.000000
 20
0.000000
 30
0.000000
  0
HATCH
  5
604
100
AcDbEntity
  8
SCHRAFF
 62
     7
440
     0
100
AcDbHatch
 10
0.000000
 20
0.000000
 30
0.000000
210
0.000000
220
0.000000
230
1.000000
  2
SOLID
 70
     1
 71
     1
 91
     1
 92
    18
 72
     1
 73
     0
 93
     3
 10
-149.500018
 20
83.750056
 42
1.000000
 10
-150.500018
 20
83.750056
 42
1.000000
 10
-149.500018
 20
83.750056
 42
0.000000
 97
     0
 75
     0
 76
     1
 98
     0
  0
CIRCLE
  5
605
100
AcDbEntity
  8
Detail
  6
CONTINUOUS
 62
     7
100
AcDbCircle
 10
-150.000018
 20
83.750056
 40
0.500000
  0
ENDBLK
  5
606
100
AcDbEntity
  8
0
100
AcDbBlockEnd
  0
BLOCK
  5
607
100
AcDbEntity
  8
SCHRAFF
100
AcDbBlockBegin
  2
B-31
 70
    66
 10
0.000000
 20
0.000000
 30
0.000000
  0
HATCH
  5
608
100
AcDbEntity
  8
SCHRAFF
 62
     7
440
     0
100
AcDbHatch
 10
0.000000
 20
0.000000
 30
0.000000
210
0.000000
220
0.000000
230
1.000000
  2
SOLID
 70
     1
 71
     1
 91
     1
 92
    18
 72
     1
 73
     0
 93
     3
 10
-85.500018
 20
133.750056
 42
1.000000
 10
-86.500018
 20
133.750056
 42
1.000000
 10
-85.500018
 20
133.750056
 42
0.000000
 97
     0
 75
     0
 76
     1
 98
     0
  0
CIRCLE
  5
609
100
AcDbEntity
  8
Detail
  6
CONTINUOUS
 62
     7
100
AcDbCircle
 10
-86.000018
 20
133.750056
 40
0.500000
  0
ENDBLK
  5
60A
100
AcDbEntity
  8
0
100
AcDbBlockEnd
  0
BLOCK
  5
60B
100
AcDbEntity
  8
SCHRAFF
100
AcDbBlockBegin
  2
B-32
 70
    66
 10
0.000000
 20
0.000000
 30
0.000000
  0
HATCH
  5
60C
100
AcDbEntity
  8
SCHRAFF
  6
CONTINUOUS
 62
     9
100
AcDbHatch
 10
0.000000
 20
0.000000
 30
0.000000
210
0.000000
220
0.000000
230
1.000000
  2
_U
 70
     0
 71
     1
 91
     1
 92
    18
 72
     1
 73
     0
 93
     5
 10
-152.500018
 20
-196.249941
 42
0.000000
 10
-152.500018
 20
296.250078
 42
0.000000
 10
-212.500018
 20
296.250078
 42
0.000000
 10
-212.500018
 20
-196.249941
 42
0.000000
 10
-152.500018
 20
-196.249941
 42
0.000000
 97
     0
 75
     0
 76
     0
 52
0.000000
 41
1.000000
 77
     0
 78
     1
 53
45.000000
 43
-0.000000
 44
0.000000
 45
-17.677670
 46
17.677670
 79
     0
 98
     0
  0
ENDBLK
  5
60D
100
AcDbEntity
  8
0
100
AcDbBlockEnd
  0
BLOCK
  5
60E
100
AcDbEntity
  8
L
100
AcDbBlockBegin
  2
B-33
 70
    66
 10
0.000000
 20
0.000000
 30
0.000000
  0
LWPOLYLINE
  5
60F
100
AcDbEntity
  8
L
  6
CONTINUOUS
 62
     3
100
AcDbPolyline
 90
     7
 10
-107.500018
 20
-49.249941
 42
0.000000
 10
-150.500018
 20
-49.249941
 42
0.000000
 10
-150.500018
 20
-28.249941
 42
0.000000
 10
-82.500018
 20
-28.249941
 42
0.000000
 10
-82.500018
 20
-41.249941
 42
0.000000
 10
-99.500018
 20
-41.249941
 42
0.000000
 10
-107.500018
 20
-49.249941
 42
0.000000
  0
ENDBLK
  5
617
100
AcDbEntity
  8
0
100
AcDbBlockEnd
  0
BLOCK
  5
618
100
AcDbEntity
  8
SCHRAFF
100
AcDbBlockBegin
  2
B-34
 70
    66
 10
0.000000
 20
0.000000
 30
0.000000
  0
HATCH
  5
619
100
AcDbEntity
  8
SCHRAFF
 62
     7
440
     0
100
AcDbHatch
 10
0.000000
 20
0.000000
 30
0.000000
210
0.000000
220
0.000000
230
1.000000
  2
SOLID
 70
     1
 71
     1
 91
     1
 92
    18
 72
     1
 73
     0
 93
     3
 10
-121.000018
 20
-37.749941
 42
1.000000
 10
-122.000018
 20
-37.749941
 42
1.000000
 10
-121.000018
 20
-37.749941
 42
0.000000
 97
     0
 75
     0
 76
     1
 98
     0
  0
CIRCLE
  5
61A
100
AcDbEntity
  8
Detail
  6
CONTINUOUS
 62
     7
100
AcDbCircle
 10
-121.500018
 20
-37.749941
 40
0.500000
  0
ENDBLK
  5
61B
100
AcDbEntity
  8
0
100
AcDbBlockEnd
  0
BLOCK
  5
61C
100
AcDbEntity
  8
Detail
100
AcDbBlockBegin
  2
B-35
 70
    66
 10
0.000000
 20
0.000000
 30
0.000000
  0
MTEXT
  5
61D
100
AcDbEntity
  8
Detail
 62
     7
100
AcDbMText
 10
79.375020
 20
111.250056
 30
0.000000
 40
4.999990
 41
59.482357
 71
     1
 72
     5
  1
WDVS-Dämmstoff
  7
Arial
 50
0.000000
  0
ENDBLK
  5
61E
100
AcDbEntity
  8
0
100
AcDbBlockEnd
  0
BLOCK
  5
61F
100
AcDbEntity
  8
SCHRAFF
100
AcDbBlockBegin
  2
B-36
 70
    66
 10
0.000000
 20
0.000000
 30
0.000000
  0
HATCH
  5
620
100
AcDbEntity
  8
SCHRAFF
 62
     7
440
     0
100
AcDbHatch
 10
0.000000
 20
0.000000
 30
0.000000
210
0.000000
220
0.000000
230
1.000000
  2
SOLID
 70
     1
 71
     1
 91
     1
 92
    18
 72
     1
 73
     0
 93
     3
 10
-107.000018
 20
108.750056
 42
1.000000
 10
-108.000018
 20
108.750056
 42
1.000000
 10
-107.000018
 20
108.750056
 42
0.000000
 97
     0
 75
     0
 76
     1
 98
     0
  0
CIRCLE
  5
621
100
AcDbEntity
  8
Detail
  6
CONTINUOUS
 62
     7
100
AcDbCircle
 10
-107.500018
 20
108.750056
 40
0.500000
  0
ENDBLK
  5
622
100
AcDbEntity
  8
0
100
AcDbBlockEnd
  0
BLOCK
  5
623
100
AcDbEntity
  8
Detail
100
AcDbBlockBegin
  2
B-37
 70
    66
 10
0.000000
 20
0.000000
 30
0.000000
  0
LWPOLYLINE
  5
624
100
AcDbEntity
  8
Detail
  6
CONTINUOUS
 62
     9
100
AcDbPolyline
 90
     2
 10
-116.000018
 20
140.750056
 42
0.000000
 10
-116.000018
 20
126.770643
 42
0.000000
  0
LWPOLYLINE
  5
627
100
AcDbEntity
  8
Detail
  6
CONTINUOUS
 62
     9
100
AcDbPolyline
 90
    83
 10
-87.500018
 20
103.750056
 42
0.000000
 10
-87.000018
 20
103.750056
 42
0.000000
 10
-86.000018
 20
108.750056
 42
0.000000
 10
-86.000018
 20
158.750056
 42
0.000000
 10
-87.000018
 20
163.750056
 42
0.000000
 10
-87.500018
 20
163.750056
 42
0.000000
 10
-87.500018
 20
146.750056
 42
0.000000
 10
-88.750018
 20
143.000056
 42
0.000000
 10
-92.500018
 20
141.750056
 42
0.000000
 10
-116.000018
 20
140.750056
 42
0.000000
 10
-122.000018
 20
138.250056
 42
0.000000
 10
-164.462215
 20
137.710056
 42
0.000000
 10
-165.828158
 20
137.463047
 42
0.000000
 10
-165.903911
 20
137.710056
 42
0.000000
 10
-168.686215
 20
137.710056
 42
0.000000
 10
-170.052158
 20
137.463047
 42
0.000000
 10
-170.127911
 20
137.710056
 42
0.000000
 10
-172.910215
 20
137.710056
 42
0.000000
 10
-174.276158
 20
137.463047
 42
0.000000
 10
-174.351827
 20
137.705256
 42
0.000000
 10
-177.134215
 20
137.710056
 42
0.000000
 10
-178.500158
 20
137.463047
 42
0.000000
 10
-178.575911
 20
137.710056
 42
0.000000
 10
-181.358215
 20
137.710056
 42
0.000000
 10
-182.724158
 20
137.463047
 42
0.000000
 10
-182.799911
 20
137.710056
 42
0.000000
 10
-185.582215
 20
137.710056
 42
0.000000
 10
-186.948158
 20
137.463047
 42
0.000000
 10
-187.023911
 20
137.710056
 42
0.000000
 10
-189.806215
 20
137.710056
 42
0.000000
 10
-191.172158
 20
137.463047
 42
0.000000
 10
-191.247911
 20
137.710056
 42
0.000000
 10
-194.030215
 20
137.710056
 42
0.000000
 10
-195.396158
 20
137.463047
 42
0.000000
 10
-195.471911
 20
137.710056
 42
0.000000
 10
-198.254215
 20
137.710056
 42
0.000000
 10
-199.458372
 20
137.427624
 42
0.000000
 10
-199.917355
 20
137.590055
 42
0.000000
 10
-200.894215
 20
137.155800
 42
0.000000
 10
-201.134215
 20
136.630056
 42
0.000000
 10
-201.902215
 20
136.630056
 42
0.000000
 10
-203.420108
 20
136.089088
 42
0.000000
 10
-204.253725
 20
134.710056
 42
0.000000
 10
-206.000018
 20
133.750056
 42
0.000000
 10
-204.253725
 20
132.790056
 42
0.000000
 10
-203.420108
 20
131.411024
 42
0.000000
 10
-202.157414
 20
130.883663
 42
0.000000
 10
-201.134215
 20
130.870056
 42
0.000000
 10
-200.894215
 20
130.344312
 42
0.000000
 10
-200.142059
 20
129.910056
 42
0.000000
 10
-199.692646
 20
129.910056
 42
0.000000
 10
-199.458372
 20
130.072488
 42
0.000000
 10
-198.254215
 20
129.790056
 42
0.000000
 10
-195.471911
 20
129.790056
 42
0.000000
 10
-195.396158
 20
130.037065
 42
0.000000
 10
-194.030215
 20
129.790056
 42
0.000000
 10
-191.247911
 20
129.790056
 42
0.000000
 10
-191.172158
 20
130.037065
 42
0.000000
 10
-189.806215
 20
129.790056
 42
0.000000
 10
-187.023911
 20
129.790056
 42
0.000000
 10
-186.948158
 20
130.037065
 42
0.000000
 10
-185.582215
 20
129.790056
 42
0.000000
 10
-182.799911
 20
129.790056
 42
0.000000
 10
-182.724158
 20
130.037065
 42
0.000000
 10
-181.358215
 20
129.790056
 42
0.000000
 10
-178.575911
 20
129.790056
 42
0.000000
 10
-178.500158
 20
130.037065
 42
0.000000
 10
-177.134215
 20
129.790056
 42
0.000000
 10
-174.351827
 20
129.794856
 42
0.000000
 10
-174.276158
 20
130.037065
 42
0.000000
 10
-172.910215
 20
129.790056
 42
0.000000
 10
-170.127911
 20
129.790056
 42
0.000000
 10
-170.052158
 20
130.037065
 42
0.000000
 10
-168.686215
 20
129.790056
 42
0.000000
 10
-165.903911
 20
129.790056
 42
0.000000
 10
-165.828158
 20
130.037065
 42
0.000000
 10
-164.462215
 20
129.790056
 42
0.000000
 10
-122.000018
 20
129.250056
 42
0.000000
 10
-116.000018
 20
126.750056
 42
0.000000
 10
-92.500018
 20
125.750056
 42
0.000000
 10
-88.750018
 20
124.500056
 42
0.000000
 10
-87.500018
 20
120.750056
 42
0.000000
 10
-87.500018
 20
103.750056
 42
0.000000
  0
LWPOLYLINE
  5
67B
100
AcDbEntity
  8
Detail
  6
CONTINUOUS
 62
     9
100
AcDbPolyline
 90
   203
 10
-206.000018
 20
133.750056
 42
0.000000
 10
-203.886942
 20
134.625321
 42
0.000000
 10
-203.385367
 20
135.494074
 42
0.000000
 10
-202.996692
 20
134.994074
 42
0.000000
 10
-201.916355
 20
135.441565
 42
0.000000
 10
-201.414780
 20
136.310319
 42
0.000000
 10
-201.026105
 20
135.810319
 42
0.000000
 10
-200.447328
 20
136.050056
 42
0.000000
 10
-199.846289
 20
136.050056
 42
0.000000
 10
-199.557614
 20
136.550056
 42
0.000000
 10
-199.168939
 20
136.050056
 42
0.000000
 10
-198.036289
 20
136.050056
 42
0.000000
 10
-197.747614
 20
136.550056
 42
0.000000
 10
-197.358939
 20
136.050056
 42
0.000000
 10
-196.226289
 20
136.050056
 42
0.000000
 10
-195.937614
 20
136.550056
 42
0.000000
 10
-195.548939
 20
136.050056
 42
0.000000
 10
-194.416289
 20
136.050056
 42
0.000000
 10
-194.127614
 20
136.550056
 42
0.000000
 10
-193.738939
 20
136.050056
 42
0.000000
 10
-192.606289
 20
136.050056
 42
0.000000
 10
-192.317614
 20
136.550056
 42
0.000000
 10
-191.928939
 20
136.050056
 42
0.000000
 10
-190.796289
 20
136.050056
 42
0.000000
 10
-190.507614
 20
136.550056
 42
0.000000
 10
-190.118939
 20
136.050056
 42
0.000000
 10
-188.986289
 20
136.050056
 42
0.000000
 10
-188.697614
 20
136.550056
 42
0.000000
 10
-188.308939
 20
136.050056
 42
0.000000
 10
-187.176289
 20
136.050056
 42
0.000000
 10
-186.887614
 20
136.550056
 42
0.000000
 10
-186.498939
 20
136.050056
 42
0.000000
 10
-185.366289
 20
136.050056
 42
0.000000
 10
-185.077614
 20
136.550056
 42
0.000000
 10
-184.688939
 20
136.050056
 42
0.000000
 10
-183.556289
 20
136.050056
 42
0.000000
 10
-183.267614
 20
136.550056
 42
0.000000
 10
-182.878939
 20
136.050056
 42
0.000000
 10
-181.746289
 20
136.050056
 42
0.000000
 10
-181.457614
 20
136.550056
 42
0.000000
 10
-181.068939
 20
136.050056
 42
0.000000
 10
-179.936289
 20
136.050056
 42
0.000000
 10
-179.647614
 20
136.550056
 42
0.000000
 10
-179.258939
 20
136.050056
 42
0.000000
 10
-178.126289
 20
136.050056
 42
0.000000
 10
-177.837614
 20
136.550056
 42
0.000000
 10
-177.448939
 20
136.050056
 42
0.000000
 10
-176.316289
 20
136.050056
 42
0.000000
 10
-176.027614
 20
136.550056
 42
0.000000
 10
-175.638939
 20
136.050056
 42
0.000000
 10
-174.506289
 20
136.050056
 42
0.000000
 10
-174.217614
 20
136.550056
 42
0.000000
 10
-173.828939
 20
136.050056
 42
0.000000
 10
-172.696289
 20
136.050056
 42
0.000000
 10
-172.407614
 20
136.550056
 42
0.000000
 10
-172.018939
 20
136.050056
 42
0.000000
 10
-170.886289
 20
136.050056
 42
0.000000
 10
-170.597614
 20
136.550056
 42
0.000000
 10
-170.186425
 20
136.050056
 42
0.000000
 10
-169.076289
 20
136.050056
 42
0.000000
 10
-168.787614
 20
136.550056
 42
0.000000
 10
-168.398939
 20
136.050056
 42
0.000000
 10
-167.266289
 20
136.050056
 42
0.000000
 10
-166.977614
 20
136.550056
 42
0.000000
 10
-166.588939
 20
136.050056
 42
0.000000
 10
-165.456289
 20
136.050056
 42
0.000000
 10
-165.167614
 20
136.550056
 42
0.000000
 10
-164.778939
 20
136.050056
 42
0.000000
 10
-163.646289
 20
136.050056
 42
0.000000
 10
-163.357614
 20
136.550056
 42
0.000000
 10
-162.968939
 20
136.050056
 42
0.000000
 10
-161.836289
 20
136.050056
 42
0.000000
 10
-161.547614
 20
136.550056
 42
0.000000
 10
-161.158939
 20
136.050056
 42
0.000000
 10
-160.026289
 20
136.050056
 42
0.000000
 10
-159.737614
 20
136.550056
 42
0.000000
 10
-159.348939
 20
136.050056
 42
0.000000
 10
-158.216289
 20
136.050056
 42
0.000000
 10
-157.927614
 20
136.550056
 42
0.000000
 10
-157.538939
 20
136.050056
 42
0.000000
 10
-156.406289
 20
136.050056
 42
0.000000
 10
-156.117614
 20
136.550056
 42
0.000000
 10
-155.728939
 20
136.050056
 42
0.000000
 10
-154.596289
 20
136.050056
 42
0.000000
 10
-154.307614
 20
136.550056
 42
0.000000
 10
-153.918939
 20
136.050056
 42
0.000000
 10
-152.786289
 20
136.050056
 42
0.000000
 10
-152.497614
 20
136.550056
 42
0.000000
 10
-152.108939
 20
136.050056
 42
0.000000
 10
-150.976289
 20
136.050056
 42
0.000000
 10
-150.687614
 20
136.550056
 42
0.000000
 10
-150.298939
 20
136.050056
 42
0.000000
 10
-149.166289
 20
136.050056
 42
0.000000
 10
-148.877614
 20
136.550056
 42
0.000000
 10
-148.488939
 20
136.050056
 42
0.000000
 10
-147.356289
 20
136.050056
 42
0.000000
 10
-147.067614
 20
136.550056
 42
0.000000
 10
-146.678939
 20
136.050056
 42
0.000000
 10
-146.000018
 20
136.050056
 42
0.000000
 10
-145.826813
 20
136.150056
 42
0.000000
 10
-122.000018
 20
138.250056
 42
0.000000
 10
-122.000018
 20
129.250056
 42
0.000000
 10
-145.826813
 20
131.350056
 42
0.000000
 10
-146.000018
 20
131.450056
 42
0.000000
 10
-146.162614
 20
130.950056
 42
0.000000
 10
-146.451289
 20
131.450056
 42
0.000000
 10
-147.583939
 20
131.450056
 42
0.000000
 10
-147.972614
 20
130.950056
 42
0.000000
 10
-148.261289
 20
131.450056
 42
0.000000
 10
-149.393939
 20
131.450056
 42
0.000000
 10
-149.782614
 20
130.950056
 42
0.000000
 10
-150.071289
 20
131.450056
 42
0.000000
 10
-151.203939
 20
131.450056
 42
0.000000
 10
-151.592614
 20
130.950056
 42
0.000000
 10
-151.881289
 20
131.450056
 42
0.000000
 10
-153.013939
 20
131.450056
 42
0.000000
 10
-153.402614
 20
130.950056
 42
0.000000
 10
-153.691289
 20
131.450056
 42
0.000000
 10
-154.823939
 20
131.450056
 42
0.000000
 10
-155.212614
 20
130.950056
 42
0.000000
 10
-155.501289
 20
131.450056
 42
0.000000
 10
-156.633939
 20
131.450056
 42
0.000000
 10
-157.022614
 20
130.950056
 42
0.000000
 10
-157.311289
 20
131.450056
 42
0.000000
 10
-158.443939
 20
131.450056
 42
0.000000
 10
-158.832614
 20
130.950056
 42
0.000000
 10
-159.121289
 20
131.450056
 42
0.000000
 10
-160.253939
 20
131.450056
 42
0.000000
 10
-160.642614
 20
130.950056
 42
0.000000
 10
-160.931289
 20
131.450056
 42
0.000000
 10
-162.063939
 20
131.450056
 42
0.000000
 10
-162.452614
 20
130.950056
 42
0.000000
 10
-162.741289
 20
131.450056
 42
0.000000
 10
-163.873939
 20
131.450056
 42
0.000000
 10
-164.262614
 20
130.950056
 42
0.000000
 10
-164.551289
 20
131.450056
 42
0.000000
 10
-165.683939
 20
131.450056
 42
0.000000
 10
-166.072614
 20
130.950056
 42
0.000000
 10
-166.361289
 20
131.450056
 42
0.000000
 10
-167.493939
 20
131.450056
 42
0.000000
 10
-167.882614
 20
130.950056
 42
0.000000
 10
-168.171289
 20
131.450056
 42
0.000000
 10
-169.303939
 20
131.450056
 42
0.000000
 10
-169.692614
 20
130.950056
 42
0.000000
 10
-169.981289
 20
131.450056
 42
0.000000
 10
-171.113939
 20
131.450056
 42
0.000000
 10
-171.502614
 20
130.950056
 42
0.000000
 10
-171.791289
 20
131.450056
 42
0.000000
 10
-172.923939
 20
131.450056
 42
0.000000
 10
-173.312614
 20
130.950056
 42
0.000000
 10
-173.601289
 20
131.450056
 42
0.000000
 10
-174.733939
 20
131.450056
 42
0.000000
 10
-175.122614
 20
130.950056
 42
0.000000
 10
-175.411289
 20
131.450056
 42
0.000000
 10
-176.543939
 20
131.450056
 42
0.000000
 10
-176.932614
 20
130.950056
 42
0.000000
 10
-177.221289
 20
131.450056
 42
0.000000
 10
-178.353939
 20
131.450056
 42
0.000000
 10
-178.742614
 20
130.950056
 42
0.000000
 10
-179.031289
 20
131.450056
 42
0.000000
 10
-180.163939
 20
131.450056
 42
0.000000
 10
-180.552614
 20
130.950056
 42
0.000000
 10
-180.841289
 20
131.450056
 42
0.000000
 10
-181.973939
 20
131.450056
 42
0.000000
 10
-182.362614
 20
130.950056
 42
0.000000
 10
-182.651289
 20
131.450056
 42
0.000000
 10
-183.783939
 20
131.450056
 42
0.000000
 10
-184.172614
 20
130.950056
 42
0.000000
 10
-184.461289
 20
131.450056
 42
0.000000
 10
-185.593939
 20
131.450056
 42
0.000000
 10
-185.982614
 20
130.950056
 42
0.000000
 10
-186.271289
 20
131.450056
 42
0.000000
 10
-187.403939
 20
131.450056
 42
0.000000
 10
-187.792614
 20
130.950056
 42
0.000000
 10
-188.081289
 20
131.450056
 42
0.000000
 10
-189.213939
 20
131.450056
 42
0.000000
 10
-189.602614
 20
130.950056
 42
0.000000
 10
-189.891289
 20
131.450056
 42
0.000000
 10
-191.023939
 20
131.450056
 42
0.000000
 10
-191.412614
 20
130.950056
 42
0.000000
 10
-191.701289
 20
131.450056
 42
0.000000
 10
-192.833939
 20
131.450056
 42
0.000000
 10
-193.222614
 20
130.950056
 42
0.000000
 10
-193.511289
 20
131.450056
 42
0.000000
 10
-194.643939
 20
131.450056
 42
0.000000
 10
-195.032614
 20
130.950056
 42
0.000000
 10
-195.321289
 20
131.450056
 42
0.000000
 10
-196.453939
 20
131.450056
 42
0.000000
 10
-196.842614
 20
130.950056
 42
0.000000
 10
-197.131289
 20
131.450056
 42
0.000000
 10
-198.263939
 20
131.450056
 42
0.000000
 10
-198.652614
 20
130.950056
 42
0.000000
 10
-198.941289
 20
131.450056
 42
0.000000
 10
-200.073939
 20
131.450056
 42
0.000000
 10
-200.462614
 20
130.950056
 42
0.000000
 10
-200.846829
 20
131.615535
 42
0.000000
 10
-201.775689
 20
132.000281
 42
0.000000
 10
-202.164364
 20
131.500281
 42
0.000000
 10
-202.665938
 20
132.369035
 42
0.000000
 10
-203.449302
 20
132.693515
 42
0.000000
 10
-203.837977
 20
132.193515
 42
0.000000
 10
-204.339552
 20
133.062268
 42
0.000000
 10
-206.000018
 20
133.750056
 42
0.000000
  0
ENDBLK
  5
747
100
AcDbEntity
  8
0
100
AcDbBlockEnd
  0
BLOCK
  5
748
100
AcDbEntity
  8
Detail
100
AcDbBlockBegin
  2
B-39
 70
    66
 10
0.000000
 20
0.000000
 30
0.000000
  0
LWPOLYLINE
  5
749
100
AcDbEntity
  8
Detail
  6
CONTINUOUS
 62
     3
100
AcDbPolyline
 90
     5
 10
-67.500018
 20
163.750056
 42
0.000000
 10
-87.500018
 20
163.750056
 42
0.000000
 10
-87.500018
 20
103.750056
 42
0.000000
 10
-67.500018
 20
103.750056
 42
0.000000
 10
-67.500018
 20
163.750056
 42
0.000000
  0
ENDBLK
  5
74F
100
AcDbEntity
  8
0
100
AcDbBlockEnd
  0
BLOCK
  5
750
100
AcDbEntity
  8
L
100
AcDbBlockBegin
  2
B-40
 70
    66
 10
0.000000
 20
0.000000
 30
0.000000
  0
LWPOLYLINE
  5
751
100
AcDbEntity
  8
L
  6
CONTINUOUS
 62
     3
100
AcDbPolyline
 90
     8
 10
212.500023
 20
-131.249941
 42
0.000000
 10
-142.500018
 20
-131.249941
 42
0.000000
 10
-142.500018
 20
-51.249941
 42
0.000000
 10
67.489689
 20
-51.249941
 42
0.000000
 10
67.489689
 20
-71.249941
 42
0.000000
 10
127.489689
 20
-71.249941
 42
0.000000
 10
127.489689
 20
-51.249941
 42
0.000000
 10
212.500023
 20
-51.249941
 42
0.000000
  0
ENDBLK
  5
75A
100
AcDbEntity
  8
0
100
AcDbBlockEnd
  0
BLOCK
  5
75B
100
AcDbEntity
  8
Detail
100
AcDbBlockBegin
  2
B-41
 70
    66
 10
0.000000
 20
0.000000
 30
0.000000
  0
LWPOLYLINE
  5
75C
100
AcDbEntity
  8
Detail
  6
CONTINUOUS
 62
     7
100
AcDbPolyline
 90
     2
 10
77.500023
 20
83.750059
 42
0.000000
 10
-150.000018
 20
83.750056
 42
0.000000
  0
ENDBLK
  5
75F
100
AcDbEntity
  8
0
100
AcDbBlockEnd
  0
BLOCK
  5
760
100
AcDbEntity
  8
Detail
100
AcDbBlockBegin
  2
B-42
 70
    66
 10
0.000000
 20
0.000000
 30
0.000000
  0
LWPOLYLINE
  5
761
100
AcDbEntity
  8
Detail
  6
CONTINUOUS
 62
     7
100
AcDbPolyline
 90
     3
 10
77.500023
 20
58.750059
 42
0.000000
 10
-121.500018
 20
58.750059
 42
0.000000
 10
-121.500018
 20
-37.749941
 42
0.000000
  0
ENDBLK
  5
765
100
AcDbEntity
  8
0
100
AcDbBlockEnd
  0
BLOCK
  5
766
100
AcDbEntity
  8
Detail
100
AcDbBlockBegin
  2
B-43
 70
    66
 10
0.000000
 20
0.000000
 30
0.000000
  0
LWPOLYLINE
  5
767
100
AcDbEntity
  8
Detail
  6
CONTINUOUS
 62
     7
100
AcDbPolyline
 90
     2
 10
77.500023
 20
133.750059
 42
0.000000
 10
-86.000018
 20
133.750056
 42
0.000000
  0
ENDBLK
  5
76A
100
AcDbEntity
  8
0
100
AcDbBlockEnd
  0
BLOCK
  5
76B
100
AcDbEntity
  8
Detail
100
AcDbBlockBegin
  2
B-44
 70
    66
 10
0.000000
 20
0.000000
 30
0.000000
  0
LWPOLYLINE
  5
76C
100
AcDbEntity
  8
Detail
  6
CONTINUOUS
 62
     7
100
AcDbPolyline
 90
     2
 10
77.500023
 20
108.750059
 42
0.000000
 10
-107.500018
 20
108.750056
 42
0.000000
  0
ENDBLK
  5
76F
100
AcDbEntity
  8
0
100
AcDbBlockEnd
  0
BLOCK
  5
770
100
AcDbEntity
  8
Detail
100
AcDbBlockBegin
  2
B-45
 70
    66
 10
0.000000
 20
0.000000
 30
0.000000
  0
MTEXT
  5
771
100
AcDbEntity
  8
Detail
 62
     7
100
AcDbMText
 10
-211.093768
 20
-225.937528
 30
0.000000
 40
3.749990
 41
353.428963
 71
     7
 72
     5
  1
Capatect Details sind allgemeine planerische Vorschläge. Sie stellen schematisch die Ausführung dar. Ihnen zugrunde liegen die entsprechenden 
  7
Arial
 50
0.000000
  0
MTEXT
  5
772
100
AcDbEntity
  8
Detail
 62
     7
100
AcDbMText
 10
-211.093768
 20
-231.562513
 30
0.000000
 40
3.749990
 41
392.764473
 71
     7
 72
     5
  1
Produktdatenblätter sowie Systemzulassungen. Die Möglichkeit der Detailanwendung sowie deren Vollständigkeit sind im speziellen Anwendungsfall vom Planer / 
  7
Arial
 50
0.000000
  0
MTEXT
  5
773
100
AcDbEntity
  8
Detail
 62
     7
100
AcDbMText
 10
-211.093768
 20
-237.187498
 30
0.000000
 40
3.749990
 41
107.887184
 71
     7
 72
     5
  1
Unternehmer eigenverantwortlich zu prüfen. 
  7
Arial
 50
0.000000
  0
ENDBLK
  5
774
100
AcDbEntity
  8
0
100
AcDbBlockEnd
  0
BLOCK
  5
775
100
AcDbEntity
  8
Detail
100
AcDbBlockBegin
  2
B-46
 70
    66
 10
0.000000
 20
0.000000
 30
0.000000
  0
LWPOLYLINE
  5
776
100
AcDbEntity
  8
Detail
  6
CONTINUOUS
 62
     6
100
AcDbPolyline
 90
     2
 10
237.500023
 20
-246.249941
 42
0.000000
 10
-237.500018
 20
-246.249941
 42
0.000000
  0
ENDBLK
  5
779
100
AcDbEntity
  8
0
100
AcDbBlockEnd
  0
BLOCK
  5
77A
100
AcDbEntity
  8
Detail
100
AcDbBlockBegin
  2
B-47
 70
    66
 10
0.000000
 20
0.000000
 30
0.000000
  0
MTEXT
  5
77B
100
AcDbEntity
  8
Detail
 62
     7
100
AcDbMText
 10
-210.625002
 20
-252.656291
 30
0.000000
 40
5.625000
 41
139.564688
 71
     1
 72
     5
  1
System:	WDVS mit Edelkratzputz 
  7
Arial
 50
0.000000
  0
ENDBLK
  5
77C
100
AcDbEntity
  8
0
100
AcDbBlockEnd
  0
BLOCK
  5
77D
100
AcDbEntity
  8
Detail
100
AcDbBlockBegin
  2
B-48
 70
    66
 10
0.000000
 20
0.000000
 30
0.000000
  0
MTEXT
  5
77E
100
AcDbEntity
  8
Detail
 62
     7
100
AcDbMText
 10
-210.625002
 20
-295.781291
 30
0.000000
 40
5.625000
 41
112.573125
 71
     7
 72
     5
  1
Detail:	Innenecke mit Dehnfuge
  7
Arial
 50
0.000000
  0
MTEXT
  5
77F
100
AcDbEntity
  8
Detail
 62
     7
100
AcDbMText
 10
-210.625002
 20
-304.218791
 30
0.000000
 40
5.625000
 41
89.775000
 71
     7
 72
     5
  1
	(Horizontalschnitt)
  7
Arial
 50
0.000000
  0
ENDBLK
  5
780
100
AcDbEntity
  8
0
100
AcDbBlockEnd
  0
BLOCK
  5
781
100
AcDbEntity
  8
Detail
100
AcDbBlockBegin
  2
B-49
 70
    66
 10
0.000000
 20
0.000000
 30
0.000000
  0
MTEXT
  5
782
100
AcDbEntity
  8
Detail
 62
     7
100
AcDbMText
 10
6.314834
 20
-252.500041
 30
0.000000
 40
5.000000
 41
93.712500
 71
     1
 72
     5
  1
Plannummer:	130-1320
  7
Arial
 50
0.000000
  0
ENDBLK
  5
783
100
AcDbEntity
  8
0
100
AcDbBlockEnd
  0
BLOCK
  5
784
100
AcDbEntity
  8
Detail
100
AcDbBlockBegin
  2
B-50
 70
    66
 10
0.000000
 20
0.000000
 30
0.000000
  0
MTEXT
  5
785
100
AcDbEntity
  8
Detail
 62
     7
100
AcDbMText
 10
6.314834
 20
-277.500041
 30
0.000000
 40
5.000000
 41
91.035000
 71
     1
 72
     5
  1
Massstab:		ca. 1:2,5
  7
Arial
 50
0.000000
  0
ENDBLK
  5
786
100
AcDbEntity
  8
0
100
AcDbBlockEnd
  0
BLOCK
  5
787
100
AcDbEntity
  8
Detail
100
AcDbBlockBegin
  2
B-51
 70
    66
 10
0.000000
 20
0.000000
 30
0.000000
  0
MTEXT
  5
788
100
AcDbEntity
  8
Detail
 62
     7
100
AcDbMText
 10
6.314834
 20
-302.500041
 30
0.000000
 40
5.000000
 41
99.435000
 71
     1
 72
     5
  1
Aktualisierung:	14.07.2016
  7
Arial
 50
0.000000
  0
ENDBLK
  5
789
100
AcDbEntity
  8
0
100
AcDbBlockEnd
  0
BLOCK
  5
78A
100
AcDbEntity
  8
Detail
100
AcDbBlockBegin
  2
B-52
 70
    66
 10
0.000000
 20
0.000000
 30
0.000000
  0
LWPOLYLINE
  5
78B
100
AcDbEntity
  8
Detail
  6
CONTINUOUS
 62
     6
100
AcDbPolyline
 90
     2
 10
-20.560166
 20
-321.249941
 42
0.000000
 10
-20.560166
 20
-246.249941
 42
0.000000
  0
LWPOLYLINE
  5
78E
100
AcDbEntity
  8
Detail
  6
CONTINUOUS
 62
     6
100
AcDbPolyline
 90
     2
 10
-237.500018
 20
-321.249941
 42
0.000000
 10
120.969928
 20
-321.249941
 42
0.000000
  0
LWPOLYLINE
  5
791
100
AcDbEntity
  8
Detail
  6
CONTINUOUS
 62
     6
100
AcDbPolyline
 90
     2
 10
-20.560166
 20
-271.249941
 42
0.000000
 10
120.969928
 20
-271.249941
 42
0.000000
  0
LWPOLYLINE
  5
794
100
AcDbEntity
  8
Detail
  6
CONTINUOUS
 62
     6
100
AcDbPolyline
 90
     2
 10
-20.560166
 20
-296.249941
 42
0.000000
 10
120.969928
 20
-296.249941
 42
0.000000
  0
ENDBLK
  5
797
100
AcDbEntity
  8
0
100
AcDbBlockEnd
  0
BLOCK
  5
798
100
AcDbEntity
  8
Detail
100
AcDbBlockBegin
  2
B-53
 70
    66
 10
0.000000
 20
0.000000
 30
0.000000
  0
LWPOLYLINE
  5
799
100
AcDbEntity
  8
Detail
  6
CONTINUOUS
 62
     6
100
AcDbPolyline
 90
     2
 10
-20.560166
 20
-283.749941
 42
0.000000
 10
-237.500018
 20
-283.749941
 42
0.000000
  0
ENDBLK
  5
79C
100
AcDbEntity
  8
0
100
AcDbBlockEnd
  0
BLOCK
  5
79D
100
AcDbEntity
  8
Detail
100
AcDbBlockBegin
  2
B-54
 70
    66
 10
0.000000
 20
0.000000
 30
0.000000
  0
LWPOLYLINE
  5
79E
100
AcDbEntity
  8
Detail
  6
CONTINUOUS
 62
     6
100
AcDbPolyline
 90
     2
 10
120.969928
 20
-346.249941
 42
0.000000
 10
120.969928
 20
-246.249941
 42
0.000000
  0
ENDBLK
  5
7A1
100
AcDbEntity
  8
0
100
AcDbBlockEnd
  0
BLOCK
  5
7A2
100
AcDbEntity
  8
Detail
100
AcDbBlockBegin
  2
B-55
 70
    66
 10
0.000000
 20
0.000000
 30
0.000000
  0
LWPOLYLINE
  5
7A3
100
AcDbEntity
  8
Detail
  6
CONTINUOUS
 62
     6
100
AcDbPolyline
 90
     5
 10
-237.500018
 20
-346.249941
 42
0.000000
 10
237.500023
 20
-346.249941
 42
0.000000
 10
237.500023
 20
346.250078
 42
0.000000
 10
-237.500018
 20
346.250078
 42
0.000000
 10
-237.500018
 20
-346.249941
 42
0.000000
  0
ENDBLK
  5
7A9
100
AcDbEntity
  8
0
100
AcDbBlockEnd
  0
BLOCK
  5
7AA
100
AcDbEntity
  8
SCHRAFF
100
AcDbBlockBegin
  2
B-56
 70
    66
 10
0.000000
 20
0.000000
 30
0.000000
  0
HATCH
  5
7AB
100
AcDbEntity
  8
SCHRAFF
  6
CONTINUOUS
 62
     9
100
AcDbHatch
 10
0.000000
 20
0.000000
 30
0.000000
210
0.000000
220
0.000000
230
1.000000
  2
_U
 70
     0
 71
     1
 91
     1
 92
    18
 72
     1
 73
     0
 93
     5
 10
-67.500018
 20
103.750056
 42
0.000000
 10
-67.500018
 20
163.750056
 42
0.000000
 10
-87.500018
 20
163.750056
 42
0.000000
 10
-87.500018
 20
103.750056
 42
0.000000
 10
-67.500018
 20
103.750056
 42
0.000000
 97
     0
 75
     0
 76
     0
 52
0.000000
 41
1.000000
 77
     0
 78
     1
 53
90.000000
 43
-0.000000
 44
0.000000
 45
-6.875000
 46
0.000000
 79
     0
 98
     0
  0
ENDBLK
  5
7AC
100
AcDbEntity
  8
0
100
AcDbBlockEnd
  0
BLOCK
  5
7AD
100
AcDbEntity
  8
Detail
100
AcDbBlockBegin
  2
B-57
 70
    66
 10
0.000000
 20
0.000000
 30
0.000000
  0
MTEXT
  5
7AE
100
AcDbEntity
  8
Detail
 62
     7
100
AcDbMText
 10
39.374975
 20
-332.500019
 30
0.000000
 40
4.999982
 41
51.922313
 71
     7
 72
     5
  1
info@daw.swiss
  7
Arial
 50
0.000000
  0
MTEXT
  5
7AF
100
AcDbEntity
  8
Detail
 62
     7
100
AcDbMText
 10
39.374975
 20
-339.999993
 30
0.000000
 40
4.999982
 41
54.599803
 71
     7
 72
     5
  1
www.capatect.ch
  7
Arial
 50
0.000000
  0
ENDBLK
  5
7B0
100
AcDbEntity
  8
0
100
AcDbBlockEnd
  0
BLOCK
  5
7B1
100
AcDbEntity
  8
Detail
100
AcDbBlockBegin
  2
B-58
 70
    66
 10
0.000000
 20
0.000000
 30
0.000000
  0
MTEXT
  5
7B2
100
AcDbEntity
  8
Detail
 62
     7
100
AcDbMText
 10
-85.625025
 20
-332.500016
 30
0.000000
 40
4.999980
 41
72.134711
 71
     7
 72
     5
  1
Telefon 043 399 42 22
  7
Arial
 50
0.000000
  0
MTEXT
  5
7B3
100
AcDbEntity
  8
Detail
 62
     7
100
AcDbMText
 10
-85.625025
 20
-339.999986
 30
0.000000
 40
4.999980
 41
71.767213
 71
     7
 72
     5
  1
Telefax 043 399 42 23
  7
Arial
 50
0.000000
  0
ENDBLK
  5
7B4
100
AcDbEntity
  8
0
100
AcDbBlockEnd
  0
BLOCK
  5
7B5
100
AcDbEntity
  8
Detail
100
AcDbBlockBegin
  2
B-59
 70
    66
 10
0.000000
 20
0.000000
 30
0.000000
  0
MTEXT
  5
7B6
100
AcDbEntity
  8
Detail
 62
     7
100
AcDbMText
 10
-210.625009
 20
-332.500016
 30
0.000000
 40
4.999980
 41
58.117268
 71
     7
 72
     5
  1
DAW Schweiz AG
  7
Arial
 50
0.000000
  0
MTEXT
  5
7B7
100
AcDbEntity
  8
Detail
 62
     7
100
AcDbMText
 10
-210.625009
 20
-339.999986
 30
0.000000
 40
4.999980
 41
108.149567
 71
     7
 72
     5
  1
Gewerbestrasse 6, 8606 Nänikon
  7
Arial
 50
0.000000
  0
ENDBLK
  5
7B8
100
AcDbEntity
  8
0
100
AcDbBlockEnd
  0
BLOCK
  5
7B9
100
AcDbEntity
  8
Detail
100
AcDbBlockBegin
  2
B-60
 70
    66
 10
0.000000
 20
0.000000
 30
0.000000
  0
LWPOLYLINE
  5
7BA
100
AcDbEntity
  8
Detail
  6
CONTINUOUS
 62
     9
100
AcDbPolyline
 90
     2
 10
90.489689
 20
-99.749941
 42
0.000000
 10
104.469102
 20
-99.749941
 42
0.000000
  0
LWPOLYLINE
  5
7BD
100
AcDbEntity
  8
Detail
  6
CONTINUOUS
 62
     9
100
AcDbPolyline
 90
    83
 10
127.489689
 20
-71.249941
 42
0.000000
 10
127.489689
 20
-70.749941
 42
0.000000
 10
122.489689
 20
-69.749941
 42
0.000000
 10
72.489689
 20
-69.749941
 42
0.000000
 10
67.489689
 20
-70.749941
 42
0.000000
 10
67.489689
 20
-71.249941
 42
0.000000
 10
84.489689
 20
-71.249941
 42
0.000000
 10
88.239689
 20
-72.499941
 42
0.000000
 10
89.489689
 20
-76.249941
 42
0.000000
 10
90.489689
 20
-99.749941
 42
0.000000
 10
92.989689
 20
-105.749941
 42
0.000000
 10
93.529689
 20
-148.212138
 42
0.000000
 10
93.776698
 20
-149.578081
 42
0.000000
 10
93.529689
 20
-149.653834
 42
0.000000
 10
93.529689
 20
-152.436138
 42
0.000000
 10
93.776698
 20
-153.802081
 42
0.000000
 10
93.529689
 20
-153.877834
 42
0.000000
 10
93.529689
 20
-156.660138
 42
0.000000
 10
93.776698
 20
-158.026081
 42
0.000000
 10
93.534489
 20
-158.101750
 42
0.000000
 10
93.529689
 20
-160.884138
 42
0.000000
 10
93.776698
 20
-162.250081
 42
0.000000
 10
93.529689
 20
-162.325834
 42
0.000000
 10
93.529689
 20
-165.108138
 42
0.000000
 10
93.776698
 20
-166.474081
 42
0.000000
 10
93.529689
 20
-166.549834
 42
0.000000
 10
93.529689
 20
-169.332138
 42
0.000000
 10
93.776698
 20
-170.698081
 42
0.000000
 10
93.529689
 20
-170.773834
 42
0.000000
 10
93.529689
 20
-173.556138
 42
0.000000
 10
93.776698
 20
-174.922081
 42
0.000000
 10
93.529689
 20
-174.997834
 42
0.000000
 10
93.529689
 20
-177.780138
 42
0.000000
 10
93.776698
 20
-179.146081
 42
0.000000
 10
93.529689
 20
-179.221834
 42
0.000000
 10
93.529689
 20
-182.004138
 42
0.000000
 10
93.812121
 20
-183.208294
 42
0.000000
 10
93.649690
 20
-183.667277
 42
0.000000
 10
94.083945
 20
-184.644138
 42
0.000000
 10
94.609689
 20
-184.884138
 42
0.000000
 10
94.609689
 20
-185.652138
 42
0.000000
 10
95.150657
 20
-187.170031
 42
0.000000
 10
96.529689
 20
-188.003648
 42
0.000000
 10
97.489689
 20
-189.749941
 42
0.000000
 10
98.449689
 20
-188.003648
 42
0.000000
 10
99.828721
 20
-187.170031
 42
0.000000
 10
100.356082
 20
-185.907337
 42
0.000000
 10
100.369689
 20
-184.884138
 42
0.000000
 10
100.895433
 20
-184.644138
 42
0.000000
 10
101.329689
 20
-183.891982
 42
0.000000
 10
101.329689
 20
-183.442569
 42
0.000000
 10
101.167257
 20
-183.208294
 42
0.000000
 10
101.449689
 20
-182.004138
 42
0.000000
 10
101.449689
 20
-179.221834
 42
0.000000
 10
101.202680
 20
-179.146081
 42
0.000000
 10
101.449689
 20
-177.780138
 42
0.000000
 10
101.449689
 20
-174.997834
 42
0.000000
 10
101.202680
 20
-174.922081
 42
0.000000
 10
101.449689
 20
-173.556138
 42
0.000000
 10
101.449689
 20
-170.773834
 42
0.000000
 10
101.202680
 20
-170.698081
 42
0.000000
 10
101.449689
 20
-169.332138
 42
0.000000
 10
101.449689
 20
-166.549834
 42
0.000000
 10
101.202680
 20
-166.474081
 42
0.000000
 10
101.449689
 20
-165.108138
 42
0.000000
 10
101.449689
 20
-162.325834
 42
0.000000
 10
101.202680
 20
-162.250081
 42
0.000000
 10
101.449689
 20
-160.884138
 42
0.000000
 10
101.444889
 20
-158.101750
 42
0.000000
 10
101.202680
 20
-158.026081
 42
0.000000
 10
101.449689
 20
-156.660138
 42
0.000000
 10
101.449689
 20
-153.877834
 42
0.000000
 10
101.202680
 20
-153.802081
 42
0.000000
 10
101.449689
 20
-152.436138
 42
0.000000
 10
101.449689
 20
-149.653834
 42
0.000000
 10
101.202680
 20
-149.578081
 42
0.000000
 10
101.449689
 20
-148.212138
 42
0.000000
 10
101.989689
 20
-105.749941
 42
0.000000
 10
104.489689
 20
-99.749941
 42
0.000000
 10
105.489689
 20
-76.249941
 42
0.000000
 10
106.739689
 20
-72.499941
 42
0.000000
 10
110.489689
 20
-71.249941
 42
0.000000
 10
127.489689
 20
-71.249941
 42
0.000000
  0
LWPOLYLINE
  5
811
100
AcDbEntity
  8
Detail
  6
CONTINUOUS
 62
     9
100
AcDbPolyline
 90
   203
 10
97.489689
 20
-189.749941
 42
0.000000
 10
96.614424
 20
-187.636865
 42
0.000000
 10
95.745670
 20
-187.135290
 42
0.000000
 10
96.245670
 20
-186.746615
 42
0.000000
 10
95.798180
 20
-185.666278
 42
0.000000
 10
94.929426
 20
-185.164703
 42
0.000000
 10
95.429426
 20
-184.776028
 42
0.000000
 10
95.189689
 20
-184.197251
 42
0.000000
 10
95.189689
 20
-183.596212
 42
0.000000
 10
94.689689
 20
-183.307537
 42
0.000000
 10
95.189689
 20
-182.918862
 42
0.000000
 10
95.189689
 20
-181.786212
 42
0.000000
 10
94.689689
 20
-181.497537
 42
0.000000
 10
95.189689
 20
-181.108862
 42
0.000000
 10
95.189689
 20
-179.976212
 42
0.000000
 10
94.689689
 20
-179.687537
 42
0.000000
 10
95.189689
 20
-179.298862
 42
0.000000
 10
95.189689
 20
-178.166212
 42
0.000000
 10
94.689689
 20
-177.877537
 42
0.000000
 10
95.189689
 20
-177.488862
 42
0.000000
 10
95.189689
 20
-176.356212
 42
0.000000
 10
94.689689
 20
-176.067537
 42
0.000000
 10
95.189689
 20
-175.678862
 42
0.000000
 10
95.189689
 20
-174.546212
 42
0.000000
 10
94.689689
 20
-174.257537
 42
0.000000
 10
95.189689
 20
-173.868862
 42
0.000000
 10
95.189689
 20
-172.736212
 42
0.000000
 10
94.689689
 20
-172.447537
 42
0.000000
 10
95.189689
 20
-172.058862
 42
0.000000
 10
95.189689
 20
-170.926212
 42
0.000000
 10
94.689689
 20
-170.637537
 42
0.000000
 10
95.189689
 20
-170.248862
 42
0.000000
 10
95.189689
 20
-169.116212
 42
0.000000
 10
94.689689
 20
-168.827537
 42
0.000000
 10
95.189689
 20
-168.438862
 42
0.000000
 10
95.189689
 20
-167.306212
 42
0.000000
 10
94.689689
 20
-167.017537
 42
0.000000
 10
95.189689
 20
-166.628862
 42
0.000000
 10
95.189689
 20
-165.496212
 42
0.000000
 10
94.689689
 20
-165.207537
 42
0.000000
 10
95.189689
 20
-164.818862
 42
0.000000
 10
95.189689
 20
-163.686212
 42
0.000000
 10
94.689689
 20
-163.397537
 42
0.000000
 10
95.189689
 20
-163.008862
 42
0.000000
 10
95.189689
 20
-161.876212
 42
0.000000
 10
94.689689
 20
-161.587537
 42
0.000000
 10
95.189689
 20
-161.198862
 42
0.000000
 10
95.189689
 20
-160.066212
 42
0.000000
 10
94.689689
 20
-159.777537
 42
0.000000
 10
95.189689
 20
-159.388862
 42
0.000000
 10
95.189689
 20
-158.256212
 42
0.000000
 10
94.689689
 20
-157.967537
 42
0.000000
 10
95.189689
 20
-157.578862
 42
0.000000
 10
95.189689
 20
-156.446212
 42
0.000000
 10
94.689689
 20
-156.157537
 42
0.000000
 10
95.189689
 20
-155.768862
 42
0.000000
 10
95.189689
 20
-154.636212
 42
0.000000
 10
94.689689
 20
-154.347537
 42
0.000000
 10
95.189689
 20
-153.936348
 42
0.000000
 10
95.189689
 20
-152.826212
 42
0.000000
 10
94.689689
 20
-152.537537
 42
0.000000
 10
95.189689
 20
-152.148862
 42
0.000000
 10
95.189689
 20
-151.016212
 42
0.000000
 10
94.689689
 20
-150.727537
 42
0.000000
 10
95.189689
 20
-150.338862
 42
0.000000
 10
95.189689
 20
-149.206212
 42
0.000000
 10
94.689689
 20
-148.917537
 42
0.000000
 10
95.189689
 20
-148.528862
 42
0.000000
 10
95.189689
 20
-147.396212
 42
0.000000
 10
94.689689
 20
-147.107537
 42
0.000000
 10
95.189689
 20
-146.718862
 42
0.000000
 10
95.189689
 20
-145.586212
 42
0.000000
 10
94.689689
 20
-145.297537
 42
0.000000
 10
95.189689
 20
-144.908862
 42
0.000000
 10
95.189689
 20
-143.776212
 42
0.000000
 10
94.689689
 20
-143.487537
 42
0.000000
 10
95.189689
 20
-143.098862
 42
0.000000
 10
95.189689
 20
-141.966212
 42
0.000000
 10
94.689689
 20
-141.677537
 42
0.000000
 10
95.189689
 20
-141.288862
 42
0.000000
 10
95.189689
 20
-140.156212
 42
0.000000
 10
94.689689
 20
-139.867537
 42
0.000000
 10
95.189689
 20
-139.478862
 42
0.000000
 10
95.189689
 20
-138.346212
 42
0.000000
 10
94.689689
 20
-138.057537
 42
0.000000
 10
95.189689
 20
-137.668862
 42
0.000000
 10
95.189689
 20
-136.536212
 42
0.000000
 10
94.689689
 20
-136.247537
 42
0.000000
 10
95.189689
 20
-135.858862
 42
0.000000
 10
95.189689
 20
-134.726212
 42
0.000000
 10
94.689689
 20
-134.437537
 42
0.000000
 10
95.189689
 20
-134.048862
 42
0.000000
 10
95.189689
 20
-132.916212
 42
0.000000
 10
94.689689
 20
-132.627537
 42
0.000000
 10
95.189689
 20
-132.238862
 42
0.000000
 10
95.189689
 20
-131.106212
 42
0.000000
 10
94.689689
 20
-130.817537
 42
0.000000
 10
95.189689
 20
-130.428862
 42
0.000000
 10
95.189689
 20
-129.749941
 42
0.000000
 10
95.089689
 20
-129.576736
 42
0.000000
 10
92.989689
 20
-105.749941
 42
0.000000
 10
101.989689
 20
-105.749941
 42
0.000000
 10
99.889689
 20
-129.576736
 42
0.000000
 10
99.789689
 20
-129.749941
 42
0.000000
 10
100.289689
 20
-129.912537
 42
0.000000
 10
99.789689
 20
-130.201212
 42
0.000000
 10
99.789689
 20
-131.333862
 42
0.000000
 10
100.289689
 20
-131.722537
 42
0.000000
 10
99.789689
 20
-132.011212
 42
0.000000
 10
99.789689
 20
-133.143862
 42
0.000000
 10
100.289689
 20
-133.532537
 42
0.000000
 10
99.789689
 20
-133.821212
 42
0.000000
 10
99.789689
 20
-134.953862
 42
0.000000
 10
100.289689
 20
-135.342537
 42
0.000000
 10
99.789689
 20
-135.631212
 42
0.000000
 10
99.789689
 20
-136.763862
 42
0.000000
 10
100.289689
 20
-137.152537
 42
0.000000
 10
99.789689
 20
-137.441212
 42
0.000000
 10
99.789689
 20
-138.573862
 42
0.000000
 10
100.289689
 20
-138.962537
 42
0.000000
 10
99.789689
 20
-139.251212
 42
0.000000
 10
99.789689
 20
-140.383862
 42
0.000000
 10
100.289689
 20
-140.772537
 42
0.000000
 10
99.789689
 20
-141.061212
 42
0.000000
 10
99.789689
 20
-142.193862
 42
0.000000
 10
100.289689
 20
-142.582537
 42
0.000000
 10
99.789689
 20
-142.871212
 42
0.000000
 10
99.789689
 20
-144.003862
 42
0.000000
 10
100.289689
 20
-144.392537
 42
0.000000
 10
99.789689
 20
-144.681212
 42
0.000000
 10
99.789689
 20
-145.813862
 42
0.000000
 10
100.289689
 20
-146.202537
 42
0.000000
 10
99.789689
 20
-146.491212
 42
0.000000
 10
99.789689
 20
-147.623862
 42
0.000000
 10
100.289689
 20
-148.012537
 42
0.000000
 10
99.789689
 20
-148.301212
 42
0.000000
 10
99.789689
 20
-149.433862
 42
0.000000
 10
100.289689
 20
-149.822537
 42
0.000000
 10
99.789689
 20
-150.111212
 42
0.000000
 10
99.789689
 20
-151.243862
 42
0.000000
 10
100.289689
 20
-151.632537
 42
0.000000
 10
99.789689
 20
-151.921212
 42
0.000000
 10
99.789689
 20
-153.053862
 42
0.000000
 10
100.289689
 20
-153.442537
 42
0.000000
 10
99.789689
 20
-153.731212
 42
0.000000
 10
99.789689
 20
-154.863862
 42
0.000000
 10
100.289689
 20
-155.252537
 42
0.000000
 10
99.789689
 20
-155.541212
 42
0.000000
 10
99.789689
 20
-156.673862
 42
0.000000
 10
100.289689
 20
-157.062537
 42
0.000000
 10
99.789689
 20
-157.351212
 42
0.000000
 10
99.789689
 20
-158.483862
 42
0.000000
 10
100.289689
 20
-158.872537
 42
0.000000
 10
99.789689
 20
-159.161212
 42
0.000000
 10
99.789689
 20
-160.293862
 42
0.000000
 10
100.289689
 20
-160.682537
 42
0.000000
 10
99.789689
 20
-160.971212
 42
0.000000
 10
99.789689
 20
-162.103862
 42
0.000000
 10
100.289689
 20
-162.492537
 42
0.000000
 10
99.789689
 20
-162.781212
 42
0.000000
 10
99.789689
 20
-163.913862
 42
0.000000
 10
100.289689
 20
-164.302537
 42
0.000000
 10
99.789689
 20
-164.591212
 42
0.000000
 10
99.789689
 20
-165.723862
 42
0.000000
 10
100.289689
 20
-166.112537
 42
0.000000
 10
99.789689
 20
-166.401212
 42
0.000000
 10
99.789689
 20
-167.533862
 42
0.000000
 10
100.289689
 20
-167.922537
 42
0.000000
 10
99.789689
 20
-168.211212
 42
0.000000
 10
99.789689
 20
-169.343862
 42
0.000000
 10
100.289689
 20
-169.732537
 42
0.000000
 10
99.789689
 20
-170.021212
 42
0.000000
 10
99.789689
 20
-171.153862
 42
0.000000
 10
100.289689
 20
-171.542537
 42
0.000000
 10
99.789689
 20
-171.831212
 42
0.000000
 10
99.789689
 20
-172.963862
 42
0.000000
 10
100.289689
 20
-173.352537
 42
0.000000
 10
99.789689
 20
-173.641212
 42
0.000000
 10
99.789689
 20
-174.773862
 42
0.000000
 10
100.289689
 20
-175.162537
 42
0.000000
 10
99.789689
 20
-175.451212
 42
0.000000
 10
99.789689
 20
-176.583862
 42
0.000000
 10
100.289689
 20
-176.972537
 42
0.000000
 10
99.789689
 20
-177.261212
 42
0.000000
 10
99.789689
 20
-178.393862
 42
0.000000
 10
100.289689
 20
-178.782537
 42
0.000000
 10
99.789689
 20
-179.071212
 42
0.000000
 10
99.789689
 20
-180.203862
 42
0.000000
 10
100.289689
 20
-180.592537
 42
0.000000
 10
99.789689
 20
-180.881212
 42
0.000000
 10
99.789689
 20
-182.013862
 42
0.000000
 10
100.289689
 20
-182.402537
 42
0.000000
 10
99.789689
 20
-182.691212
 42
0.000000
 10
99.789689
 20
-183.823862
 42
0.000000
 10
100.289689
 20
-184.212537
 42
0.000000
 10
99.624210
 20
-184.596752
 42
0.000000
 10
99.239463
 20
-185.525612
 42
0.000000
 10
99.739463
 20
-185.914287
 42
0.000000
 10
98.870710
 20
-186.415861
 42
0.000000
 10
98.546230
 20
-187.199225
 42
0.000000
 10
99.046230
 20
-187.587900
 42
0.000000
 10
98.177476
 20
-188.089475
 42
0.000000
 10
97.489689
 20
-189.749941
 42
0.000000
  0
ENDBLK
  5
8DD
100
AcDbEntity
  8
0
100
AcDbBlockEnd
  0
BLOCK
  5
8DE
100
AcDbEntity
  8
Detail
100
AcDbBlockBegin
  2
B-62
 70
    66
 10
0.000000
 20
0.000000
 30
0.000000
  0
LWPOLYLINE
  5
8DF
100
AcDbEntity
  8
Detail
  6
CONTINUOUS
 62
     3
100
AcDbPolyline
 90
     5
 10
67.489689
 20
-51.249941
 42
0.000000
 10
67.489689
 20
-71.249941
 42
0.000000
 10
127.489689
 20
-71.249941
 42
0.000000
 10
127.489689
 20
-51.249941
 42
0.000000
 10
67.489689
 20
-51.249941
 42
0.000000
  0
ENDBLK
  5
8E5
100
AcDbEntity
  8
0
100
AcDbBlockEnd
  0
BLOCK
  5
8E6
100
AcDbEntity
  8
Detail
100
AcDbBlockBegin
  2
B-63
 70
    66
 10
0.000000
 20
0.000000
 30
0.000000
  0
MTEXT
  5
8E7
100
AcDbEntity
  8
Detail
 62
     7
100
AcDbMText
 10
79.375020
 20
-13.749944
 30
0.000000
 40
4.999990
 41
62.947349
 71
     1
 72
     5
  1
Putzabschlussprofil
  7
Arial
 50
0.000000
  0
ENDBLK
  5
8E8
100
AcDbEntity
  8
0
100
AcDbBlockEnd
  0
BLOCK
  5
8E9
100
AcDbEntity
  8
Detail
100
AcDbBlockBegin
  2
B-64
 70
    66
 10
0.000000
 20
0.000000
 30
0.000000
  0
LWPOLYLINE
  5
8EA
100
AcDbEntity
  8
Detail
  6
CONTINUOUS
 62
     6
100
AcDbPolyline
 90
     4
 10
-152.500018
 20
296.250078
 42
0.000000
 10
-152.500018
 20
-26.249941
 42
0.000000
 10
-147.500018
 20
-26.249941
 42
0.000000
 10
-147.500018
 20
296.250078
 42
0.000000
  0
ENDBLK
  5
8EF
100
AcDbEntity
  8
0
100
AcDbBlockEnd
  0
BLOCK
  5
8F0
100
AcDbEntity
  8
L
100
AcDbBlockBegin
  2
B-65
 70
    66
 10
0.000000
 20
0.000000
 30
0.000000
  0
LWPOLYLINE
  5
8F1
100
AcDbEntity
  8
L
  6
CONTINUOUS
 62
     2
100
AcDbPolyline
 90
     2
 10
-152.500018
 20
-196.249941
 42
0.000000
 10
-152.500018
 20
296.250078
 42
0.000000
  0
ENDBLK
  5
8F4
100
AcDbEntity
  8
0
100
AcDbBlockEnd
  0
BLOCK
  5
8F5
100
AcDbEntity
  8
L
100
AcDbBlockBegin
  2
B-66
 70
    66
 10
0.000000
 20
0.000000
 30
0.000000
  0
LWPOLYLINE
  5
8F6
100
AcDbEntity
  8
L
  6
CONTINUOUS
 62
     3
100
AcDbPolyline
 90
     4
 10
-67.500018
 20
296.250078
 42
0.000000
 10
-67.500018
 20
-26.249941
 42
0.000000
 10
-147.500018
 20
-26.249941
 42
0.000000
 10
-147.500018
 20
296.250078
 42
0.000000
  0
ENDBLK
  5
8FB
100
AcDbEntity
  8
0
100
AcDbBlockEnd
  0
BLOCK
  5
8FC
100
AcDbEntity
  8
L
100
AcDbBlockBegin
  2
B-67
 70
    66
 10
0.000000
 20
0.000000
 30
0.000000
  0
LWPOLYLINE
  5
8FD
100
AcDbEntity
  8
L
  6
HIDDEN
 62
     9
100
AcDbPolyline
 90
     2
 10
-66.500018
 20
-2.249941
 42
0.000000
 10
-66.500018
 20
73.750059
 42
0.000000
  0
ENDBLK
  5
900
100
AcDbEntity
  8
0
100
AcDbBlockEnd
  0
BLOCK
  5
901
100
AcDbEntity
  8
SCHRAFF
100
AcDbBlockBegin
  2
B-68
 70
    66
 10
0.000000
 20
0.000000
 30
0.000000
  0
HATCH
  5
902
100
AcDbEntity
  8
SCHRAFF
 62
   250
440
     0
100
AcDbHatch
 10
0.000000
 20
0.000000
 30
0.000000
210
0.000000
220
0.000000
230
1.000000
  2
SOLID
 70
     1
 71
     1
 91
     1
 92
    18
 72
     1
 73
     0
 93
     7
 10
-12.500018
 20
-39.249941
 42
0.000000
 10
-40.500018
 20
-39.249941
 42
0.000000
 10
-40.500018
 20
-31.249941
 42
0.000000
 10
-42.500018
 20
-31.249941
 42
0.000000
 10
-42.500018
 20
-41.249941
 42
0.000000
 10
-12.500018
 20
-41.249941
 42
0.000000
 10
-12.500018
 20
-39.249941
 42
0.000000
 97
     0
 75
     0
 76
     1
 98
     0
  0
ENDBLK
  5
903
100
AcDbEntity
  8
0
100
AcDbBlockEnd
  0
BLOCK
  5
904
100
AcDbEntity
  8
Detail
100
AcDbBlockBegin
  2
B-69
 70
    66
 10
0.000000
 20
0.000000
 30
0.000000
  0
LWPOLYLINE
  5
905
100
AcDbEntity
  8
Detail
  6
CONTINUOUS
 62
     4
100
AcDbPolyline
 90
     7
 10
-42.500018
 20
-41.249941
 42
0.000000
 10
-42.500018
 20
-31.249941
 42
0.000000
 10
-40.500018
 20
-31.249941
 42
0.000000
 10
-40.500018
 20
-39.249941
 42
0.000000
 10
-12.500018
 20
-39.249941
 42
0.000000
 10
-12.500018
 20
-41.249941
 42
0.000000
 10
-42.500018
 20
-41.249941
 42
0.000000
  0
ENDBLK
  5
90D
100
AcDbEntity
  8
0
100
AcDbBlockEnd
  0
BLOCK
  5
90E
100
AcDbEntity
  8
SCHRAFF
100
AcDbBlockBegin
  2
B-70
 70
    66
 10
0.000000
 20
0.000000
 30
0.000000
  0
HATCH
  5
90F
100
AcDbEntity
  8
SCHRAFF
 62
   250
440
     0
100
AcDbHatch
 10
0.000000
 20
0.000000
 30
0.000000
210
0.000000
220
0.000000
230
1.000000
  2
SOLID
 70
     1
 71
     1
 91
     1
 92
    18
 72
     1
 73
     0
 93
     7
 10
-65.500018
 20
3.750059
 42
0.000000
 10
-65.500018
 20
-24.249941
 42
0.000000
 10
-47.500018
 20
-24.249941
 42
0.000000
 10
-47.500018
 20
-26.249941
 42
0.000000
 10
-67.500018
 20
-26.249941
 42
0.000000
 10
-67.500018
 20
3.750059
 42
0.000000
 10
-65.500018
 20
3.750059
 42
0.000000
 97
     0
 75
     0
 76
     1
 98
     0
  0
ENDBLK
  5
910
100
AcDbEntity
  8
0
100
AcDbBlockEnd
  0
BLOCK
  5
911
100
AcDbEntity
  8
Detail
100
AcDbBlockBegin
  2
B-71
 70
    66
 10
0.000000
 20
0.000000
 30
0.000000
  0
LWPOLYLINE
  5
912
100
AcDbEntity
  8
Detail
  6
CONTINUOUS
 62
     4
100
AcDbPolyline
 90
     7
 10
-67.500018
 20
-26.249941
 42
0.000000
 10
-47.500018
 20
-26.249941
 42
0.000000
 10
-47.500018
 20
-24.249941
 42
0.000000
 10
-65.500018
 20
-24.249941
 42
0.000000
 10
-65.500018
 20
3.750059
 42
0.000000
 10
-67.500018
 20
3.750059
 42
0.000000
 10
-67.500018
 20
-26.249941
 42
0.000000
  0
ENDBLK
  5
91A
100
AcDbEntity
  8
0
100
AcDbBlockEnd
  0
BLOCK
  5
91B
100
AcDbEntity
  8
SCHRAFF
100
AcDbBlockBegin
  2
B-72
 70
    66
 10
0.000000
 20
0.000000
 30
0.000000
  0
HATCH
  5
91C
100
AcDbEntity
  8
SCHRAFF
 62
     7
440
     0
100
AcDbHatch
 10
0.000000
 20
0.000000
 30
0.000000
210
0.000000
220
0.000000
230
1.000000
  2
SOLID
 70
     1
 71
     1
 91
     1
 92
    18
 72
     1
 73
     0
 93
     3
 10
-27.000018
 20
-40.249941
 42
1.000000
 10
-28.000018
 20
-40.249941
 42
1.000000
 10
-27.000018
 20
-40.249941
 42
0.000000
 97
     0
 75
     0
 76
     1
 98
     0
  0
LWPOLYLINE
  5
91D
100
AcDbEntity
  8
Detail
  6
CONTINUOUS
 62
     7
100
AcDbPolyline
 90
     3
 10
77.500023
 20
-16.249941
 42
0.000000
 10
-27.500018
 20
-16.249941
 42
0.000000
 10
-27.500018
 20
-40.249941
 42
0.000000
  0
ENDBLK
  5
921
100
AcDbEntity
  8
0
100
AcDbBlockEnd
  0
BLOCK
  5
922
100
AcDbEntity
  8
Detail
100
AcDbBlockBegin
  2
B-73
 70
    66
 10
0.000000
 20
0.000000
 30
0.000000
  0
CIRCLE
  5
923
100
AcDbEntity
  8
Detail
  6
CONTINUOUS
 62
     7
100
AcDbCircle
 10
-27.500018
 20
-40.249941
 40
0.500000
  0
ENDBLK
  5
924
100
AcDbEntity
  8
0
100
AcDbBlockEnd
  0
BLOCK
  5
925
100
AcDbEntity
  8
L
100
AcDbBlockBegin
  2
B-74
 70
    66
 10
0.000000
 20
0.000000
 30
0.000000
  0
LWPOLYLINE
  5
926
100
AcDbEntity
  8
L
  6
CONTINUOUS
 62
     4
100
AcDbPolyline
 90
     5
 10
-52.500018
 20
-26.249941
 42
0.000000
 10
-82.500018
 20
-26.249941
 42
0.000000
 10
-82.500018
 20
-41.249941
 42
0.000000
 10
-52.500018
 20
-41.249941
 42
0.000000
 10
-52.500018
 20
-26.249941
 42
0.000000
  0
ENDBLK
  5
92C
100
AcDbEntity
  8
0
100
AcDbBlockEnd
  0
BLOCK
  5
92D
100
AcDbEntity
  8
Detail
100
AcDbBlockBegin
  2
B-75
 70
    66
 10
0.000000
 20
0.000000
 30
0.000000
  0
LWPOLYLINE
  5
92E
100
AcDbEntity
  8
Detail
  6
CONTINUOUS
 62
     6
100
AcDbPolyline
 90
   324
 10
-47.750027
 20
296.250078
 42
0.000000
 10
-47.500018
 20
295.750059
 42
0.000000
 10
-47.500018
 20
294.750059
 42
0.000000
 10
-47.000018
 20
293.750059
 42
0.000000
 10
-47.500018
 20
292.750059
 42
0.000000
 10
-47.500018
 20
291.750059
 42
0.000000
 10
-48.000018
 20
290.750059
 42
0.000000
 10
-47.500018
 20
289.750059
 42
0.000000
 10
-47.500018
 20
288.750059
 42
0.000000
 10
-47.000018
 20
287.750059
 42
0.000000
 10
-47.500018
 20
286.742392
 42
0.000000
 10
-47.500018
 20
285.750059
 42
0.000000
 10
-48.000018
 20
284.750059
 42
0.000000
 10
-47.500018
 20
283.750059
 42
0.000000
 10
-47.500018
 20
282.750059
 42
0.000000
 10
-47.000018
 20
281.750059
 42
0.000000
 10
-47.500018
 20
280.750059
 42
0.000000
 10
-47.500018
 20
279.750059
 42
0.000000
 10
-48.000018
 20
278.750059
 42
0.000000
 10
-47.500018
 20
277.750059
 42
0.000000
 10
-47.500018
 20
276.750059
 42
0.000000
 10
-47.000018
 20
275.750059
 42
0.000000
 10
-47.500018
 20
274.750059
 42
0.000000
 10
-47.500018
 20
273.750059
 42
0.000000
 10
-48.000018
 20
272.750059
 42
0.000000
 10
-47.500018
 20
271.750059
 42
0.000000
 10
-47.500018
 20
270.750059
 42
0.000000
 10
-47.000018
 20
269.750059
 42
0.000000
 10
-47.500018
 20
268.750059
 42
0.000000
 10
-47.500018
 20
267.750059
 42
0.000000
 10
-48.000018
 20
266.750059
 42
0.000000
 10
-47.500018
 20
265.750059
 42
0.000000
 10
-47.500018
 20
264.750059
 42
0.000000
 10
-47.000018
 20
263.750059
 42
0.000000
 10
-47.500018
 20
262.750059
 42
0.000000
 10
-47.500018
 20
261.750059
 42
0.000000
 10
-48.000018
 20
260.750059
 42
0.000000
 10
-47.500018
 20
259.750059
 42
0.000000
 10
-47.500018
 20
258.750059
 42
0.000000
 10
-47.000018
 20
257.750059
 42
0.000000
 10
-47.500018
 20
256.750059
 42
0.000000
 10
-47.500018
 20
255.750059
 42
0.000000
 10
-48.000018
 20
254.750059
 42
0.000000
 10
-47.500018
 20
253.750059
 42
0.000000
 10
-47.500018
 20
252.750059
 42
0.000000
 10
-47.000018
 20
251.750059
 42
0.000000
 10
-47.500018
 20
250.742392
 42
0.000000
 10
-47.500018
 20
249.750059
 42
0.000000
 10
-48.000018
 20
248.750059
 42
0.000000
 10
-47.500018
 20
247.750059
 42
0.000000
 10
-47.500018
 20
246.750059
 42
0.000000
 10
-47.000018
 20
245.750059
 42
0.000000
 10
-47.500018
 20
244.750059
 42
0.000000
 10
-47.500018
 20
243.750059
 42
0.000000
 10
-48.000018
 20
242.750059
 42
0.000000
 10
-47.500018
 20
241.750059
 42
0.000000
 10
-47.500018
 20
240.750059
 42
0.000000
 10
-47.000018
 20
239.750059
 42
0.000000
 10
-47.500018
 20
238.750059
 42
0.000000
 10
-47.500018
 20
237.750059
 42
0.000000
 10
-48.000018
 20
236.750059
 42
0.000000
 10
-47.500018
 20
235.750059
 42
0.000000
 10
-47.500018
 20
234.750059
 42
0.000000
 10
-47.000018
 20
233.750059
 42
0.000000
 10
-47.500018
 20
232.750059
 42
0.000000
 10
-47.500018
 20
231.750059
 42
0.000000
 10
-48.000018
 20
230.750059
 42
0.000000
 10
-47.500018
 20
229.750059
 42
0.000000
 10
-47.500018
 20
228.750059
 42
0.000000
 10
-47.000018
 20
227.750059
 42
0.000000
 10
-47.500018
 20
226.750059
 42
0.000000
 10
-47.500018
 20
225.750059
 42
0.000000
 10
-48.000018
 20
224.750059
 42
0.000000
 10
-47.500018
 20
223.750059
 42
0.000000
 10
-47.500018
 20
222.750059
 42
0.000000
 10
-47.000018
 20
221.750059
 42
0.000000
 10
-47.500018
 20
220.750059
 42
0.000000
 10
-47.500018
 20
219.750059
 42
0.000000
 10
-48.000018
 20
218.750059
 42
0.000000
 10
-47.500018
 20
217.750059
 42
0.000000
 10
-47.500018
 20
216.750059
 42
0.000000
 10
-47.000018
 20
215.750059
 42
0.000000
 10
-47.500018
 20
214.750059
 42
0.000000
 10
-47.500018
 20
213.750059
 42
0.000000
 10
-48.000018
 20
212.750059
 42
0.000000
 10
-47.500018
 20
211.750059
 42
0.000000
 10
-47.500018
 20
210.750059
 42
0.000000
 10
-47.000018
 20
209.750059
 42
0.000000
 10
-47.500018
 20
208.750059
 42
0.000000
 10
-47.500018
 20
207.750059
 42
0.000000
 10
-48.000018
 20
206.750059
 42
0.000000
 10
-47.500018
 20
205.750059
 42
0.000000
 10
-47.500018
 20
204.750059
 42
0.000000
 10
-47.000018
 20
203.750059
 42
0.000000
 10
-47.500018
 20
202.750059
 42
0.000000
 10
-47.500018
 20
201.750059
 42
0.000000
 10
-48.000018
 20
200.750059
 42
0.000000
 10
-47.500018
 20
199.750059
 42
0.000000
 10
-47.500018
 20
198.750059
 42
0.000000
 10
-47.000018
 20
197.750059
 42
0.000000
 10
-47.500018
 20
196.750059
 42
0.000000
 10
-47.500018
 20
195.750059
 42
0.000000
 10
-48.000018
 20
194.750059
 42
0.000000
 10
-47.500018
 20
193.750059
 42
0.000000
 10
-47.500018
 20
192.750059
 42
0.000000
 10
-47.000018
 20
191.750059
 42
0.000000
 10
-47.500018
 20
190.750059
 42
0.000000
 10
-47.500018
 20
189.750059
 42
0.000000
 10
-48.000018
 20
188.750059
 42
0.000000
 10
-47.500018
 20
187.750059
 42
0.000000
 10
-47.500018
 20
186.750059
 42
0.000000
 10
-47.000018
 20
185.750059
 42
0.000000
 10
-47.500018
 20
184.750059
 42
0.000000
 10
-47.500018
 20
183.750059
 42
0.000000
 10
-48.000018
 20
182.750059
 42
0.000000
 10
-47.500018
 20
181.750059
 42
0.000000
 10
-47.500018
 20
180.750059
 42
0.000000
 10
-47.000018
 20
179.750059
 42
0.000000
 10
-47.500018
 20
178.750059
 42
0.000000
 10
-47.500018
 20
177.750059
 42
0.000000
 10
-48.000018
 20
176.750059
 42
0.000000
 10
-47.500018
 20
175.750059
 42
0.000000
 10
-47.495620
 20
174.741263
 42
0.000000
 10
-47.000018
 20
173.750059
 42
0.000000
 10
-47.500018
 20
172.750059
 42
0.000000
 10
-47.500018
 20
171.750059
 42
0.000000
 10
-48.000018
 20
170.750059
 42
0.000000
 10
-47.500018
 20
169.750059
 42
0.000000
 10
-47.500018
 20
168.750059
 42
0.000000
 10
-47.000018
 20
167.750059
 42
0.000000
 10
-47.500018
 20
166.750059
 42
0.000000
 10
-47.500018
 20
165.750059
 42
0.000000
 10
-48.000018
 20
164.750059
 42
0.000000
 10
-47.500018
 20
163.750059
 42
0.000000
 10
-47.500018
 20
162.750059
 42
0.000000
 10
-47.000018
 20
161.750059
 42
0.000000
 10
-47.500018
 20
160.750059
 42
0.000000
 10
-47.500018
 20
159.750059
 42
0.000000
 10
-48.000018
 20
158.750059
 42
0.000000
 10
-47.500018
 20
157.750059
 42
0.000000
 10
-47.500018
 20
156.750059
 42
0.000000
 10
-47.000018
 20
155.750059
 42
0.000000
 10
-47.500018
 20
154.750059
 42
0.000000
 10
-47.500018
 20
153.750059
 42
0.000000
 10
-48.000018
 20
152.750059
 42
0.000000
 10
-47.500018
 20
151.750059
 42
0.000000
 10
-47.500018
 20
150.750059
 42
0.000000
 10
-47.000018
 20
149.750059
 42
0.000000
 10
-47.500018
 20
148.750059
 42
0.000000
 10
-47.500018
 20
147.750059
 42
0.000000
 10
-48.000018
 20
146.750059
 42
0.000000
 10
-47.500018
 20
145.750059
 42
0.000000
 10
-47.500018
 20
144.750059
 42
0.000000
 10
-47.000018
 20
143.750059
 42
0.000000
 10
-47.500018
 20
142.742392
 42
0.000000
 10
-47.500018
 20
141.750059
 42
0.000000
 10
-48.000018
 20
140.750059
 42
0.000000
 10
-47.500018
 20
139.750059
 42
0.000000
 10
-47.500018
 20
138.750059
 42
0.000000
 10
-47.000018
 20
137.750059
 42
0.000000
 10
-47.500018
 20
136.750059
 42
0.000000
 10
-47.500018
 20
135.750059
 42
0.000000
 10
-48.000018
 20
134.750059
 42
0.000000
 10
-47.500018
 20
133.750059
 42
0.000000
 10
-47.500018
 20
132.750059
 42
0.000000
 10
-47.000018
 20
131.750059
 42
0.000000
 10
-47.500018
 20
130.750059
 42
0.000000
 10
-47.500018
 20
129.750059
 42
0.000000
 10
-48.000018
 20
128.750059
 42
0.000000
 10
-47.500018
 20
127.750059
 42
0.000000
 10
-47.500018
 20
126.750059
 42
0.000000
 10
-47.000018
 20
125.750059
 42
0.000000
 10
-47.500018
 20
124.750059
 42
0.000000
 10
-47.500018
 20
123.750059
 42
0.000000
 10
-48.000018
 20
122.750059
 42
0.000000
 10
-47.500018
 20
121.750059
 42
0.000000
 10
-47.500018
 20
120.750059
 42
0.000000
 10
-47.000018
 20
119.750059
 42
0.000000
 10
-47.500018
 20
118.750059
 42
0.000000
 10
-47.500018
 20
117.750059
 42
0.000000
 10
-48.000018
 20
116.750059
 42
0.000000
 10
-47.500018
 20
115.750059
 42
0.000000
 10
-47.500018
 20
114.750059
 42
0.000000
 10
-47.000018
 20
113.750059
 42
0.000000
 10
-47.500018
 20
112.750059
 42
0.000000
 10
-47.500018
 20
111.750059
 42
0.000000
 10
-48.000018
 20
110.750059
 42
0.000000
 10
-47.500018
 20
109.750059
 42
0.000000
 10
-47.500018
 20
108.750059
 42
0.000000
 10
-47.000018
 20
107.750059
 42
0.000000
 10
-47.500018
 20
106.750059
 42
0.000000
 10
-47.500018
 20
105.750059
 42
0.000000
 10
-48.000018
 20
104.750059
 42
0.000000
 10
-47.500018
 20
103.750059
 42
0.000000
 10
-47.500018
 20
102.750059
 42
0.000000
 10
-47.000018
 20
101.750059
 42
0.000000
 10
-47.500018
 20
100.750059
 42
0.000000
 10
-47.500018
 20
99.750059
 42
0.000000
 10
-48.000018
 20
98.750059
 42
0.000000
 10
-47.500018
 20
97.750059
 42
0.000000
 10
-47.500018
 20
96.750059
 42
0.000000
 10
-47.000018
 20
95.750059
 42
0.000000
 10
-47.500018
 20
94.750059
 42
0.000000
 10
-47.500018
 20
93.750059
 42
0.000000
 10
-48.000018
 20
92.750059
 42
0.000000
 10
-47.500018
 20
91.750059
 42
0.000000
 10
-47.500018
 20
90.750059
 42
0.000000
 10
-47.000018
 20
89.750059
 42
0.000000
 10
-47.500018
 20
88.750059
 42
0.000000
 10
-47.500018
 20
87.750059
 42
0.000000
 10
-48.000018
 20
86.750059
 42
0.000000
 10
-47.500018
 20
85.750059
 42
0.000000
 10
-47.500018
 20
84.750059
 42
0.000000
 10
-47.000018
 20
83.750059
 42
0.000000
 10
-47.500018
 20
82.750059
 42
0.000000
 10
-47.500018
 20
81.750059
 42
0.000000
 10
-48.000018
 20
80.750059
 42
0.000000
 10
-47.500018
 20
79.750059
 42
0.000000
 10
-47.500018
 20
78.750059
 42
0.000000
 10
-47.000018
 20
77.750059
 42
0.000000
 10
-47.500018
 20
76.750059
 42
0.000000
 10
-47.500018
 20
75.750059
 42
0.000000
 10
-48.000018
 20
74.750059
 42
0.000000
 10
-47.500018
 20
73.750059
 42
0.000000
 10
-47.500018
 20
72.750059
 42
0.000000
 10
-47.000018
 20
71.750059
 42
0.000000
 10
-47.500018
 20
70.750059
 42
0.000000
 10
-47.500018
 20
69.750059
 42
0.000000
 10
-48.000018
 20
68.750059
 42
0.000000
 10
-47.500018
 20
67.750059
 42
0.000000
 10
-47.500018
 20
66.750059
 42
0.000000
 10
-47.000018
 20
65.750059
 42
0.000000
 10
-47.500018
 20
64.750059
 42
0.000000
 10
-47.500018
 20
63.750059
 42
0.000000
 10
-48.000018
 20
62.750059
 42
0.000000
 10
-47.500018
 20
61.750059
 42
0.000000
 10
-47.500018
 20
60.750059
 42
0.000000
 10
-47.000018
 20
59.750059
 42
0.000000
 10
-47.500018
 20
58.750059
 42
0.000000
 10
-47.500018
 20
57.750059
 42
0.000000
 10
-48.000018
 20
56.750059
 42
0.000000
 10
-47.500018
 20
55.750059
 42
0.000000
 10
-47.500018
 20
54.750059
 42
0.000000
 10
-47.000018
 20
53.750059
 42
0.000000
 10
-47.500018
 20
52.750059
 42
0.000000
 10
-47.500018
 20
51.750059
 42
0.000000
 10
-48.000018
 20
50.750059
 42
0.000000
 10
-47.500018
 20
49.750059
 42
0.000000
 10
-47.500018
 20
48.750059
 42
0.000000
 10
-47.000018
 20
47.750059
 42
0.000000
 10
-47.500018
 20
46.750059
 42
0.000000
 10
-47.500018
 20
45.750059
 42
0.000000
 10
-48.000018
 20
44.750059
 42
0.000000
 10
-47.500018
 20
43.750059
 42
0.000000
 10
-47.500018
 20
42.750059
 42
0.000000
 10
-47.000018
 20
41.750059
 42
0.000000
 10
-47.500018
 20
40.750059
 42
0.000000
 10
-47.500018
 20
39.750059
 42
0.000000
 10
-48.000018
 20
38.750059
 42
0.000000
 10
-47.500018
 20
37.750059
 42
0.000000
 10
-47.500018
 20
36.750059
 42
0.000000
 10
-47.000018
 20
35.750059
 42
0.000000
 10
-47.500018
 20
34.750059
 42
0.000000
 10
-47.500018
 20
33.750059
 42
0.000000
 10
-48.000018
 20
32.750059
 42
0.000000
 10
-47.500018
 20
31.750059
 42
0.000000
 10
-47.500018
 20
30.750059
 42
0.000000
 10
-47.000018
 20
29.750059
 42
0.000000
 10
-47.500018
 20
28.750059
 42
0.000000
 10
-47.500018
 20
27.750059
 42
0.000000
 10
-48.000018
 20
26.750059
 42
0.000000
 10
-47.500018
 20
25.750059
 42
0.000000
 10
-47.500018
 20
24.750059
 42
0.000000
 10
-47.000018
 20
23.750059
 42
0.000000
 10
-47.500018
 20
22.750059
 42
0.000000
 10
-47.500018
 20
21.750059
 42
0.000000
 10
-48.000018
 20
20.750059
 42
0.000000
 10
-47.500018
 20
19.750059
 42
0.000000
 10
-47.500018
 20
18.750059
 42
0.000000
 10
-47.000018
 20
17.750059
 42
0.000000
 10
-47.500018
 20
16.750059
 42
0.000000
 10
-47.500018
 20
15.750059
 42
0.000000
 10
-48.000018
 20
14.750059
 42
0.000000
 10
-47.500018
 20
13.750059
 42
0.000000
 10
-47.500018
 20
12.750059
 42
0.000000
 10
-47.000018
 20
11.750059
 42
0.000000
 10
-47.500018
 20
10.750059
 42
0.000000
 10
-47.500018
 20
9.750059
 42
0.000000
 10
-48.000018
 20
8.750059
 42
0.000000
 10
-47.500018
 20
7.750059
 42
0.000000
 10
-47.500018
 20
6.750059
 42
0.000000
 10
-47.000018
 20
5.750059
 42
0.000000
 10
-47.500018
 20
4.742392
 42
0.000000
 10
-47.500018
 20
3.750059
 42
0.000000
 10
-48.000018
 20
2.750059
 42
0.000000
 10
-47.500018
 20
1.750059
 42
0.000000
 10
-47.500018
 20
0.750059
 42
0.000000
 10
-47.000018
 20
-0.249941
 42
0.000000
 10
-47.500018
 20
-1.249941
 42
0.000000
 10
-47.500018
 20
-2.249941
 42
0.000000
 10
-48.000018
 20
-3.249941
 42
0.000000
 10
-47.500018
 20
-4.249941
 42
0.000000
 10
-47.500018
 20
-5.249941
 42
0.000000
 10
-47.000018
 20
-6.249941
 42
0.000000
 10
-47.500018
 20
-7.249941
 42
0.000000
 10
-47.500018
 20
-8.249941
 42
0.000000
 10
-48.000018
 20
-9.249941
 42
0.000000
 10
-47.500018
 20
-10.249941
 42
0.000000
 10
-47.500018
 20
-11.249941
 42
0.000000
 10
-47.000018
 20
-12.249941
 42
0.000000
 10
-47.500018
 20
-13.249941
 42
0.000000
 10
-47.500018
 20
-14.249941
 42
0.000000
 10
-48.000018
 20
-15.249941
 42
0.000000
 10
-47.500018
 20
-16.249941
 42
0.000000
 10
-47.500018
 20
-17.249941
 42
0.000000
 10
-47.007096
 20
-18.264098
 42
0.000000
 10
-47.500018
 20
-19.249941
 42
0.000000
 10
-47.500018
 20
-20.249941
 42
0.000000
 10
-48.000018
 20
-21.249941
 42
0.000000
 10
-47.500018
 20
-22.249941
 42
0.000000
 10
-47.500018
 20
-23.249941
 42
0.000000
 10
-47.000018
 20
-24.249941
 42
0.000000
 10
-47.500018
 20
-25.249941
 42
0.000000
 10
-47.500018
 20
-26.249941
 42
0.000000
  0
ENDBLK
  5
A73
100
AcDbEntity
  8
0
100
AcDbBlockEnd
  0
BLOCK
  5
A74
100
AcDbEntity
  8
SCHRAFF
100
AcDbBlockBegin
  2
B-76
 70
    66
 10
0.000000
 20
0.000000
 30
0.000000
  0
HATCH
  5
A75
100
AcDbEntity
  8
SCHRAFF
 62
     7
440
     0
100
AcDbHatch
 10
0.000000
 20
0.000000
 30
0.000000
210
0.000000
220
0.000000
230
1.000000
  2
SOLID
 70
     1
 71
     1
 91
     1
 92
    18
 72
     1
 73
     0
 93
     3
 10
-67.000018
 20
-33.749941
 42
1.000000
 10
-68.000018
 20
-33.749941
 42
1.000000
 10
-67.000018
 20
-33.749941
 42
0.000000
 97
     0
 75
     0
 76
     1
 98
     0
  0
ENDBLK
  5
A76
100
AcDbEntity
  8
0
100
AcDbBlockEnd
  0
BLOCK
  5
A77
100
AcDbEntity
  8
SCHRAFF
100
AcDbBlockBegin
  2
B-77
 70
    66
 10
0.000000
 20
0.000000
 30
0.000000
  0
HATCH
  5
A78
100
AcDbEntity
  8
SCHRAFF
 62
     7
440
     0
100
AcDbHatch
 10
0.000000
 20
0.000000
 30
0.000000
210
0.000000
220
0.000000
230
1.000000
  2
SOLID
 70
     1
 71
     1
 91
     1
 92
    18
 72
     1
 73
     0
 93
     3
 10
-66.000018
 20
-11.249941
 42
1.000000
 10
-67.000018
 20
-11.249941
 42
1.000000
 10
-66.000018
 20
-11.249941
 42
0.000000
 97
     0
 75
     0
 76
     1
 98
     0
  0
ENDBLK
  5
A79
100
AcDbEntity
  8
0
100
AcDbBlockEnd
  0
BLOCK
  5
A7A
100
AcDbEntity
  8
Detail
100
AcDbBlockBegin
  2
B-78
 70
    66
 10
0.000000
 20
0.000000
 30
0.000000
  0
CIRCLE
  5
A7B
100
AcDbEntity
  8
Detail
  6
CONTINUOUS
 62
     7
100
AcDbCircle
 10
-66.500018
 20
-11.249941
 40
0.500000
  0
ENDBLK
  5
A7C
100
AcDbEntity
  8
0
100
AcDbBlockEnd
  0
BLOCK
  5
A7D
100
AcDbEntity
  8
Detail
100
AcDbBlockBegin
  2
B-79
 70
    66
 10
0.000000
 20
0.000000
 30
0.000000
  0
CIRCLE
  5
A7E
100
AcDbEntity
  8
Detail
  6
CONTINUOUS
 62
     7
100
AcDbCircle
 10
-67.500018
 20
-33.749941
 40
0.500000
  0
ENDBLK
  5
A7F
100
AcDbEntity
  8
0
100
AcDbBlockEnd
  0
BLOCK
  5
A80
100
AcDbEntity
  8
Detail
100
AcDbBlockBegin
  2
B-80
 70
    66
 10
0.000000
 20
0.000000
 30
0.000000
  0
LWPOLYLINE
  5
A81
100
AcDbEntity
  8
Detail
  6
CONTINUOUS
 62
     7
100
AcDbPolyline
 90
     3
 10
-67.500018
 20
-33.749941
 42
0.000000
 10
-25.000018
 20
8.750059
 42
0.000000
 10
77.500023
 20
8.750059
 42
0.000000
  0
ENDBLK
  5
A85
100
AcDbEntity
  8
0
100
AcDbBlockEnd
  0
BLOCK
  5
A86
100
AcDbEntity
  8
Detail
100
AcDbBlockBegin
  2
B-81
 70
    66
 10
0.000000
 20
0.000000
 30
0.000000
  0
LWPOLYLINE
  5
A87
100
AcDbEntity
  8
Detail
  6
CONTINUOUS
 62
     7
100
AcDbPolyline
 90
     3
 10
-66.500018
 20
-11.249941
 42
0.000000
 10
-21.500018
 20
33.750059
 42
0.000000
 10
77.500023
 20
33.750059
 42
0.000000
  0
ENDBLK
  5
A8B
100
AcDbEntity
  8
0
100
AcDbBlockEnd
  0
BLOCK
  5
A8C
100
AcDbEntity
  8
Detail
100
AcDbBlockBegin
  2
B-82
 70
    66
 10
0.000000
 20
0.000000
 30
0.000000
  0
MTEXT
  5
A8D
100
AcDbEntity
  8
Detail
 62
     7
100
AcDbMText
 10
79.375020
 20
186.250056
 30
0.000000
 40
4.999990
 41
44.257394
 71
     1
 72
     5
  1
Edelkratzputz
  7
Arial
 50
0.000000
  0
ENDBLK
  5
A8E
100
AcDbEntity
  8
0
100
AcDbBlockEnd
  0
BLOCK
  5
A8F
100
AcDbEntity
  8
Detail
100
AcDbBlockBegin
  2
B-83
 70
    66
 10
0.000000
 20
0.000000
 30
0.000000
  0
MTEXT
  5
A90
100
AcDbEntity
  8
Detail
 62
     7
100
AcDbMText
 10
79.375020
 20
156.250066
 30
0.000000
 40
4.999990
 41
132.614682
 71
     7
 72
     5
  1
Armierungsschicht mit Glasfasergewebe,
  7
Arial
 50
0.000000
  0
MTEXT
  5
A91
100
AcDbEntity
  8
Detail
 62
     7
100
AcDbMText
 10
79.375020
 20
148.750081
 30
0.000000
 40
4.999990
 41
68.984834
 71
     7
 72
     5
  1
aufgerauht, ca. 8 mm
  7
Arial
 50
0.000000
  0
ENDBLK
  5
A92
100
AcDbEntity
  8
0
100
AcDbBlockEnd
  0
BLOCK
  5
A93
100
AcDbEntity
  8
Detail
100
AcDbBlockBegin
  2
B-84
 70
    66
 10
0.000000
 20
0.000000
 30
0.000000
  0
LWPOLYLINE
  5
A94
100
AcDbEntity
  8
Detail
  6
CONTINUOUS
 62
     7
100
AcDbPolyline
 90
     2
 10
77.500023
 20
183.750059
 42
0.000000
 10
-52.500018
 20
183.750058
 42
0.000000
  0
ENDBLK
  5
A97
100
AcDbEntity
  8
0
100
AcDbBlockEnd
  0
BLOCK
  5
A98
100
AcDbEntity
  8
Detail
100
AcDbBlockBegin
  2
B-85
 70
    66
 10
0.000000
 20
0.000000
 30
0.000000
  0
LWPOLYLINE
  5
A99
100
AcDbEntity
  8
Detail
  6
CONTINUOUS
 62
     7
100
AcDbPolyline
 90
     2
 10
77.500023
 20
158.750059
 42
0.000000
 10
-62.500018
 20
158.750056
 42
0.000000
  0
ENDBLK
  5
A9C
100
AcDbEntity
  8
0
100
AcDbBlockEnd
  0
BLOCK
  5
A9D
100
AcDbEntity
  8
SCHRAFF
100
AcDbBlockBegin
  2
B-86
 70
    66
 10
0.000000
 20
0.000000
 30
0.000000
  0
HATCH
  5
A9E
100
AcDbEntity
  8
SCHRAFF
 62
     7
440
     0
100
AcDbHatch
 10
0.000000
 20
0.000000
 30
0.000000
210
0.000000
220
0.000000
230
1.000000
  2
SOLID
 70
     1
 71
     1
 91
     1
 92
    18
 72
     1
 73
     0
 93
     3
 10
-52.000018
 20
183.750058
 42
1.000000
 10
-53.000018
 20
183.750058
 42
1.000000
 10
-52.000018
 20
183.750058
 42
0.000000
 97
     0
 75
     0
 76
     1
 98
     0
  0
CIRCLE
  5
A9F
100
AcDbEntity
  8
Detail
  6
CONTINUOUS
 62
     7
100
AcDbCircle
 10
-52.500018
 20
183.750058
 40
0.500000
  0
ENDBLK
  5
AA0
100
AcDbEntity
  8
0
100
AcDbBlockEnd
  0
BLOCK
  5
AA1
100
AcDbEntity
  8
SCHRAFF
100
AcDbBlockBegin
  2
B-87
 70
    66
 10
0.000000
 20
0.000000
 30
0.000000
  0
HATCH
  5
AA2
100
AcDbEntity
  8
SCHRAFF
 62
     7
440
     0
100
AcDbHatch
 10
0.000000
 20
0.000000
 30
0.000000
210
0.000000
220
0.000000
230
1.000000
  2
SOLID
 70
     1
 71
     1
 91
     1
 92
    18
 72
     1
 73
     0
 93
     3
 10
-62.000018
 20
158.750056
 42
1.000000
 10
-63.000018
 20
158.750056
 42
1.000000
 10
-62.000018
 20
158.750056
 42
0.000000
 97
     0
 75
     0
 76
     1
 98
     0
  0
CIRCLE
  5
AA3
100
AcDbEntity
  8
Detail
  6
CONTINUOUS
 62
     7
100
AcDbCircle
 10
-62.500018
 20
158.750056
 40
0.500000
  0
ENDBLK
  5
AA4
100
AcDbEntity
  8
0
100
AcDbBlockEnd
  0
ENDSEC
  0
SECTION
  2
ENTITIES
  0
INSERT
  5
AA5
100
AcDbEntity
  8
0
100
AcDbBlockReference
  2
B
 10
0.000000
 20
0.000000
 30
0.000000
 41
1.000000
 42
1.000000
 43
1.000000
 50
0.000000
  0
INSERT
  5
AA6
100
AcDbEntity
  8
0
100
AcDbBlockReference
  2
B-2
 10
0.000000
 20
0.000000
 30
0.000000
 41
1.000000
 42
1.000000
 43
1.000000
 50
0.000000
  0
INSERT
  5
AA7
100
AcDbEntity
  8
Detail
100
AcDbBlockReference
  2
B-3
 10
0.000000
 20
0.000000
 30
0.000000
 41
1.000000
 42
1.000000
 43
1.000000
 50
0.000000
  0
INSERT
  5
AA8
100
AcDbEntity
  8
0
100
AcDbBlockReference
  2
B-4
 10
0.000000
 20
0.000000
 30
0.000000
 41
1.000000
 42
1.000000
 43
1.000000
 50
0.000000
  0
INSERT
  5
AA9
100
AcDbEntity
  8
0
100
AcDbBlockReference
  2
B-5
 10
0.000000
 20
0.000000
 30
0.000000
 41
1.000000
 42
1.000000
 43
1.000000
 50
0.000000
  0
INSERT
  5
AAA
100
AcDbEntity
  8
0
100
AcDbBlockReference
  2
B-6
 10
0.000000
 20
0.000000
 30
0.000000
 41
1.000000
 42
1.000000
 43
1.000000
 50
0.000000
  0
INSERT
  5
AAB
100
AcDbEntity
  8
0
100
AcDbBlockReference
  2
B-7
 10
0.000000
 20
0.000000
 30
0.000000
 41
1.000000
 42
1.000000
 43
1.000000
 50
0.000000
  0
INSERT
  5
AAC
100
AcDbEntity
  8
0
100
AcDbBlockReference
  2
B-8
 10
0.000000
 20
0.000000
 30
0.000000
 41
1.000000
 42
1.000000
 43
1.000000
 50
0.000000
  0
INSERT
  5
AAD
100
AcDbEntity
  8
0
100
AcDbBlockReference
  2
B-9
 10
0.000000
 20
0.000000
 30
0.000000
 41
1.000000
 42
1.000000
 43
1.000000
 50
0.000000
  0
INSERT
  5
AAE
100
AcDbEntity
  8
0
100
AcDbBlockReference
  2
B-10
 10
0.000000
 20
0.000000
 30
0.000000
 41
1.000000
 42
1.000000
 43
1.000000
 50
0.000000
  0
INSERT
  5
AAF
100
AcDbEntity
  8
0
100
AcDbBlockReference
  2
B-11
 10
0.000000
 20
0.000000
 30
0.000000
 41
1.000000
 42
1.000000
 43
1.000000
 50
0.000000
  0
INSERT
  5
AB0
100
AcDbEntity
  8
0
100
AcDbBlockReference
  2
B-12
 10
0.000000
 20
0.000000
 30
0.000000
 41
1.000000
 42
1.000000
 43
1.000000
 50
0.000000
  0
INSERT
  5
AB1
100
AcDbEntity
  8
0
100
AcDbBlockReference
  2
B-13
 10
0.000000
 20
0.000000
 30
0.000000
 41
1.000000
 42
1.000000
 43
1.000000
 50
0.000000
  0
INSERT
  5
AB2
100
AcDbEntity
  8
0
100
AcDbBlockReference
  2
B-14
 10
0.000000
 20
0.000000
 30
0.000000
 41
1.000000
 42
1.000000
 43
1.000000
 50
0.000000
  0
INSERT
  5
AB3
100
AcDbEntity
  8
0
100
AcDbBlockReference
  2
B-15
 10
0.000000
 20
0.000000
 30
0.000000
 41
1.000000
 42
1.000000
 43
1.000000
 50
0.000000
  0
INSERT
  5
AB4
100
AcDbEntity
  8
Detail
100
AcDbBlockReference
  2
B-16
 10
0.000000
 20
0.000000
 30
0.000000
 41
1.000000
 42
1.000000
 43
1.000000
 50
0.000000
  0
INSERT
  5
AB5
100
AcDbEntity
  8
L
100
AcDbBlockReference
  2
B-17
 10
0.000000
 20
0.000000
 30
0.000000
 41
1.000000
 42
1.000000
 43
1.000000
 50
0.000000
  0
INSERT
  5
AB6
100
AcDbEntity
  8
0
100
AcDbBlockReference
  2
B-18
 10
0.000000
 20
0.000000
 30
0.000000
 41
1.000000
 42
1.000000
 43
1.000000
 50
0.000000
  0
INSERT
  5
AB7
100
AcDbEntity
  8
0
100
AcDbBlockReference
  2
B-19
 10
0.000000
 20
0.000000
 30
0.000000
 41
1.000000
 42
1.000000
 43
1.000000
 50
0.000000
  0
INSERT
  5
AB8
100
AcDbEntity
  8
Detail
100
AcDbBlockReference
  2
B-20
 10
0.000000
 20
0.000000
 30
0.000000
 41
1.000000
 42
1.000000
 43
1.000000
 50
0.000000
  0
INSERT
  5
AB9
100
AcDbEntity
  8
Detail
100
AcDbBlockReference
  2
B-21
 10
0.000000
 20
0.000000
 30
0.000000
 41
1.000000
 42
1.000000
 43
1.000000
 50
0.000000
  0
INSERT
  5
ABA
100
AcDbEntity
  8
Detail
100
AcDbBlockReference
  2
B-22
 10
0.000000
 20
0.000000
 30
0.000000
 41
1.000000
 42
1.000000
 43
1.000000
 50
0.000000
  0
INSERT
  5
ABB
100
AcDbEntity
  8
Detail
100
AcDbBlockReference
  2
B-23
 10
0.000000
 20
0.000000
 30
0.000000
 41
1.000000
 42
1.000000
 43
1.000000
 50
0.000000
  0
INSERT
  5
ABC
100
AcDbEntity
  8
Detail
100
AcDbBlockReference
  2
B-24
 10
0.000000
 20
0.000000
 30
0.000000
 41
1.000000
 42
1.000000
 43
1.000000
 50
0.000000
  0
INSERT
  5
ABD
100
AcDbEntity
  8
Detail
100
AcDbBlockReference
  2
B-25
 10
0.000000
 20
0.000000
 30
0.000000
 41
1.000000
 42
1.000000
 43
1.000000
 50
0.000000
  0
INSERT
  5
ABE
100
AcDbEntity
  8
Detail
100
AcDbBlockReference
  2
B-26
 10
0.000000
 20
0.000000
 30
0.000000
 41
1.000000
 42
1.000000
 43
1.000000
 50
0.000000
  0
INSERT
  5
ABF
100
AcDbEntity
  8
Detail
100
AcDbBlockReference
  2
B-27
 10
0.000000
 20
0.000000
 30
0.000000
 41
1.000000
 42
1.000000
 43
1.000000
 50
0.000000
  0
INSERT
  5
AC0
100
AcDbEntity
  8
Detail
100
AcDbBlockReference
  2
B-28
 10
0.000000
 20
0.000000
 30
0.000000
 41
1.000000
 42
1.000000
 43
1.000000
 50
0.000000
  0
INSERT
  5
AC1
100
AcDbEntity
  8
Detail
100
AcDbBlockReference
  2
B-29
 10
0.000000
 20
0.000000
 30
0.000000
 41
1.000000
 42
1.000000
 43
1.000000
 50
0.000000
  0
INSERT
  5
AC2
100
AcDbEntity
  8
0
100
AcDbBlockReference
  2
B-30
 10
0.000000
 20
0.000000
 30
0.000000
 41
1.000000
 42
1.000000
 43
1.000000
 50
0.000000
  0
INSERT
  5
AC3
100
AcDbEntity
  8
0
100
AcDbBlockReference
  2
B-31
 10
0.000000
 20
0.000000
 30
0.000000
 41
1.000000
 42
1.000000
 43
1.000000
 50
0.000000
  0
INSERT
  5
AC4
100
AcDbEntity
  8
0
100
AcDbBlockReference
  2
B-32
 10
0.000000
 20
0.000000
 30
0.000000
 41
1.000000
 42
1.000000
 43
1.000000
 50
0.000000
  0
INSERT
  5
AC5
100
AcDbEntity
  8
L
100
AcDbBlockReference
  2
B-33
 10
0.000000
 20
0.000000
 30
0.000000
 41
1.000000
 42
1.000000
 43
1.000000
 50
0.000000
  0
INSERT
  5
AC6
100
AcDbEntity
  8
0
100
AcDbBlockReference
  2
B-34
 10
0.000000
 20
0.000000
 30
0.000000
 41
1.000000
 42
1.000000
 43
1.000000
 50
0.000000
  0
INSERT
  5
AC7
100
AcDbEntity
  8
Detail
100
AcDbBlockReference
  2
B-35
 10
0.000000
 20
0.000000
 30
0.000000
 41
1.000000
 42
1.000000
 43
1.000000
 50
0.000000
  0
INSERT
  5
AC8
100
AcDbEntity
  8
0
100
AcDbBlockReference
  2
B-36
 10
0.000000
 20
0.000000
 30
0.000000
 41
1.000000
 42
1.000000
 43
1.000000
 50
0.000000
  0
INSERT
  5
AC9
100
AcDbEntity
  8
Detail
100
AcDbBlockReference
  2
B-37
 10
0.000000
 20
0.000000
 30
0.000000
 41
1.000000
 42
1.000000
 43
1.000000
 50
0.000000
  0
INSERT
  5
ACA
100
AcDbEntity
  8
Detail
100
AcDbBlockReference
  2
B-39
 10
0.000000
 20
0.000000
 30
0.000000
 41
1.000000
 42
1.000000
 43
1.000000
 50
0.000000
  0
INSERT
  5
ACB
100
AcDbEntity
  8
L
100
AcDbBlockReference
  2
B-40
 10
0.000000
 20
0.000000
 30
0.000000
 41
1.000000
 42
1.000000
 43
1.000000
 50
0.000000
  0
INSERT
  5
ACC
100
AcDbEntity
  8
Detail
100
AcDbBlockReference
  2
B-41
 10
0.000000
 20
0.000000
 30
0.000000
 41
1.000000
 42
1.000000
 43
1.000000
 50
0.000000
  0
INSERT
  5
ACD
100
AcDbEntity
  8
Detail
100
AcDbBlockReference
  2
B-42
 10
0.000000
 20
0.000000
 30
0.000000
 41
1.000000
 42
1.000000
 43
1.000000
 50
0.000000
  0
INSERT
  5
ACE
100
AcDbEntity
  8
Detail
100
AcDbBlockReference
  2
B-43
 10
0.000000
 20
0.000000
 30
0.000000
 41
1.000000
 42
1.000000
 43
1.000000
 50
0.000000
  0
INSERT
  5
ACF
100
AcDbEntity
  8
Detail
100
AcDbBlockReference
  2
B-44
 10
0.000000
 20
0.000000
 30
0.000000
 41
1.000000
 42
1.000000
 43
1.000000
 50
0.000000
  0
INSERT
  5
AD0
100
AcDbEntity
  8
Detail
100
AcDbBlockReference
  2
B-45
 10
0.000000
 20
0.000000
 30
0.000000
 41
1.000000
 42
1.000000
 43
1.000000
 50
0.000000
  0
INSERT
  5
AD1
100
AcDbEntity
  8
Detail
100
AcDbBlockReference
  2
B-46
 10
0.000000
 20
0.000000
 30
0.000000
 41
1.000000
 42
1.000000
 43
1.000000
 50
0.000000
  0
INSERT
  5
AD2
100
AcDbEntity
  8
Detail
100
AcDbBlockReference
  2
B-47
 10
0.000000
 20
0.000000
 30
0.000000
 41
1.000000
 42
1.000000
 43
1.000000
 50
0.000000
  0
INSERT
  5
AD3
100
AcDbEntity
  8
Detail
100
AcDbBlockReference
  2
B-48
 10
0.000000
 20
0.000000
 30
0.000000
 41
1.000000
 42
1.000000
 43
1.000000
 50
0.000000
  0
INSERT
  5
AD4
100
AcDbEntity
  8
Detail
100
AcDbBlockReference
  2
B-49
 10
0.000000
 20
0.000000
 30
0.000000
 41
1.000000
 42
1.000000
 43
1.000000
 50
0.000000
  0
INSERT
  5
AD5
100
AcDbEntity
  8
Detail
100
AcDbBlockReference
  2
B-50
 10
0.000000
 20
0.000000
 30
0.000000
 41
1.000000
 42
1.000000
 43
1.000000
 50
0.000000
  0
INSERT
  5
AD6
100
AcDbEntity
  8
Detail
100
AcDbBlockReference
  2
B-51
 10
0.000000
 20
0.000000
 30
0.000000
 41
1.000000
 42
1.000000
 43
1.000000
 50
0.000000
  0
INSERT
  5
AD7
100
AcDbEntity
  8
Detail
100
AcDbBlockReference
  2
B-52
 10
0.000000
 20
0.000000
 30
0.000000
 41
1.000000
 42
1.000000
 43
1.000000
 50
0.000000
  0
INSERT
  5
AD8
100
AcDbEntity
  8
Detail
100
AcDbBlockReference
  2
B-53
 10
0.000000
 20
0.000000
 30
0.000000
 41
1.000000
 42
1.000000
 43
1.000000
 50
0.000000
  0
INSERT
  5
AD9
100
AcDbEntity
  8
Detail
100
AcDbBlockReference
  2
B-54
 10
0.000000
 20
0.000000
 30
0.000000
 41
1.000000
 42
1.000000
 43
1.000000
 50
0.000000
  0
INSERT
  5
ADA
100
AcDbEntity
  8
Detail
100
AcDbBlockReference
  2
B-55
 10
0.000000
 20
0.000000
 30
0.000000
 41
1.000000
 42
1.000000
 43
1.000000
 50
0.000000
  0
INSERT
  5
ADB
100
AcDbEntity
  8
0
100
AcDbBlockReference
  2
B-56
 10
0.000000
 20
0.000000
 30
0.000000
 41
1.000000
 42
1.000000
 43
1.000000
 50
0.000000
  0
INSERT
  5
ADC
100
AcDbEntity
  8
Detail
100
AcDbBlockReference
  2
B-57
 10
0.000000
 20
0.000000
 30
0.000000
 41
1.000000
 42
1.000000
 43
1.000000
 50
0.000000
  0
INSERT
  5
ADD
100
AcDbEntity
  8
Detail
100
AcDbBlockReference
  2
B-58
 10
0.000000
 20
0.000000
 30
0.000000
 41
1.000000
 42
1.000000
 43
1.000000
 50
0.000000
  0
INSERT
  5
ADE
100
AcDbEntity
  8
Detail
100
AcDbBlockReference
  2
B-59
 10
0.000000
 20
0.000000
 30
0.000000
 41
1.000000
 42
1.000000
 43
1.000000
 50
0.000000
  0
INSERT
  5
ADF
100
AcDbEntity
  8
Detail
100
AcDbBlockReference
  2
B-60
 10
0.000000
 20
0.000000
 30
0.000000
 41
1.000000
 42
1.000000
 43
1.000000
 50
0.000000
  0
INSERT
  5
AE0
100
AcDbEntity
  8
Detail
100
AcDbBlockReference
  2
B-62
 10
0.000000
 20
0.000000
 30
0.000000
 41
1.000000
 42
1.000000
 43
1.000000
 50
0.000000
  0
INSERT
  5
AE1
100
AcDbEntity
  8
Detail
100
AcDbBlockReference
  2
B-63
 10
0.000000
 20
0.000000
 30
0.000000
 41
1.000000
 42
1.000000
 43
1.000000
 50
0.000000
  0
INSERT
  5
AE2
100
AcDbEntity
  8
Detail
100
AcDbBlockReference
  2
B-64
 10
0.000000
 20
0.000000
 30
0.000000
 41
1.000000
 42
1.000000
 43
1.000000
 50
0.000000
  0
INSERT
  5
AE3
100
AcDbEntity
  8
L
100
AcDbBlockReference
  2
B-65
 10
0.000000
 20
0.000000
 30
0.000000
 41
1.000000
 42
1.000000
 43
1.000000
 50
0.000000
  0
INSERT
  5
AE4
100
AcDbEntity
  8
L
100
AcDbBlockReference
  2
B-66
 10
0.000000
 20
0.000000
 30
0.000000
 41
1.000000
 42
1.000000
 43
1.000000
 50
0.000000
  0
INSERT
  5
AE5
100
AcDbEntity
  8
L
100
AcDbBlockReference
  2
B-67
 10
0.000000
 20
0.000000
 30
0.000000
 41
1.000000
 42
1.000000
 43
1.000000
 50
0.000000
  0
INSERT
  5
AE6
100
AcDbEntity
  8
0
100
AcDbBlockReference
  2
B-68
 10
0.000000
 20
0.000000
 30
0.000000
 41
1.000000
 42
1.000000
 43
1.000000
 50
0.000000
  0
INSERT
  5
AE7
100
AcDbEntity
  8
Detail
100
AcDbBlockReference
  2
B-69
 10
0.000000
 20
0.000000
 30
0.000000
 41
1.000000
 42
1.000000
 43
1.000000
 50
0.000000
  0
INSERT
  5
AE8
100
AcDbEntity
  8
0
100
AcDbBlockReference
  2
B-70
 10
0.000000
 20
0.000000
 30
0.000000
 41
1.000000
 42
1.000000
 43
1.000000
 50
0.000000
  0
INSERT
  5
AE9
100
AcDbEntity
  8
Detail
100
AcDbBlockReference
  2
B-71
 10
0.000000
 20
0.000000
 30
0.000000
 41
1.000000
 42
1.000000
 43
1.000000
 50
0.000000
  0
INSERT
  5
AEA
100
AcDbEntity
  8
0
100
AcDbBlockReference
  2
B-72
 10
0.000000
 20
0.000000
 30
0.000000
 41
1.000000
 42
1.000000
 43
1.000000
 50
0.000000
  0
INSERT
  5
AEB
100
AcDbEntity
  8
Detail
100
AcDbBlockReference
  2
B-73
 10
0.000000
 20
0.000000
 30
0.000000
 41
1.000000
 42
1.000000
 43
1.000000
 50
0.000000
  0
INSERT
  5
AEC
100
AcDbEntity
  8
L
100
AcDbBlockReference
  2
B-74
 10
0.000000
 20
0.000000
 30
0.000000
 41
1.000000
 42
1.000000
 43
1.000000
 50
0.000000
  0
INSERT
  5
AED
100
AcDbEntity
  8
Detail
100
AcDbBlockReference
  2
B-75
 10
0.000000
 20
0.000000
 30
0.000000
 41
1.000000
 42
1.000000
 43
1.000000
 50
0.000000
  0
INSERT
  5
AEE
100
AcDbEntity
  8
0
100
AcDbBlockReference
  2
B-76
 10
0.000000
 20
0.000000
 30
0.000000
 41
1.000000
 42
1.000000
 43
1.000000
 50
0.000000
  0
INSERT
  5
AEF
100
AcDbEntity
  8
0
100
AcDbBlockReference
  2
B-77
 10
0.000000
 20
0.000000
 30
0.000000
 41
1.000000
 42
1.000000
 43
1.000000
 50
0.000000
  0
INSERT
  5
AF0
100
AcDbEntity
  8
Detail
100
AcDbBlockReference
  2
B-78
 10
0.000000
 20
0.000000
 30
0.000000
 41
1.000000
 42
1.000000
 43
1.000000
 50
0.000000
  0
INSERT
  5
AF1
100
AcDbEntity
  8
Detail
100
AcDbBlockReference
  2
B-79
 10
0.000000
 20
0.000000
 30
0.000000
 41
1.000000
 42
1.000000
 43
1.000000
 50
0.000000
  0
INSERT
  5
AF2
100
AcDbEntity
  8
Detail
100
AcDbBlockReference
  2
B-80
 10
0.000000
 20
0.000000
 30
0.000000
 41
1.000000
 42
1.000000
 43
1.000000
 50
0.000000
  0
INSERT
  5
AF3
100
AcDbEntity
  8
Detail
100
AcDbBlockReference
  2
B-81
 10
0.000000
 20
0.000000
 30
0.000000
 41
1.000000
 42
1.000000
 43
1.000000
 50
0.000000
  0
INSERT
  5
AF4
100
AcDbEntity
  8
Detail
100
AcDbBlockReference
  2
B-82
 10
0.000000
 20
0.000000
 30
0.000000
 41
1.000000
 42
1.000000
 43
1.000000
 50
0.000000
  0
INSERT
  5
AF5
100
AcDbEntity
  8
Detail
100
AcDbBlockReference
  2
B-83
 10
0.000000
 20
0.000000
 30
0.000000
 41
1.000000
 42
1.000000
 43
1.000000
 50
0.000000
  0
INSERT
  5
AF6
100
AcDbEntity
  8
Detail
100
AcDbBlockReference
  2
B-84
 10
0.000000
 20
0.000000
 30
0.000000
 41
1.000000
 42
1.000000
 43
1.000000
 50
0.000000
  0
INSERT
  5
AF7
100
AcDbEntity
  8
Detail
100
AcDbBlockReference
  2
B-85
 10
0.000000
 20
0.000000
 30
0.000000
 41
1.000000
 42
1.000000
 43
1.000000
 50
0.000000
  0
INSERT
  5
AF8
100
AcDbEntity
  8
0
100
AcDbBlockReference
  2
B-86
 10
0.000000
 20
0.000000
 30
0.000000
 41
1.000000
 42
1.000000
 43
1.000000
 50
0.000000
  0
INSERT
  5
AF9
100
AcDbEntity
  8
0
100
AcDbBlockReference
  2
B-87
 10
0.000000
 20
0.000000
 30
0.000000
 41
1.000000
 42
1.000000
 43
1.000000
 50
0.000000
  0
ENDSEC
  0
SECTION
  2
OBJECTS
  0
DICTIONARY
  5
C
330
0
100
AcDbDictionary
281
     1
  3
ACAD_COLOR
350
6B
  3
ACAD_GROUP
350
D
  3
ACAD_IMAGE_DICT
350
1E2
  3
ACAD_IMAGE_VARS
350
1E3
  3
ACAD_MATERIAL
350
6A
  3
ACAD_MLINESTYLE
350
17
  3
ACAD_PLOTSETTINGS
350
19
  3
ACAD_PLOTSTYLENAME
350
E
  3
ACAD_SCALELIST
350
10C
  3
ACAD_TABLESTYLE
350
7E
  3
ACAD_VISUALSTYLE
350
EF
  3
ACDB_RECOMPOSE_DATA
350
15D
  3
AcDbVariableDictionary
350
5E
  0
DICTIONARY
  5
13C
330
10
100
AcDbDictionary
280
     1
281
     1
  0
DICTIONARY
  5
203
330
202
100
AcDbDictionary
280
     1
281
     1
  0
DICTIONARY
  5
6B
102
{ACAD_REACTORS
330
C
102
}
330
C
100
AcDbDictionary
281
     1
  0
DICTIONARY
  5
D
102
{ACAD_REACTORS
330
C
102
}
330
C
100
AcDbDictionary
281
     1
  0
DICTIONARY
  5
1E2
102
{ACAD_REACTORS
330
C
102
}
330
C
100
AcDbDictionary
281
     1
  3
WDVS mit Edelkratzputz_Innenecke mit Dehnfuge_10_1.tif
350
3A5
  0
RASTERVARIABLES
  5
1E3
102
{ACAD_REACTORS
330
C
102
}
330
C
100
AcDbRasterVariables
 90
        0
 70
     1
 71
     1
 72
     1
  0
DICTIONARY
  5
6A
102
{ACAD_REACTORS
330
C
102
}
330
C
100
AcDbDictionary
281
     1
  3
ByBlock
350
ED
  3
ByLayer
350
EC
  3
Global
350
EE
  0
DICTIONARY
  5
12D
102
{ACAD_REACTORS
330
C
102
}
330
C
100
AcDbDictionary
281
     1
  3
Annotative
350
13B
  3
Standard
350
12E
  0
DICTIONARY
  5
17
102
{ACAD_REACTORS
330
C
102
}
330
C
100
AcDbDictionary
281
     1
  3
Standard
350
18
  0
DICTIONARY
  5
19
102
{ACAD_REACTORS
330
C
102
}
330
C
100
AcDbDictionary
281
     1
  0
ACDBDICTIONARYWDFLT
  5
E
102
{ACAD_REACTORS
330
C
102
}
330
C
100
AcDbDictionary
281
     1
  3
Normal
350
F
100
AcDbDictionaryWithDefault
340
F
  0
DICTIONARY
  5
10C
102
{ACAD_REACTORS
330
C
102
}
330
C
100
AcDbDictionary
281
     1
  3
A0
350
10D
  3
A1
350
1BE
  3
A2
350
1BF
  3
A3
350
1C0
  3
A4
350
1C1
  3
A5
350
1C2
  3
A6
350
1C3
  3
A7
350
1C4
  3
A8
350
1C5
  3
A9
350
1C6
  3
B0
350
1C7
  3
B1
350
1C8
  3
B2
350
1C9
  3
B3
350
1CA
  3
B4
350
1CB
  3
B5
350
1CC
  3
B6
350
1CD
  0
DICTIONARY
  5
7E
102
{ACAD_REACTORS
330
C
102
}
330
C
100
AcDbDictionary
281
     1
  3
Standard
350
7F
  0
DICTIONARY
  5
EF
102
{ACAD_REACTORS
330
C
102
}
330
C
100
AcDbDictionary
281
     1
  3
2dWireframe
350
F5
  3
3D Hidden
350
F7
  3
3dWireframe
350
F6
  3
Basic
350
F4
  3
Brighten
350
FB
  3
ColorChange
350
FF
  3
Conceptual
350
F8
  3
Dim
350
FA
  3
Facepattern
350
FE
  3
Flat
350
F0
  3
FlatWithEdges
350
F1
  3
Gouraud
350
F2
  3
GouraudWithEdges
350
F3
  3
Linepattern
350
FD
  3
Realistic
350
F9
  3
Thicken
350
FC
  0
XRECORD
  5
15D
102
{ACAD_REACTORS
330
C
102
}
330
C
100
AcDbXrecord
280
     1
 90
        1
330
7F
  0
DICTIONARY
  5
5E
102
{ACAD_REACTORS
330
C
102
}
330
C
100
AcDbDictionary
281
     1
  3
CANNOSCALE
350
146
  3
CMLEADERSTYLE
350
145
  3
CTABLESTYLE
350
84
  3
DIMASSOC
350
5F
  3
HIDETEXT
350
63
  3
LAYEREVAL
350
1AE
  3
LAYERNOTIFY
350
1AF
  0
MATERIAL
  5
ED
102
{ACAD_REACTORS
330
6A
102
}
330
6A
100
AcDbMaterial
  1
ByBlock
 94
       63
  0
MATERIAL
  5
EC
102
{ACAD_REACTORS
330
6A
102
}
330
6A
100
AcDbMaterial
  1
ByLayer
 94
       63
  0
MATERIAL
  5
EE
102
{ACAD_XDICTIONARY
360
173
102
}
102
{ACAD_REACTORS
330
6A
102
}
330
6A
100
AcDbMaterial
  1
Global
 43
0.0007999999797903
 43
0.0
 43
0.0
 43
0.0
 43
0.0
 43
0.0007999999797903
 43
0.0
 43
0.0
 43
0.0
 43
0.0
 43
1.0
 43
0.0
 43
0.0
 43
0.0
 43
0.0
 43
1.0
 49
0.0007999999797903
 49
0.0
 49
0.0
 49
0.0
 49
0.0
 49
0.0007999999797903
 49
0.0
 49
0.0
 49
0.0
 49
0.0
 49
1.0
 49
0.0
 49
0.0
 49
0.0
 49
0.0
 49
1.0
142
0.0007999999797903
142
0.0
142
0.0
142
0.0
142
0.0
142
0.0007999999797903
142
0.0
142
0.0
142
0.0
142
0.0
142
1.0
142
0.0
142
0.0
142
0.0
142
0.0
142
1.0
144
0.0007999999797903
144
0.0
144
0.0
144
0.0
144
0.0
144
0.0007999999797903
144
0.0
144
0.0
144
0.0
144
0.0
144
1.0
144
0.0
144
0.0
144
0.0
144
0.0
144
1.0
 94
       63
1001
ACAD
1070
    -1
1070
     3
1070
     0
1000

1071
        0
1070
     0
  0
MLINESTYLE
  5
18
102
{ACAD_REACTORS
330
17
102
}
330
17
100
AcDbMlineStyle
  2
STANDARD
 70
     0
  3

 62
   256
 51
90.0
 52
90.0
 71
     2
 49
0.5
 62
   256
  6
BYLAYER
 49
-0.5
 62
   256
  6
BYLAYER
  0
ACDBPLACEHOLDER
  5
F
102
{ACAD_REACTORS
330
E
102
}
330
E
  0
SCALE
  5
10D
102
{ACAD_REACTORS
330
10C
102
}
330
10C
100
AcDbScale
 70
     0
300
1:1
140
1.0
141
1.0
290
     1
  0
SCALE
  5
1BE
102
{ACAD_REACTORS
330
10C
102
}
330
10C
100
AcDbScale
 70
     0
300
1:2
140
1.0
141
2.0
290
     0
  0
SCALE
  5
1BF
102
{ACAD_REACTORS
330
10C
102
}
330
10C
100
AcDbScale
 70
     0
300
1:4
140
1.0
141
4.0
290
     0
  0
SCALE
  5
1C0
102
{ACAD_REACTORS
330
10C
102
}
330
10C
100
AcDbScale
 70
     0
300
1:5
140
1.0
141
5.0
290
     0
  0
SCALE
  5
1C1
102
{ACAD_REACTORS
330
10C
102
}
330
10C
100
AcDbScale
 70
     0
300
1:8
140
1.0
141
8.0
290
     0
  0
SCALE
  5
1C2
102
{ACAD_REACTORS
330
10C
102
}
330
10C
100
AcDbScale
 70
     0
300
1:10
140
1.0
141
10.0
290
     0
  0
SCALE
  5
1C3
102
{ACAD_REACTORS
330
10C
102
}
330
10C
100
AcDbScale
 70
     0
300
1:16
140
1.0
141
16.0
290
     0
  0
SCALE
  5
1C4
102
{ACAD_REACTORS
330
10C
102
}
330
10C
100
AcDbScale
 70
     0
300
1:20
140
1.0
141
20.0
290
     0
  0
SCALE
  5
1C5
102
{ACAD_REACTORS
330
10C
102
}
330
10C
100
AcDbScale
 70
     0
300
1:30
140
1.0
141
30.0
290
     0
  0
SCALE
  5
1C6
102
{ACAD_REACTORS
330
10C
102
}
330
10C
100
AcDbScale
 70
     0
300
1:40
140
1.0
141
40.0
290
     0
  0
SCALE
  5
1C7
102
{ACAD_REACTORS
330
10C
102
}
330
10C
100
AcDbScale
 70
     0
300
1:50
140
1.0
141
50.0
290
     0
  0
SCALE
  5
1C8
102
{ACAD_REACTORS
330
10C
102
}
330
10C
100
AcDbScale
 70
     0
300
1:100
140
1.0
141
100.0
290
     0
  0
SCALE
  5
1C9
102
{ACAD_REACTORS
330
10C
102
}
330
10C
100
AcDbScale
 70
     0
300
2:1
140
2.0
141
1.0
290
     0
  0
SCALE
  5
1CA
102
{ACAD_REACTORS
330
10C
102
}
330
10C
100
AcDbScale
 70
     0
300
4:1
140
4.0
141
1.0
290
     0
  0
SCALE
  5
1CB
102
{ACAD_REACTORS
330
10C
102
}
330
10C
100
AcDbScale
 70
     0
300
8:1
140
8.0
141
1.0
290
     0
  0
SCALE
  5
1CC
102
{ACAD_REACTORS
330
10C
102
}
330
10C
100
AcDbScale
 70
     0
300
10:1
140
10.0
141
1.0
290
     0
  0
SCALE
  5
1CD
102
{ACAD_REACTORS
330
10C
102
}
330
10C
100
AcDbScale
 70
     0
300
100:1
140
100.0
141
1.0
290
     0
  0
TABLESTYLE
  5
7F
102
{ACAD_XDICTIONARY
360
162
102
}
102
{ACAD_REACTORS
330
7E
102
}
330
7E
100
AcDbTableStyle
  3
Standard
 70
     0
 71
     0
 40
1.5
 41
1.5
280
     0
281
     0
  7
Standard
140
4.5
170
     2
 62
     0
 63
     7
283
     0
 90
      512
 91
        0
  1

274
    -2
284
     1
 64
     0
275
    -2
285
     1
 65
     0
276
    -2
286
     1
 66
     0
277
    -2
287
     1
 67
     0
278
    -2
288
     1
 68
     0
279
    -2
289
     1
 69
     0
  7
Standard
140
6.0
170
     5
 62
     0
 63
     7
283
     0
 90
      512
 91
        0
  1

274
    -2
284
     1
 64
     0
275
    -2
285
     1
 65
     0
276
    -2
286
     1
 66
     0
277
    -2
287
     1
 67
     0
278
    -2
288
     1
 68
     0
279
    -2
289
     1
 69
     0
  7
Standard
140
4.5
170
     5
 62
     0
 63
     7
283
     0
 90
      512
 91
        0
  1

274
    -2
284
     1
 64
     0
275
    -2
285
     1
 65
     0
276
    -2
286
     1
 66
     0
277
    -2
287
     1
 67
     0
278
    -2
288
     1
 68
     0
279
    -2
289
     1
 69
     0
  0
VISUALSTYLE
  5
F5
102
{ACAD_REACTORS
330
EF
102
}
330
EF
100
AcDbVisualStyle
  2
2dWireframe
 70
     4
 71
     0
 72
     2
 73
     1
 90
        0
 40
-0.6
 41
-30.0
 62
     5
 63
     7
421
 16777215
 74
     1
 91
        4
 64
     7
 65
   257
 75
     1
175
     1
 42
1.0
 92
        0
 66
   257
 43
1.0
 76
     1
 77
     6
 78
     2
 67
     7
 79
     5
170
     0
171
     0
290
     0
174
     0
 93
        1
 44
0.0
173
     0
291
     0
 45
0.0
  0
VISUALSTYLE
  5
F7
102
{ACAD_REACTORS
330
EF
102
}
330
EF
100
AcDbVisualStyle
  2
3D Hidden
 70
     6
 71
     1
 72
     2
 73
     2
 90
        0
 40
-0.6
 41
-30.0
 62
     5
 63
     7
421
 16777215
 74
     2
 91
        2
 64
     7
 65
   257
 75
     2
175
     1
 42
40.0
 92
        0
 66
   257
 43
1.0
 76
     1
 77
     6
 78
     2
 67
     7
 79
     3
170
     0
171
     0
290
     0
174
     0
 93
        1
 44
0.0
173
     0
291
     0
 45
0.0
  0
VISUALSTYLE
  5
F6
102
{ACAD_REACTORS
330
EF
102
}
330
EF
100
AcDbVisualStyle
  2
3dWireframe
 70
     5
 71
     0
 72
     2
 73
     1
 90
        0
 40
-0.6
 41
-30.0
 62
     5
 63
     7
421
 16777215
 74
     1
 91
        4
 64
     7
 65
   257
 75
     1
175
     1
 42
1.0
 92
        0
 66
   257
 43
1.0
 76
     1
 77
     6
 78
     2
 67
     7
 79
     5
170
     0
171
     0
290
     0
174
     0
 93
        1
 44
0.0
173
     0
291
     0
 45
0.0
  0
VISUALSTYLE
  5
F4
102
{ACAD_REACTORS
330
EF
102
}
330
EF
100
AcDbVisualStyle
  2
Basic
 70
     7
 71
     1
 72
     0
 73
     1
 90
        0
 40
-0.6
 41
-30.0
 62
     5
 63
     7
421
 16777215
 74
     0
 91
        4
 64
     7
 65
   257
 75
     1
175
     1
 42
1.0
 92
        8
 66
     7
 43
1.0
 76
     1
 77
     6
 78
     2
 67
     7
 79
     5
170
     0
171
     0
290
     0
174
     0
 93
        1
 44
0.0
173
     0
291
     1
 45
0.0
  0
VISUALSTYLE
  5
FB
102
{ACAD_REACTORS
330
EF
102
}
330
EF
100
AcDbVisualStyle
  2
Brighten
 70
    12
 71
     2
 72
     2
 73
     1
 90
        0
 40
-0.6
 41
-30.0
 62
     5
 63
     7
421
 16777215
 74
     1
 91
        4
 64
     7
 65
   257
 75
     1
175
     1
 42
1.0
 92
        8
 66
     7
 43
1.0
 76
     1
 77
     6
 78
     2
 67
     7
 79
     5
170
     0
171
     0
290
     0
174
     0
 93
        1
 44
50.0
173
     0
291
     1
 45
0.0
  0
VISUALSTYLE
  5
FF
102
{ACAD_REACTORS
330
EF
102
}
330
EF
100
AcDbVisualStyle
  2
ColorChange
 70
    16
 71
     2
 72
     2
 73
     3
 90
        0
 40
-0.6
 41
-30.0
 62
     5
 63
     8
421
  8421504
 74
     1
 91
        4
 64
     7
 65
   257
 75
     1
175
     1
 42
1.0
 92
        8
 66
     8
424
  8421504
 43
1.0
 76
     1
 77
     6
 78
     2
 67
     7
 79
     5
170
     0
171
     0
290
     0
174
     0
 93
        1
 44
0.0
173
     0
291
     1
 45
0.0
  0
VISUALSTYLE
  5
F8
102
{ACAD_REACTORS
330
EF
102
}
330
EF
100
AcDbVisualStyle
  2
Conceptual
 70
     9
 71
     3
 72
     2
 73
     1
 90
        0
 40
-0.6
 41
-30.0
 62
     5
 63
     7
421
 16777215
 74
     2
 91
        2
 64
     7
 65
   257
 75
     1
175
     1
 42
40.0
 92
        8
 66
     7
 43
1.0
 76
     1
 77
     6
 78
     2
 67
     7
 79
     3
170
     0
171
     0
290
     0
174
     0
 93
        1
 44
0.0
173
     0
291
     0
 45
0.0
  0
VISUALSTYLE
  5
FA
102
{ACAD_REACTORS
330
EF
102
}
330
EF
100
AcDbVisualStyle
  2
Dim
 70
    11
 71
     2
 72
     2
 73
     1
 90
        0
 40
-0.6
 41
-30.0
 62
     5
 63
     7
421
 16777215
 74
     1
 91
        4
 64
     7
 65
   257
 75
     1
175
     1
 42
1.0
 92
        8
 66
     7
 43
1.0
 76
     1
 77
     6
 78
     2
 67
     7
 79
     5
170
     0
171
     0
290
     0
174
     0
 93
        1
 44
-50.0
173
     0
291
     1
 45
0.0
  0
VISUALSTYLE
  5
FE
102
{ACAD_REACTORS
330
EF
102
}
330
EF
100
AcDbVisualStyle
  2
Facepattern
 70
    15
 71
     2
 72
     2
 73
     1
 90
        0
 40
-0.6
 41
-30.0
 62
     5
 63
     7
421
 16777215
 74
     1
 91
        4
 64
     7
 65
   257
 75
     1
175
     1
 42
1.0
 92
        8
 66
     7
 43
1.0
 76
     1
 77
     6
 78
     2
 67
     7
 79
     5
170
     0
171
     0
290
     0
174
     0
 93
        1
 44
0.0
173
     0
291
     1
 45
0.0
  0
VISUALSTYLE
  5
F0
102
{ACAD_REACTORS
330
EF
102
}
330
EF
100
AcDbVisualStyle
  2
Flat
 70
     0
 71
     2
 72
     1
 73
     1
 90
        2
 40
-0.6
 41
30.0
 62
     5
 63
     7
421
 16777215
 74
     0
 91
        4
 64
     7
 65
   257
 75
     1
175
     1
 42
1.0
 92
        8
 66
     7
 43
1.0
 76
     1
 77
     6
 78
     2
 67
     7
 79
     5
170
     0
171
     0
290
     0
174
     0
 93
        1
 44
0.0
173
     0
291
     1
 45
0.0
  0
VISUALSTYLE
  5
F1
102
{ACAD_REACTORS
330
EF
102
}
330
EF
100
AcDbVisualStyle
  2
FlatWithEdges
 70
     1
 71
     2
 72
     1
 73
     1
 90
        2
 40
-0.6
 41
30.0
 62
     5
 63
     7
421
 16777215
 74
     1
 91
        4
 64
     7
 65
   257
 75
     1
175
     1
 42
1.0
 92
        0
 66
   257
 43
1.0
 76
     1
 77
     6
 78
     2
 67
     7
 79
     5
170
     0
171
     0
290
     0
174
     0
 93
        1
 44
0.0
173
     0
291
     1
 45
0.0
  0
VISUALSTYLE
  5
F2
102
{ACAD_REACTORS
330
EF
102
}
330
EF
100
AcDbVisualStyle
  2
Gouraud
 70
     2
 71
     2
 72
     2
 73
     1
 90
        2
 40
-0.6
 41
30.0
 62
     5
 63
     7
421
 16777215
 74
     0
 91
        4
 64
     7
 65
   257
 75
     1
175
     1
 42
1.0
 92
        0
 66
     7
 43
1.0
 76
     1
 77
     6
 78
     2
 67
     7
 79
     5
170
     0
171
     0
290
     0
174
     0
 93
        1
 44
0.0
173
     0
291
     1
 45
0.0
  0
VISUALSTYLE
  5
F3
102
{ACAD_REACTORS
330
EF
102
}
330
EF
100
AcDbVisualStyle
  2
GouraudWithEdges
 70
     3
 71
     2
 72
     2
 73
     1
 90
        2
 40
-0.6
 41
30.0
 62
     5
 63
     7
421
 16777215
 74
     1
 91
        4
 64
     7
 65
   257
 75
     1
175
     1
 42
1.0
 92
        0
 66
   257
 43
1.0
 76
     1
 77
     6
 78
     2
 67
     7
 79
     5
170
     0
171
     0
290
     0
174
     0
 93
        1
 44
0.0
173
     0
291
     1
 45
0.0
  0
VISUALSTYLE
  5
FD
102
{ACAD_REACTORS
330
EF
102
}
330
EF
100
AcDbVisualStyle
  2
Linepattern
 70
    14
 71
     2
 72
     2
 73
     1
 90
        0
 40
-0.6
 41
-30.0
 62
     5
 63
     7
421
 16777215
 74
     1
 91
        4
 64
     7
 65
   257
 75
     7
175
     7
 42
1.0
 92
        8
 66
     7
 43
1.0
 76
     1
 77
     6
 78
     2
 67
     7
 79
     5
170
     0
171
     0
290
     0
174
     0
 93
        1
 44
0.0
173
     0
291
     1
 45
0.0
  0
VISUALSTYLE
  5
F9
102
{ACAD_REACTORS
330
EF
102
}
330
EF
100
AcDbVisualStyle
  2
Realistic
 70
     8
 71
     2
 72
     2
 73
     1
 90
        0
 40
-0.6
 41
-30.0
 62
     5
 63
     7
421
 16777215
 74
     1
 91
        0
 64
     7
 65
   257
 75
     1
175
     1
 42
1.0
 92
        8
 66
     8
424
  7895160
 43
1.0
 76
     1
 77
     6
 78
     2
 67
     7
 79
     5
170
     0
171
     0
290
     0
174
     0
 93
       13
 44
0.0
173
     0
291
     0
 45
0.0
  0
VISUALSTYLE
  5
FC
102
{ACAD_REACTORS
330
EF
102
}
330
EF
100
AcDbVisualStyle
  2
Thicken
 70
    13
 71
     2
 72
     2
 73
     1
 90
        0
 40
-0.6
 41
-30.0
 62
     5
 63
     7
421
 16777215
 74
     1
 91
        4
 64
     7
 65
   257
 75
     1
175
     1
 42
1.0
 92
       12
 66
     7
 43
1.0
 76
     1
 77
     6
 78
     2
 67
     7
 79
     5
170
     0
171
     0
290
     0
174
     0
 93
        1
 44
0.0
173
     0
291
     1
 45
0.0
  0
DICTIONARYVAR
  5
146
102
{ACAD_REACTORS
330
5E
102
}
330
5E
100
DictionaryVariables
280
     0
  1
1:1
  0
DICTIONARYVAR
  5
145
102
{ACAD_REACTORS
330
5E
102
}
330
5E
100
DictionaryVariables
280
     0
  1
STANDARD
  0
DICTIONARYVAR
  5
84
102
{ACAD_REACTORS
330
5E
102
}
330
5E
100
DictionaryVariables
280
     0
  1
STANDARD
  0
DICTIONARYVAR
  5
5F
102
{ACAD_REACTORS
330
5E
102
}
330
5E
100
DictionaryVariables
280
     0
  1
2
  0
DICTIONARYVAR
  5
63
102
{ACAD_REACTORS
330
5E
102
}
330
5E
100
DictionaryVariables
280
     0
  1
1
  0
DICTIONARYVAR
  5
1AE
102
{ACAD_REACTORS
330
5E
102
}
330
5E
100
DictionaryVariables
280
     0
  1
0
  0
DICTIONARYVAR
  5
1AF
102
{ACAD_REACTORS
330
5E
102
}
330
5E
100
DictionaryVariables
280
     0
  1
0
  0
DICTIONARY
  5
173
330
EE
100
AcDbDictionary
280
     1
281
     1
  3
BUMPTILE
360
175
  3
DIFFUSETILE
360
174
  3
OPACITYTILE
360
176
  3
REFLECTIONTILE
360
177
  0
DICTIONARY
  5
162
330
7F
100
AcDbDictionary
280
     1
281
     1
  3
ACAD_ROUNDTRIP_2008_TABLESTYLE_CELLSTYLEMAP
360
1E7
  0
XRECORD
  5
175
102
{ACAD_REACTORS
330
173
102
}
330
173
100
AcDbXrecord
280
     1
270
     1
271
     1
  0
XRECORD
  5
174
102
{ACAD_REACTORS
330
173
102
}
330
173
100
AcDbXrecord
280
     1
270
     1
271
     1
  0
XRECORD
  5
176
102
{ACAD_REACTORS
330
173
102
}
330
173
100
AcDbXrecord
280
     1
270
     1
271
     1
  0
XRECORD
  5
177
102
{ACAD_REACTORS
330
173
102
}
330
173
100
AcDbXrecord
280
     1
270
     1
271
     1
  0
CELLSTYLEMAP
  5
1E7
102
{ACAD_REACTORS
330
162
102
}
330
162
100
AcDbCellStyleMap
 90
        3
300
CELLSTYLE
  1
TABLEFORMAT_BEGIN
 90
        5
170
     1
 91
        0
 92
    32768
 62
   257
 93
        1
300
CONTENTFORMAT
  1
CONTENTFORMAT_BEGIN
 90
        0
 91
        0
 92
      512
 93
        0
300

 40
0.0
140
1.0
 94
        5
 62
     0
340
11
144
6.0
309
CONTENTFORMAT_END
171
     1
301
MARGIN
  1
CELLMARGIN_BEGIN
 40
1.5
 40
1.5
 40
1.5
 40
1.5
 40
4.5
 40
4.5
309
CELLMARGIN_END
 94
        6
 95
        1
302
GRIDFORMAT
  1
GRIDFORMAT_BEGIN
 90
        0
 91
        1
 62
     0
 92
       -2
340
923
 93
        0
 40
1.125
309
GRIDFORMAT_END
 95
        2
302
GRIDFORMAT
  1
GRIDFORMAT_BEGIN
 90
        0
 91
        1
 62
     0
 92
       -2
340
923
 93
        0
 40
1.125
309
GRIDFORMAT_END
 95
        4
302
GRIDFORMAT
  1
GRIDFORMAT_BEGIN
 90
        0
 91
        1
 62
     0
 92
       -2
340
923
 93
        0
 40
1.125
309
GRIDFORMAT_END
 95
        8
302
GRIDFORMAT
  1
GRIDFORMAT_BEGIN
 90
        0
 91
        1
 62
     0
 92
       -2
340
923
 93
        0
 40
1.125
309
GRIDFORMAT_END
 95
       16
302
GRIDFORMAT
  1
GRIDFORMAT_BEGIN
 90
        0
 91
        1
 62
     0
 92
       -2
340
923
 93
        0
 40
1.125
309
GRIDFORMAT_END
 95
       32
302
GRIDFORMAT
  1
GRIDFORMAT_BEGIN
 90
        0
 91
        1
 62
     0
 92
       -2
340
923
 93
        0
 40
1.125
309
GRIDFORMAT_END
309
TABLEFORMAT_END
  1
CELLSTYLE_BEGIN
 90
        1
 91
        1
300
_TITLE
309
CELLSTYLE_END
300
CELLSTYLE
  1
TABLEFORMAT_BEGIN
 90
        5
170
     1
 91
        0
 92
        0
 62
   257
 93
        1
300
CONTENTFORMAT
  1
CONTENTFORMAT_BEGIN
 90
        0
 91
        0
 92
      512
 93
        0
300

 40
0.0
140
1.0
 94
        5
 62
     0
340
11
144
4.5
309
CONTENTFORMAT_END
171
     1
301
MARGIN
  1
CELLMARGIN_BEGIN
 40
1.5
 40
1.5
 40
1.5
 40
1.5
 40
4.5
 40
4.5
309
CELLMARGIN_END
 94
        6
 95
        1
302
GRIDFORMAT
  1
GRIDFORMAT_BEGIN
 90
        0
 91
        1
 62
     0
 92
       -2
340
923
 93
        0
 40
1.125
309
GRIDFORMAT_END
 95
        2
302
GRIDFORMAT
  1
GRIDFORMAT_BEGIN
 90
        0
 91
        1
 62
     0
 92
       -2
340
923
 93
        0
 40
1.125
309
GRIDFORMAT_END
 95
        4
302
GRIDFORMAT
  1
GRIDFORMAT_BEGIN
 90
        0
 91
        1
 62
     0
 92
       -2
340
923
 93
        0
 40
1.125
309
GRIDFORMAT_END
 95
        8
302
GRIDFORMAT
  1
GRIDFORMAT_BEGIN
 90
        0
 91
        1
 62
     0
 92
       -2
340
923
 93
        0
 40
1.125
309
GRIDFORMAT_END
 95
       16
302
GRIDFORMAT
  1
GRIDFORMAT_BEGIN
 90
        0
 91
        1
 62
     0
 92
       -2
340
923
 93
        0
 40
1.125
309
GRIDFORMAT_END
 95
       32
302
GRIDFORMAT
  1
GRIDFORMAT_BEGIN
 90
        0
 91
        1
 62
     0
 92
       -2
340
923
 93
        0
 40
1.125
309
GRIDFORMAT_END
309
TABLEFORMAT_END
  1
CELLSTYLE_BEGIN
 90
        2
 91
        1
300
_HEADER
309
CELLSTYLE_END
300
CELLSTYLE
  1
TABLEFORMAT_BEGIN
 90
        5
170
     1
 91
        0
 92
        0
 62
   257
 93
        1
300
CONTENTFORMAT
  1
CONTENTFORMAT_BEGIN
 90
        0
 91
        0
 92
      512
 93
        0
300

 40
0.0
140
1.0
 94
        2
 62
     0
340
11
144
4.5
309
CONTENTFORMAT_END
171
     1
301
MARGIN
  1
CELLMARGIN_BEGIN
 40
1.5
 40
1.5
 40
1.5
 40
1.5
 40
4.5
 40
4.5
309
CELLMARGIN_END
 94
        6
 95
        1
302
GRIDFORMAT
  1
GRIDFORMAT_BEGIN
 90
        0
 91
        1
 62
     0
 92
       -2
340
923
 93
        0
 40
1.125
309
GRIDFORMAT_END
 95
        2
302
GRIDFORMAT
  1
GRIDFORMAT_BEGIN
 90
        0
 91
        1
 62
     0
 92
       -2
340
923
 93
        0
 40
1.125
309
GRIDFORMAT_END
 95
        4
302
GRIDFORMAT
  1
GRIDFORMAT_BEGIN
 90
        0
 91
        1
 62
     0
 92
       -2
340
923
 93
        0
 40
1.125
309
GRIDFORMAT_END
 95
        8
302
GRIDFORMAT
  1
GRIDFORMAT_BEGIN
 90
        0
 91
        1
 62
     0
 92
       -2
340
923
 93
        0
 40
1.125
309
GRIDFORMAT_END
 95
       16
302
GRIDFORMAT
  1
GRIDFORMAT_BEGIN
 90
        0
 91
        1
 62
     0
 92
       -2
340
923
 93
        0
 40
1.125
309
GRIDFORMAT_END
 95
       32
302
GRIDFORMAT
  1
GRIDFORMAT_BEGIN
 90
        0
 91
        1
 62
     0
 92
       -2
340
923
 93
        0
 40
1.125
309
GRIDFORMAT_END
309
TABLEFORMAT_END
  1
CELLSTYLE_BEGIN
 90
        3
 91
        2
300
_DATA
309
CELLSTYLE_END
  0
IMAGEDEF_REACTOR
  5
3A6
330
3A4
100
AcDbRasterImageDefReactor
 90
     2
330
3A4
  0
IMAGEDEF
  5
3A5
102
{ACAD_REACTORS
330
5E
330
3A6
102
}
330
5E
100
AcDbRasterImageDef
 90
     0
  1
WDVS mit Edelkratzputz_Innenecke mit Dehnfuge_10_1.tif
 10
395.000000
 20
405.000000
 11
0.002532
 21
0.002469
280
     1
281
     0
  0
ENDSEC
  0
EOF
