  0
SECTION
  2
HEADER
  9
$ACADVER
  1
AC1024
  9
$ACADMAINTVER
 70
     6
  9
$DWGCODEPAGE
  3
ANSI_1252
  9
$INSBASE
 10
0.0
 20
0.0
 30
0.0
  9
$EXTMIN
 10
-262.500018
 20
-371.249941
 30
0.000000
  9
$EXTMAX
 10
237.500023
 20
346.250078
 30
0.000000
  9
$LIMMIN
 10
0.0
 20
0.0
  9
$LIMMAX
 10
420.0
 20
297.0
  9
$ORTHOMODE
 70
     0
  9
$REGENMODE
 70
     1
  9
$FILLMODE
 70
     1
  9
$QTEXTMODE
 70
     0
  9
$MIRRTEXT
 70
     0
  9
$LTSCALE
 40
25.000000
  9
$ATTMODE
 70
     1
  9
$TEXTSIZE
 40
2.5
  9
$TRACEWID
 40
1.0
  9
$TEXTSTYLE
  7
Standard
  9
$CLAYER
  8
0
  9
$CELTYPE
  6
ByLayer
  9
$CECOLOR
 62
   256
  9
$CELTSCALE
 40
1.0
  9
$DISPSILH
 70
     0
  9
$DIMSCALE
 40
1.0
  9
$DIMASZ
 40
2.5
  9
$DIMEXO
 40
0.625
  9
$DIMDLI
 40
3.75
  9
$DIMRND
 40
0.0
  9
$DIMDLE
 40
0.0
  9
$DIMEXE
 40
1.25
  9
$DIMTP
 40
0.0
  9
$DIMTM
 40
0.0
  9
$DIMTXT
 40
2.5
  9
$DIMCEN
 40
2.5
  9
$DIMTSZ
 40
0.0
  9
$DIMTOL
 70
     0
  9
$DIMLIM
 70
     0
  9
$DIMTIH
 70
     0
  9
$DIMTOH
 70
     0
  9
$DIMSE1
 70
     0
  9
$DIMSE2
 70
     0
  9
$DIMTAD
 70
     1
  9
$DIMZIN
 70
     8
  9
$DIMBLK
  1

  9
$DIMASO
 70
     1
  9
$DIMSHO
 70
     1
  9
$DIMPOST
  1

  9
$DIMAPOST
  1

  9
$DIMALT
 70
     0
  9
$DIMALTD
 70
     3
  9
$DIMALTF
 40
0.03937007874016
  9
$DIMLFAC
 40
1.0
  9
$DIMTOFL
 70
     1
  9
$DIMTVP
 40
0.0
  9
$DIMTIX
 70
     0
  9
$DIMSOXD
 70
     0
  9
$DIMSAH
 70
     0
  9
$DIMBLK1
  1

  9
$DIMBLK2
  1

  9
$DIMSTYLE
  2
ISO-25
  9
$DIMCLRD
 70
     0
  9
$DIMCLRE
 70
     0
  9
$DIMCLRT
 70
     0
  9
$DIMTFAC
 40
1.0
  9
$DIMGAP
 40
0.625
  9
$DIMJUST
 70
     0
  9
$DIMSD1
 70
     0
  9
$DIMSD2
 70
     0
  9
$DIMTOLJ
 70
     0
  9
$DIMTZIN
 70
     8
  9
$DIMALTZ
 70
     0
  9
$DIMALTTZ
 70
     0
  9
$DIMUPT
 70
     0
  9
$DIMDEC
 70
     2
  9
$DIMTDEC
 70
     2
  9
$DIMALTU
 70
     2
  9
$DIMALTTD
 70
     3
  9
$DIMTXSTY
  7
Standard
  9
$DIMAUNIT
 70
     0
  9
$DIMADEC
 70
     0
  9
$DIMALTRND
 40
0.0
  9
$DIMAZIN
 70
     0
  9
$DIMDSEP
 70
    44
  9
$DIMATFIT
 70
     3
  9
$DIMFRAC
 70
     0
  9
$DIMLDRBLK
  1

  9
$DIMLUNIT
 70
     2
  9
$DIMLWD
 70
    -2
  9
$DIMLWE
 70
    -2
  9
$DIMTMOVE
 70
     0
  9
$DIMFXL
 40
1.0
  9
$DIMFXLON
 70
     0
  9
$DIMJOGANG
 40
0.7853981633974483
  9
$DIMTFILL
 70
     0
  9
$DIMTFILLCLR
 70
     0
  9
$DIMARCSYM
 70
     0
  9
$DIMLTYPE
  6

  9
$DIMLTEX1
  6

  9
$DIMLTEX2
  6

  9
$DIMTXTDIRECTION
 70
     0
  9
$LUNITS
 70
     2
  9
$LUPREC
 70
     4
  9
$SKETCHINC
 40
1.0
  9
$FILLETRAD
 40
10.0
  9
$AUNITS
 70
     0
  9
$AUPREC
 70
     0
  9
$MENU
  1
.
  9
$ELEVATION
 40
0.0
  9
$PELEVATION
 40
0.0
  9
$THICKNESS
 40
0.0
  9
$LIMCHECK
 70
     0
  9
$CHAMFERA
 40
10.0
  9
$CHAMFERB
 40
10.0
  9
$CHAMFERC
 40
20.0
  9
$CHAMFERD
 40
0.0
  9
$SKPOLY
 70
     0
  9
$TDCREATE
 40
2452006.439837951
  9
$TDUCREATE
 40
2452006.356504618
  9
$TDUPDATE
 40
2452006.439963946
  9
$TDUUPDATE
 40
2452006.356630613
  9
$TDINDWG
 40
0.0001273843
  9
$TDUSRTIMER
 40
0.0001272685
  9
$USRTIMER
 70
     1
  9
$ANGBASE
 50
0.0
  9
$ANGDIR
 70
     0
  9
$PDMODE
 70
     0
  9
$PDSIZE
 40
0.0
  9
$PLINEWID
 40
0.0
  9
$SPLFRAME
 70
     0
  9
$SPLINETYPE
 70
     6
  9
$SPLINESEGS
 70
     8
  9
$HANDSEED
  5
9B6
  9
$SURFTAB1
 70
     6
  9
$SURFTAB2
 70
     6
  9
$SURFTYPE
 70
     6
  9
$SURFU
 70
     6
  9
$SURFV
 70
     6
  9
$UCSBASE
  2

  9
$UCSNAME
  2

  9
$UCSORG
 10
0.0
 20
0.0
 30
0.0
  9
$UCSXDIR
 10
1.0
 20
0.0
 30
0.0
  9
$UCSYDIR
 10
0.0
 20
1.0
 30
0.0
  9
$UCSORTHOREF
  2

  9
$UCSORTHOVIEW
 70
     0
  9
$UCSORGTOP
 10
0.0
 20
0.0
 30
0.0
  9
$UCSORGBOTTOM
 10
0.0
 20
0.0
 30
0.0
  9
$UCSORGLEFT
 10
0.0
 20
0.0
 30
0.0
  9
$UCSORGRIGHT
 10
0.0
 20
0.0
 30
0.0
  9
$UCSORGFRONT
 10
0.0
 20
0.0
 30
0.0
  9
$UCSORGBACK
 10
0.0
 20
0.0
 30
0.0
  9
$PUCSBASE
  2

  9
$PUCSNAME
  2

  9
$PUCSORG
 10
0.0
 20
0.0
 30
0.0
  9
$PUCSXDIR
 10
1.0
 20
0.0
 30
0.0
  9
$PUCSYDIR
 10
0.0
 20
1.0
 30
0.0
  9
$PUCSORTHOREF
  2

  9
$PUCSORTHOVIEW
 70
     0
  9
$PUCSORGTOP
 10
0.0
 20
0.0
 30
0.0
  9
$PUCSORGBOTTOM
 10
0.0
 20
0.0
 30
0.0
  9
$PUCSORGLEFT
 10
0.0
 20
0.0
 30
0.0
  9
$PUCSORGRIGHT
 10
0.0
 20
0.0
 30
0.0
  9
$PUCSORGFRONT
 10
0.0
 20
0.0
 30
0.0
  9
$PUCSORGBACK
 10
0.0
 20
0.0
 30
0.0
  9
$USERI1
 70
     0
  9
$USERI2
 70
     0
  9
$USERI3
 70
     0
  9
$USERI4
 70
     0
  9
$USERI5
 70
     0
  9
$USERR1
 40
0.0
  9
$USERR2
 40
0.0
  9
$USERR3
 40
0.0
  9
$USERR4
 40
0.0
  9
$USERR5
 40
0.0
  9
$WORLDVIEW
 70
     1
  9
$SHADEDGE
 70
     3
  9
$SHADEDIF
 70
    70
  9
$TILEMODE
 70
     1
  9
$MAXACTVP
 70
    64
  9
$PINSBASE
 10
0.0
 20
0.0
 30
0.0
  9
$PLIMCHECK
 70
     0
  9
$PEXTMIN
 10
1.000000000000000E+20
 20
1.000000000000000E+20
 30
1.000000000000000E+20
  9
$PEXTMAX
 10
-1.000000000000000E+20
 20
-1.000000000000000E+20
 30
-1.000000000000000E+20
  9
$PLIMMIN
 10
0.0
 20
0.0
  9
$PLIMMAX
 10
420.0
 20
297.0
  9
$UNITMODE
 70
     0
  9
$VISRETAIN
 70
     1
  9
$PLINEGEN
 70
     0
  9
$PSLTSCALE
 70
     1
  9
$TREEDEPTH
 70
  3020
  9
$CMLSTYLE
  2
Standard
  9
$CMLJUST
 70
     0
  9
$CMLSCALE
 40
20.0
  9
$PROXYGRAPHICS
 70
     1
  9
$MEASUREMENT
 70
     1
  9
$CELWEIGHT
370
    -1
  9
$ENDCAPS
280
     0
  9
$JOINSTYLE
280
     0
  9
$LWDISPLAY
290
     0
  9
$INSUNITS
 70
     4
  9
$HYPERLINKBASE
  1

  9
$STYLESHEET
  1

  9
$XEDIT
290
     1
  9
$CEPSNTYPE
380
     0
  9
$PSTYLEMODE
290
     1
  9
$FINGERPRINTGUID
  2

  9
$VERSIONGUID
  2

  9
$EXTNAMES
290
     1
  9
$PSVPSCALE
 40
0.0
  9
$OLESTARTUP
290
     0
  9
$SORTENTS
280
   127
  9
$INDEXCTL
280
     0
  9
$HIDETEXT
280
     1
  9
$XCLIPFRAME
280
     2
  9
$HALOGAP
280
     0
  9
$OBSCOLOR
 70
   257
  9
$OBSLTYPE
280
     0
  9
$INTERSECTIONDISPLAY
280
     0
  9
$INTERSECTIONCOLOR
 70
   257
  9
$DIMASSOC
280
     2
  9
$PROJECTNAME
  1

  9
$CAMERADISPLAY
290
     0
  9
$LENSLENGTH
 40
50.0
  9
$CAMERAHEIGHT
 40
0.0
  9
$STEPSPERSEC
 40
2.0
  9
$STEPSIZE
 40
6.0
  9
$3DDWFPREC
 40
2.0
  9
$PSOLWIDTH
 40
5.0
  9
$PSOLHEIGHT
 40
80.0
  9
$LOFTANG1
 40
1.570796326794896
  9
$LOFTANG2
 40
1.570796326794896
  9
$LOFTMAG1
 40
0.0
  9
$LOFTMAG2
 40
0.0
  9
$LOFTPARAM
 70
     7
  9
$LOFTNORMALS
280
     1
  9
$LATITUDE
 40
37.795
  9
$LONGITUDE
 40
-122.394
  9
$NORTHDIRECTION
 40
0.0
  9
$TIMEZONE
 70
 -8000
  9
$LIGHTGLYPHDISPLAY
280
     1
  9
$TILEMODELIGHTSYNCH
280
     1
  9
$CMATERIAL
347
EC
  9
$SOLIDHIST
280
     1
  9
$SHOWHIST
280
     1
  9
$DWFFRAME
280
     2
  9
$DGNFRAME
280
     0
  9
$REALWORLDSCALE
290
     1
  9
$INTERFERECOLOR
 62
     1
  9
$INTERFEREOBJVS
345
F9
  9
$INTERFEREVPVS
346
F6
  9
$CSHADOW
280
     0
  9
$SHADOWPLANELOCATION
 40
0.0
  0
ENDSEC
  0
SECTION
  2
CLASSES
  0
CLASS
  1
ACDBDICTIONARYWDFLT
  2
AcDbDictionaryWithDefault
  3
ObjectDBX Classes
 90
        0
 91
        1
280
     0
281
     0
  0
CLASS
  1
ACDBPLACEHOLDER
  2
AcDbPlaceHolder
  3
ObjectDBX Classes
 90
        0
 91
        1
280
     0
281
     0
  0
CLASS
  1
LAYOUT
  2
AcDbLayout
  3
ObjectDBX Classes
 90
        0
 91
        2
280
     0
281
     0
  0
CLASS
  1
DICTIONARYVAR
  2
AcDbDictionaryVar
  3
ObjectDBX Classes
 90
        0
 91
        7
280
     0
281
     0
  0
CLASS
  1
TABLESTYLE
  2
AcDbTableStyle
  3
ObjectDBX Classes
 90
     4095
 91
        1
280
     0
281
     0
  0
CLASS
  1
MATERIAL
  2
AcDbMaterial
  3
ObjectDBX Classes
 90
     1153
 91
        3
280
     0
281
     0
  0
CLASS
  1
VISUALSTYLE
  2
AcDbVisualStyle
  3
ObjectDBX Classes
 90
     4095
 91
       16
280
     0
281
     0
  0
CLASS
  1
SCALE
  2
AcDbScale
  3
ObjectDBX Classes
 90
     1153
 91
       17
280
     0
281
     0
  0
CLASS
  1
MLEADERSTYLE
  2
AcDbMLeaderStyle
  3
ACDB_MLEADERSTYLE_CLASS
 90
     4095
 91
        1
280
     0
281
     0
  0
CLASS
  1
CELLSTYLEMAP
  2
AcDbCellStyleMap
  3
ObjectDBX Classes
 90
     1152
 91
        2
280
     0
281
     0
  0
CLASS
  1
EXACXREFPANELOBJECT
  2
ExAcXREFPanelObject
  3
EXAC_ESW
 90
    33793
 91
        0
280
     0
281
     0
  0
CLASS
  1
NPOCOLLECTION
  2
AcDbImpNonPersistentObjectsCollection
  3
ObjectDBX Classes
 90
     1153
 91
        0
280
     0
281
     0
  0
CLASS
  1
LAYER_INDEX
  2
AcDbLayerIndex
  3
ObjectDBX Classes
 90
        0
 91
        0
280
     0
281
     0
  0
CLASS
  1
SPATIAL_INDEX
  2
AcDbSpatialIndex
  3
ObjectDBX Classes
 90
        0
 91
        0
280
     0
281
     0
  0
CLASS
  1
IDBUFFER
  2
AcDbIdBuffer
  3
ObjectDBX Classes
 90
        0
 91
        0
280
     0
281
     0
  0
CLASS
  1
RASTERVARIABLES
  2
AcDbRasterVariables
  3
ISM
 90
        0
 91
        2
280
     0
281
     0
  0
CLASS
  1
IMAGEDEF
  2
AcDbRasterImageDef
  3
ISM
 90
        0
 91
        5
280
     0
281
     0
  0
CLASS
  1
IMAGEDEF_REACTOR
  2
AcDbRasterImageDefReactor
  3
ISM
 90
        1
 91
        5
280
     0
281
     0
  0
CLASS
  1
IMAGE
  2
AcDbRasterImage
  3
ISM
 90
     2175
 91
        5
280
     0
281
     1
  0
CLASS
  1
LWPOLYLINE
  2
AcDbPolyline
  3
ObjectDBX Classes
 90
        0
 91
        0
280
     0
281
     1
  0
CLASS
  1
OLE2FRAME
  2
AcDbOle2Frame
  3
ObjectDBX Classes
 90
        0
 91
        0
280
     0
281
     1
  0
CLASS
  1
HATCH
  2
AcDbHatch
  3
ObjectDBX Classes
 90
        0
 91
        0
280
     0
281
     1
  0
CLASS
  1
XRECORD
  2
AcDbXrecord
  3
ObjectDBX Classes
 90
        0
 91
        9
280
     0
281
     0
  0
CLASS
  1
SORTENTSTABLE
  2
AcDbSortentsTable
  3
ObjectDBX Classes
 90
        0
 91
        0
280
     0
281
     0
  0
CLASS
  1
OBJECT_PTR
  2
CAseDLPNTableRecord
  3
"ASE-LPNTableRecord"
 90
    32769
 91
        0
280
     0
281
     0
  0
CLASS
  1
PLOTSETTINGS
  2
AcDbPlotSettings
  3
ObjectDBX Classes
 90
        0
 91
        0
280
     0
281
     0
  0
CLASS
  1
VBA_PROJECT
  2
AcDbVbaProject
  3
acad
 90
        0
 91
        0
280
     0
281
     0
  0
CLASS
  1
WIPEOUT
  2
AcDbWipeout
  3
WipeOut|AutoCAD Express Tool|expresstools@autodesk.com
 90
    32895
 91
        0
280
     0
281
     1
  0
CLASS
  1
WIPEOUTVARIABLES
  2
AcDbWipeoutVariables
  3
WipeOut|AutoCAD Express Tool|expresstools@autodesk.com
 90
    32768
 91
        0
280
     0
281
     0
  0
CLASS
  1
RTEXT
  2
RText
  3
RText|AutoCAD Express Tool|expresstools@autodesk.com
 90
    32768
 91
        0
280
     0
281
     1
  0
CLASS
  1
ARCALIGNEDTEXT
  2
AcDbArcAlignedText
  3
ATEXT|AutoCAD Express Tool|expresstools@autodesk.com
 90
    32768
 91
        0
280
     0
281
     1
  0
ENDSEC
  0
SECTION
  2
TABLES
  0
TABLE
  2
VPORT
  5
946
100
AcDbSymbolTable
 70
     1
  0
VPORT
  5
947
100
AcDbSymbolTableRecord
100
AcDbViewportTableRecord
  2
*ACTIVE
 70
     0
 10
0.000000
 20
0.000000
 11
1.000000
 21
1.000000
 12
50.000000
 22
50.000000
 13
0.000000
 23
0.000000
 14
1.000000
 24
1.000000
 15
10.000000
 25
10.000000
 16
0.000000
 26
0.000000
 36
1.000000
 17
0.000000
 27
0.000000
 37
0.000000
 40
100.000000
 41
1.387409
 42
50.000000
 43
0.000000
 44
0.000000
 50
0.000000
 51
0.000000
 71
     0
 72
   100
 73
     1
 74
     1
 75
     0
 76
     0
 77
     0
 78
     0
  0
ENDTAB
  0
TABLE
  2
LTYPE
  5
948
330
0
100
AcDbSymbolTable
 70
     9
  0
LTYPE
  5
949
330
948
100
AcDbSymbolTableRecord
100
AcDbLinetypeTableRecord
  2
ByBlock
 70
     0
  3

 72
    65
 73
     0
 40
0.000000
  0
LTYPE
  5
94A
330
948
100
AcDbSymbolTableRecord
100
AcDbLinetypeTableRecord
  2
ByLayer
 70
     0
  3

 72
    65
 73
     0
 40
0.000000
  0
LTYPE
  5
94B
330
948
100
AcDbSymbolTableRecord
100
AcDbLinetypeTableRecord
  2
CONTINUOUS
 70
     0
  3
Solid line
 72
    65
 73
     0
 40
0.000000
  0
LTYPE
  5
94C
330
948
100
AcDbSymbolTableRecord
100
AcDbLinetypeTableRecord
  2
HIDDEN
 70
     0
  3
_ _ _ _ _ _ _ _ _ _ _ _ _ _ _ _ _ _ _ _ _ _ _
 72
    65
 73
     2
 40
0.375000
 49
0.250000
 74
     0
 49
-0.125000
 74
     0
  0
LTYPE
  5
94D
330
948
100
AcDbSymbolTableRecord
100
AcDbLinetypeTableRecord
  2
DOT
 70
     0
  3
...............................................
 72
    65
 73
     2
 40
0.250000
 49
0.000000
 74
     0
 49
-0.250000
 74
     0
  0
LTYPE
  5
94E
330
948
100
AcDbSymbolTableRecord
100
AcDbLinetypeTableRecord
  2
DASHED
 70
     0
  3
__ __ __ __ __ __ __ __ __ __ __ __ __ __ __ 
 72
    65
 73
     2
 40
0.750000
 49
0.500000
 74
     0
 49
-0.250000
 74
     0
  0
LTYPE
  5
94F
330
948
100
AcDbSymbolTableRecord
100
AcDbLinetypeTableRecord
  2
DIVIDE
 70
     0
  3
__ . . __ . . __ . . __ . . __ . . __ . . __
 72
    65
 73
     6
 40
1.250000
 49
0.500000
 74
     0
 49
-0.250000
 74
     0
 49
0.000000
 74
     0
 49
-0.250000
 74
     0
 49
0.000000
 74
     0
 49
-0.250000
 74
     0
  0
LTYPE
  5
950
330
948
100
AcDbSymbolTableRecord
100
AcDbLinetypeTableRecord
  2
DASHDOT
 70
     0
  3
__ . __ . __ . __ . __ . __ . __ . __ . __ . __
 72
    65
 73
     4
 40
1.000000
 49
0.500000
 74
     0
 49
-0.250000
 74
     0
 49
0.000000
 74
     0
 49
-0.250000
 74
     0
  0
LTYPE
  5
951
330
948
100
AcDbSymbolTableRecord
100
AcDbLinetypeTableRecord
  2
BORDER
 70
     0
  3
__ __ . __ __ . __ __ . __ __ . __ __ . __ __
 72
    65
 73
     6
 40
1.750000
 49
0.500000
 74
     0
 49
-0.250000
 74
     0
 49
0.500000
 74
     0
 49
-0.250000
 74
     0
 49
0.000000
 74
     0
 49
-0.250000
 74
     0
  0
LTYPE
  5
952
330
948
100
AcDbSymbolTableRecord
100
AcDbLinetypeTableRecord
  2
CENTER
 70
     0
  3
____ _ ____ _ ____ _ ____ _ ____ _ ____ _ ____
 72
    65
 73
     4
 40
2.000000
 49
1.250000
 74
     0
 49
-0.250000
 74
     0
 49
0.250000
 74
     0
 49
-0.250000
 74
     0
  0
LTYPE
  5
953
330
948
100
AcDbSymbolTableRecord
100
AcDbLinetypeTableRecord
  2
PHANTOM
 70
     0
  3
_____ _ _ _____ _ _ _____ _ _ _____ _ _ ____
 72
    65
 73
     6
 40
2.500000
 49
1.250000
 74
     0
 49
-0.250000
 74
     0
 49
0.250000
 74
     0
 49
-0.250000
 74
     0
 49
0.250000
 74
     0
 49
-0.250000
 74
     0
  0
ENDTAB
  0
TABLE
  2
LAYER
  5
954
100
AcDbSymbolTable
 70
     4
  0
LAYER
  5
955
100
AcDbSymbolTableRecord
100
AcDbLayerTableRecord
  2
0
 70
     0
 62
     7
  6
CONTINUOUS
370
    -3
390
     0
  0
LAYER
  5
956
100
AcDbSymbolTableRecord
100
AcDbLayerTableRecord
  2
SCHRAFF
 70
     0
 62
     7
  6
CONTINUOUS
370
    -3
390
     0
  0
LAYER
  5
957
100
AcDbSymbolTableRecord
100
AcDbLayerTableRecord
  2
Detail
 70
     0
 62
     7
  6
CONTINUOUS
370
    -3
390
     0
  0
LAYER
  5
958
100
AcDbSymbolTableRecord
100
AcDbLayerTableRecord
  2
Stahlbau
 70
     0
 62
     7
  6
CONTINUOUS
370
    -3
390
     0
  0
ENDTAB
  0
TABLE
  2
STYLE
  5
959
100
AcDbSymbolTable
 70
     2
  0
STYLE
  5
201
100
AcDbSymbolTableRecord
100
AcDbTextStyleTableRecord
  2
STANDARD
 70
     0
 40
0.000000
 41
1.000000
 50
0.000000
 71
     0
 42
3.500000
  3
txt
  4

  0
STYLE
  5
27B
100
AcDbSymbolTableRecord
100
AcDbTextStyleTableRecord
  2
Arial
 70
     0
 40
0.000000
 41
1.000000
 50
0.000000
 71
     0
 42
3.500000
  3
Arial.ttf
  4

1001
ACAD
1000
Arial
1071
     0
  0
ENDTAB
  0
TABLE
  2
DIMSTYLE
  5
95A
100
AcDbSymbolTable
 70
     0
100
AcDbDimStyleTable
  0
ENDTAB
  0
TABLE
  2
VIEW
  5
95B
100
AcDbSymbolTable
 70
     0
  0
ENDTAB
  0
TABLE
  2
UCS
  5
95C
100
AcDbSymbolTable
 70
     0
  0
ENDTAB
  0
TABLE
  2
APPID
  5
95D
100
AcDbSymbolTable
 70
     1
  0
APPID
  5
95E
100
AcDbSymbolTableRecord
100
AcDbRegAppTableRecord
  2
ACAD
 70
     0
  0
ENDTAB
  0
TABLE
  2
BLOCK_RECORD
  5
95F
100
AcDbSymbolTable
 70
    87
  0
BLOCK_RECORD
  5
202
102
{ACAD_XDICTIONARY
360
203
102
}
100
AcDbSymbolTableRecord
100
AcDbBlockTableRecord
  2
*Model_Space
  0
BLOCK_RECORD
  5
960
100
AcDbSymbolTableRecord
100
AcDbBlockTableRecord
  2
*Paper_Space
  0
BLOCK_RECORD
  5
961
100
AcDbSymbolTableRecord
100
AcDbBlockTableRecord
  2
*Paper_Space0
  0
BLOCK_RECORD
  5
962
100
AcDbSymbolTableRecord
100
AcDbBlockTableRecord
  2
B
  0
BLOCK_RECORD
  5
963
100
AcDbSymbolTableRecord
100
AcDbBlockTableRecord
  2
B-2
  0
BLOCK_RECORD
  5
964
100
AcDbSymbolTableRecord
100
AcDbBlockTableRecord
  2
B-3
  0
BLOCK_RECORD
  5
965
100
AcDbSymbolTableRecord
100
AcDbBlockTableRecord
  2
B-4
  0
BLOCK_RECORD
  5
966
100
AcDbSymbolTableRecord
100
AcDbBlockTableRecord
  2
B-5
  0
BLOCK_RECORD
  5
967
100
AcDbSymbolTableRecord
100
AcDbBlockTableRecord
  2
B-6
  0
BLOCK_RECORD
  5
968
100
AcDbSymbolTableRecord
100
AcDbBlockTableRecord
  2
B-7
  0
BLOCK_RECORD
  5
969
100
AcDbSymbolTableRecord
100
AcDbBlockTableRecord
  2
B-8
  0
BLOCK_RECORD
  5
96A
100
AcDbSymbolTableRecord
100
AcDbBlockTableRecord
  2
B-9
  0
BLOCK_RECORD
  5
96B
100
AcDbSymbolTableRecord
100
AcDbBlockTableRecord
  2
B-10
  0
BLOCK_RECORD
  5
96C
100
AcDbSymbolTableRecord
100
AcDbBlockTableRecord
  2
B-11
  0
BLOCK_RECORD
  5
96D
100
AcDbSymbolTableRecord
100
AcDbBlockTableRecord
  2
B-12
  0
BLOCK_RECORD
  5
96E
100
AcDbSymbolTableRecord
100
AcDbBlockTableRecord
  2
B-13
  0
BLOCK_RECORD
  5
96F
100
AcDbSymbolTableRecord
100
AcDbBlockTableRecord
  2
B-14
  0
BLOCK_RECORD
  5
970
100
AcDbSymbolTableRecord
100
AcDbBlockTableRecord
  2
B-15
  0
BLOCK_RECORD
  5
971
100
AcDbSymbolTableRecord
100
AcDbBlockTableRecord
  2
B-16
  0
BLOCK_RECORD
  5
972
100
AcDbSymbolTableRecord
100
AcDbBlockTableRecord
  2
B-17
  0
BLOCK_RECORD
  5
973
100
AcDbSymbolTableRecord
100
AcDbBlockTableRecord
  2
B-18
  0
BLOCK_RECORD
  5
974
100
AcDbSymbolTableRecord
100
AcDbBlockTableRecord
  2
B-19
  0
BLOCK_RECORD
  5
975
100
AcDbSymbolTableRecord
100
AcDbBlockTableRecord
  2
B-20
  0
BLOCK_RECORD
  5
976
100
AcDbSymbolTableRecord
100
AcDbBlockTableRecord
  2
B-21
  0
BLOCK_RECORD
  5
977
100
AcDbSymbolTableRecord
100
AcDbBlockTableRecord
  2
B-22
  0
BLOCK_RECORD
  5
978
100
AcDbSymbolTableRecord
100
AcDbBlockTableRecord
  2
B-23
  0
BLOCK_RECORD
  5
979
100
AcDbSymbolTableRecord
100
AcDbBlockTableRecord
  2
B-24
  0
BLOCK_RECORD
  5
97A
100
AcDbSymbolTableRecord
100
AcDbBlockTableRecord
  2
B-25
  0
BLOCK_RECORD
  5
97B
100
AcDbSymbolTableRecord
100
AcDbBlockTableRecord
  2
B-26
  0
BLOCK_RECORD
  5
97C
100
AcDbSymbolTableRecord
100
AcDbBlockTableRecord
  2
B-27
  0
BLOCK_RECORD
  5
97D
100
AcDbSymbolTableRecord
100
AcDbBlockTableRecord
  2
B-28
  0
BLOCK_RECORD
  5
97E
100
AcDbSymbolTableRecord
100
AcDbBlockTableRecord
  2
B-29
  0
BLOCK_RECORD
  5
97F
100
AcDbSymbolTableRecord
100
AcDbBlockTableRecord
  2
B-30
  0
BLOCK_RECORD
  5
980
100
AcDbSymbolTableRecord
100
AcDbBlockTableRecord
  2
B-31
  0
BLOCK_RECORD
  5
981
100
AcDbSymbolTableRecord
100
AcDbBlockTableRecord
  2
B-32
  0
BLOCK_RECORD
  5
982
100
AcDbSymbolTableRecord
100
AcDbBlockTableRecord
  2
B-33
  0
BLOCK_RECORD
  5
983
100
AcDbSymbolTableRecord
100
AcDbBlockTableRecord
  2
B-34
  0
BLOCK_RECORD
  5
984
100
AcDbSymbolTableRecord
100
AcDbBlockTableRecord
  2
B-35
  0
BLOCK_RECORD
  5
985
100
AcDbSymbolTableRecord
100
AcDbBlockTableRecord
  2
B-36
  0
BLOCK_RECORD
  5
986
100
AcDbSymbolTableRecord
100
AcDbBlockTableRecord
  2
B-37
  0
BLOCK_RECORD
  5
987
100
AcDbSymbolTableRecord
100
AcDbBlockTableRecord
  2
B-38
  0
BLOCK_RECORD
  5
988
100
AcDbSymbolTableRecord
100
AcDbBlockTableRecord
  2
glasleiste
  0
BLOCK_RECORD
  5
989
100
AcDbSymbolTableRecord
100
AcDbBlockTableRecord
  2
rahmen
  0
BLOCK_RECORD
  5
98A
100
AcDbSymbolTableRecord
100
AcDbBlockTableRecord
  2
fluegel
  0
BLOCK_RECORD
  5
98B
100
AcDbSymbolTableRecord
100
AcDbBlockTableRecord
  2
w-schenkel
  0
BLOCK_RECORD
  5
98C
100
AcDbSymbolTableRecord
100
AcDbBlockTableRecord
  2
glas
  0
BLOCK_RECORD
  5
98D
100
AcDbSymbolTableRecord
100
AcDbBlockTableRecord
  2
B-39
  0
BLOCK_RECORD
  5
98E
100
AcDbSymbolTableRecord
100
AcDbBlockTableRecord
  2
B-40
  0
BLOCK_RECORD
  5
98F
100
AcDbSymbolTableRecord
100
AcDbBlockTableRecord
  2
B-41
  0
BLOCK_RECORD
  5
990
100
AcDbSymbolTableRecord
100
AcDbBlockTableRecord
  2
B-42
  0
BLOCK_RECORD
  5
991
100
AcDbSymbolTableRecord
100
AcDbBlockTableRecord
  2
B-43
  0
BLOCK_RECORD
  5
992
100
AcDbSymbolTableRecord
100
AcDbBlockTableRecord
  2
B-44
  0
BLOCK_RECORD
  5
993
100
AcDbSymbolTableRecord
100
AcDbBlockTableRecord
  2
B-45
  0
BLOCK_RECORD
  5
994
100
AcDbSymbolTableRecord
100
AcDbBlockTableRecord
  2
B-46
  0
BLOCK_RECORD
  5
995
100
AcDbSymbolTableRecord
100
AcDbBlockTableRecord
  2
B-47
  0
BLOCK_RECORD
  5
996
100
AcDbSymbolTableRecord
100
AcDbBlockTableRecord
  2
B-48
  0
BLOCK_RECORD
  5
997
100
AcDbSymbolTableRecord
100
AcDbBlockTableRecord
  2
B-49
  0
BLOCK_RECORD
  5
998
100
AcDbSymbolTableRecord
100
AcDbBlockTableRecord
  2
B-50
  0
BLOCK_RECORD
  5
999
100
AcDbSymbolTableRecord
100
AcDbBlockTableRecord
  2
B-51
  0
BLOCK_RECORD
  5
99A
100
AcDbSymbolTableRecord
100
AcDbBlockTableRecord
  2
B-52
  0
BLOCK_RECORD
  5
99B
100
AcDbSymbolTableRecord
100
AcDbBlockTableRecord
  2
B-53
  0
BLOCK_RECORD
  5
99C
100
AcDbSymbolTableRecord
100
AcDbBlockTableRecord
  2
B-54
  0
BLOCK_RECORD
  5
99D
100
AcDbSymbolTableRecord
100
AcDbBlockTableRecord
  2
B-55
  0
BLOCK_RECORD
  5
99E
100
AcDbSymbolTableRecord
100
AcDbBlockTableRecord
  2
B-56
  0
BLOCK_RECORD
  5
99F
100
AcDbSymbolTableRecord
100
AcDbBlockTableRecord
  2
B-57
  0
BLOCK_RECORD
  5
9A0
100
AcDbSymbolTableRecord
100
AcDbBlockTableRecord
  2
B-58
  0
BLOCK_RECORD
  5
9A1
100
AcDbSymbolTableRecord
100
AcDbBlockTableRecord
  2
B-59
  0
BLOCK_RECORD
  5
9A2
100
AcDbSymbolTableRecord
100
AcDbBlockTableRecord
  2
B-60
  0
BLOCK_RECORD
  5
9A3
100
AcDbSymbolTableRecord
100
AcDbBlockTableRecord
  2
B-61
  0
BLOCK_RECORD
  5
9A4
100
AcDbSymbolTableRecord
100
AcDbBlockTableRecord
  2
B-62
  0
BLOCK_RECORD
  5
9A5
100
AcDbSymbolTableRecord
100
AcDbBlockTableRecord
  2
B-63
  0
BLOCK_RECORD
  5
9A6
100
AcDbSymbolTableRecord
100
AcDbBlockTableRecord
  2
B-65
  0
BLOCK_RECORD
  5
9A7
100
AcDbSymbolTableRecord
100
AcDbBlockTableRecord
  2
B-66
  0
BLOCK_RECORD
  5
9A8
100
AcDbSymbolTableRecord
100
AcDbBlockTableRecord
  2
B-67
  0
BLOCK_RECORD
  5
9A9
100
AcDbSymbolTableRecord
100
AcDbBlockTableRecord
  2
B-68
  0
BLOCK_RECORD
  5
9AA
100
AcDbSymbolTableRecord
100
AcDbBlockTableRecord
  2
B-69
  0
BLOCK_RECORD
  5
9AB
100
AcDbSymbolTableRecord
100
AcDbBlockTableRecord
  2
B-70
  0
BLOCK_RECORD
  5
9AC
100
AcDbSymbolTableRecord
100
AcDbBlockTableRecord
  2
B-71
  0
BLOCK_RECORD
  5
9AD
100
AcDbSymbolTableRecord
100
AcDbBlockTableRecord
  2
B-72
  0
BLOCK_RECORD
  5
9AE
100
AcDbSymbolTableRecord
100
AcDbBlockTableRecord
  2
B-73
  0
BLOCK_RECORD
  5
9AF
100
AcDbSymbolTableRecord
100
AcDbBlockTableRecord
  2
B-74
  0
BLOCK_RECORD
  5
9B0
100
AcDbSymbolTableRecord
100
AcDbBlockTableRecord
  2
B-75
  0
BLOCK_RECORD
  5
9B1
100
AcDbSymbolTableRecord
100
AcDbBlockTableRecord
  2
B-76
  0
BLOCK_RECORD
  5
9B2
100
AcDbSymbolTableRecord
100
AcDbBlockTableRecord
  2
B-77
  0
BLOCK_RECORD
  5
9B3
100
AcDbSymbolTableRecord
100
AcDbBlockTableRecord
  2
B-79
  0
BLOCK_RECORD
  5
9B4
100
AcDbSymbolTableRecord
100
AcDbBlockTableRecord
  2
B-80
  0
BLOCK_RECORD
  5
9B5
100
AcDbSymbolTableRecord
100
AcDbBlockTableRecord
  2
B-81
  0
ENDTAB
  0
ENDSEC
  0
SECTION
  2
BLOCKS
  0
BLOCK
  5
204
100
AcDbEntity
  8
0
100
AcDbBlockBegin
  2
*Model_Space
 70
     0
 10
0.000000
 20
0.000000
 30
0.000000
  3
*Model_Space
  1

  0
ENDBLK
  5
205
100
AcDbEntity
  8
0
100
AcDbBlockEnd
  0
BLOCK
  5
206
100
AcDbEntity
 67
     1
  8
0
100
AcDbBlockBegin
  2
*Paper_Space
 70
     0
 10
0.000000
 20
0.000000
 30
0.000000
  3
*Paper_Space
  1

  0
ENDBLK
  5
207
100
AcDbEntity
 67
     1
  8
0
100
AcDbBlockEnd
  0
BLOCK
  5
208
100
AcDbEntity
 67
     1
  8
0
100
AcDbBlockBegin
  2
*Paper_Space0
 70
     0
 10
0.000000
 20
0.000000
 30
0.000000
  3
*Paper_Space0
  1

  0
ENDBLK
  5
209
100
AcDbEntity
 67
     1
  8
0
100
AcDbBlockEnd
  0
BLOCK
  5
20A
100
AcDbEntity
  8
SCHRAFF
100
AcDbBlockBegin
  2
B
 70
    66
 10
0.000000
 20
0.000000
 30
0.000000
  0
HATCH
  5
20B
100
AcDbEntity
  8
SCHRAFF
 62
     8
440
     0
100
AcDbHatch
 10
0.000000
 20
0.000000
 30
0.000000
210
0.000000
220
0.000000
230
1.000000
  2
SOLID
 70
     1
 71
     1
 91
     1
 92
    18
 72
     1
 73
     0
 93
    10
 10
-132.500012
 20
185.522807
 42
0.000000
 10
-132.500012
 20
173.522809
 42
0.000000
 10
-130.500014
 20
173.522809
 42
0.000000
 10
-130.500014
 20
183.522809
 42
0.000000
 10
-127.500014
 20
183.522809
 42
0.000000
 10
-127.500014
 20
178.522809
 42
0.000000
 10
-126.500014
 20
178.522809
 42
0.000000
 10
-125.500014
 20
184.183061
 42
0.000000
 10
-130.500016
 20
185.522807
 42
0.000000
 10
-132.500012
 20
185.522807
 42
0.000000
 97
     0
 75
     0
 76
     1
 98
     0
  0
ENDBLK
  5
20C
100
AcDbEntity
  8
0
100
AcDbBlockEnd
  0
BLOCK
  5
20D
100
AcDbEntity
  8
SCHRAFF
100
AcDbBlockBegin
  2
B-2
 70
    66
 10
0.000000
 20
0.000000
 30
0.000000
  0
IMAGE
  5
20E
100
AcDbEntity
  8
SCHRAFF
100
AcDbRasterImage
 10
140.969928
 20
-349.249941
 30
0.000000
 11
0.204938
 21
-0.000000
 31
0.000000
 12
-0.000000
 22
0.204938
 32
-0.000000
 13
395.000000
 23
405.000000
340
20F
 70
     7
280
     0
281
    50
282
    50
283
     0
360
210
 71
     1
 91
     2
 14
-0.500000
 24
-0.500000
 14
394.500000
 24
404.500000
  0
ENDBLK
  5
211
100
AcDbEntity
  8
0
100
AcDbBlockEnd
  0
BLOCK
  5
212
100
AcDbEntity
  8
SCHRAFF
100
AcDbBlockBegin
  2
B-3
 70
    66
 10
0.000000
 20
0.000000
 30
0.000000
  0
HATCH
  5
213
100
AcDbEntity
  8
SCHRAFF
 62
    21
440
     0
100
AcDbHatch
 10
0.000000
 20
0.000000
 30
0.000000
210
0.000000
220
0.000000
230
1.000000
  2
SOLID
 70
     1
 71
     1
 91
     1
 92
    18
 72
     1
 73
     0
 93
   352
 10
22.158495
 20
-196.249941
 42
0.000000
 10
22.499982
 20
-195.566967
 42
0.000000
 10
22.499982
 20
-194.566967
 42
0.000000
 10
22.999982
 20
-193.566967
 42
0.000000
 10
22.499982
 20
-192.566967
 42
0.000000
 10
22.499982
 20
-191.566967
 42
0.000000
 10
21.999982
 20
-190.566967
 42
0.000000
 10
22.499982
 20
-189.566967
 42
0.000000
 10
22.499982
 20
-188.566967
 42
0.000000
 10
22.999982
 20
-187.566967
 42
0.000000
 10
22.499982
 20
-186.566967
 42
0.000000
 10
22.499982
 20
-185.566967
 42
0.000000
 10
21.999982
 20
-184.566967
 42
0.000000
 10
22.499982
 20
-183.566967
 42
0.000000
 10
22.499982
 20
-182.566967
 42
0.000000
 10
22.999982
 20
-181.566967
 42
0.000000
 10
22.499982
 20
-180.566967
 42
0.000000
 10
22.499982
 20
-179.566967
 42
0.000000
 10
21.999982
 20
-178.566967
 42
0.000000
 10
22.499982
 20
-177.566967
 42
0.000000
 10
22.499982
 20
-176.566967
 42
0.000000
 10
22.999982
 20
-175.566967
 42
0.000000
 10
22.499982
 20
-174.566967
 42
0.000000
 10
22.499982
 20
-173.566967
 42
0.000000
 10
21.999982
 20
-172.566967
 42
0.000000
 10
22.499982
 20
-171.566967
 42
0.000000
 10
22.499982
 20
-170.566967
 42
0.000000
 10
22.999982
 20
-169.566967
 42
0.000000
 10
22.499982
 20
-168.566967
 42
0.000000
 10
22.499982
 20
-167.566967
 42
0.000000
 10
21.999982
 20
-166.566967
 42
0.000000
 10
22.499982
 20
-165.566967
 42
0.000000
 10
22.499982
 20
-164.566967
 42
0.000000
 10
22.999982
 20
-163.566967
 42
0.000000
 10
22.499982
 20
-162.566967
 42
0.000000
 10
22.499982
 20
-161.566967
 42
0.000000
 10
21.999982
 20
-160.566967
 42
0.000000
 10
22.499982
 20
-159.566967
 42
0.000000
 10
22.499982
 20
-158.566967
 42
0.000000
 10
22.999982
 20
-157.566967
 42
0.000000
 10
22.499982
 20
-156.566967
 42
0.000000
 10
22.499982
 20
-155.566967
 42
0.000000
 10
21.999982
 20
-154.566967
 42
0.000000
 10
22.499982
 20
-153.566967
 42
0.000000
 10
22.499982
 20
-152.566967
 42
0.000000
 10
22.999982
 20
-151.566967
 42
0.000000
 10
22.499982
 20
-150.566967
 42
0.000000
 10
22.499982
 20
-149.566967
 42
0.000000
 10
21.999982
 20
-148.566967
 42
0.000000
 10
22.499982
 20
-147.566967
 42
0.000000
 10
22.499982
 20
-146.574634
 42
0.000000
 10
22.999982
 20
-145.566967
 42
0.000000
 10
22.499982
 20
-144.566967
 42
0.000000
 10
22.499982
 20
-143.566967
 42
0.000000
 10
21.999982
 20
-142.566967
 42
0.000000
 10
22.499982
 20
-141.566967
 42
0.000000
 10
22.499982
 20
-140.566967
 42
0.000000
 10
22.999982
 20
-139.566967
 42
0.000000
 10
22.499982
 20
-138.566967
 42
0.000000
 10
22.499982
 20
-137.566967
 42
0.000000
 10
21.999982
 20
-136.566967
 42
0.000000
 10
22.499982
 20
-135.566967
 42
0.000000
 10
22.499982
 20
-134.566967
 42
0.000000
 10
22.999982
 20
-133.566967
 42
0.000000
 10
22.499982
 20
-132.566967
 42
0.000000
 10
22.499982
 20
-131.566967
 42
0.000000
 10
21.999982
 20
-130.566967
 42
0.000000
 10
22.499982
 20
-129.566967
 42
0.000000
 10
22.499982
 20
-128.566967
 42
0.000000
 10
22.999982
 20
-127.566967
 42
0.000000
 10
22.499982
 20
-126.566967
 42
0.000000
 10
22.499982
 20
-125.566967
 42
0.000000
 10
21.999982
 20
-124.566967
 42
0.000000
 10
22.499982
 20
-123.566967
 42
0.000000
 10
22.499982
 20
-122.566967
 42
0.000000
 10
22.999982
 20
-121.566967
 42
0.000000
 10
22.499982
 20
-120.566967
 42
0.000000
 10
22.499982
 20
-119.566967
 42
0.000000
 10
21.999982
 20
-118.566967
 42
0.000000
 10
22.499982
 20
-117.566967
 42
0.000000
 10
22.499982
 20
-116.566967
 42
0.000000
 10
22.999982
 20
-115.566967
 42
0.000000
 10
22.499982
 20
-114.566967
 42
0.000000
 10
22.499982
 20
-113.566967
 42
0.000000
 10
21.999982
 20
-112.566967
 42
0.000000
 10
22.499982
 20
-111.566967
 42
0.000000
 10
22.499982
 20
-110.566967
 42
0.000000
 10
22.999982
 20
-109.566967
 42
0.000000
 10
22.499982
 20
-108.566967
 42
0.000000
 10
22.499982
 20
-107.566967
 42
0.000000
 10
21.999982
 20
-106.566967
 42
0.000000
 10
22.499982
 20
-105.566967
 42
0.000000
 10
22.499982
 20
-104.566967
 42
0.000000
 10
22.999982
 20
-103.566967
 42
0.000000
 10
22.499982
 20
-102.566967
 42
0.000000
 10
22.499982
 20
-101.566967
 42
0.000000
 10
21.999982
 20
-100.566967
 42
0.000000
 10
22.499982
 20
-99.566967
 42
0.000000
 10
22.499982
 20
-98.566967
 42
0.000000
 10
22.999982
 20
-97.566967
 42
0.000000
 10
22.499982
 20
-96.566967
 42
0.000000
 10
22.499982
 20
-95.566967
 42
0.000000
 10
21.999982
 20
-94.566967
 42
0.000000
 10
22.499982
 20
-93.566967
 42
0.000000
 10
22.499982
 20
-92.566967
 42
0.000000
 10
22.999982
 20
-91.566967
 42
0.000000
 10
22.499982
 20
-90.566967
 42
0.000000
 10
22.499982
 20
-89.566967
 42
0.000000
 10
21.999982
 20
-88.566967
 42
0.000000
 10
22.499982
 20
-87.566967
 42
0.000000
 10
22.499982
 20
-86.566967
 42
0.000000
 10
22.999982
 20
-85.566967
 42
0.000000
 10
22.499982
 20
-84.566967
 42
0.000000
 10
22.499982
 20
-83.566967
 42
0.000000
 10
21.999982
 20
-82.566967
 42
0.000000
 10
22.499982
 20
-81.566967
 42
0.000000
 10
22.499982
 20
-80.566967
 42
0.000000
 10
22.999982
 20
-79.566967
 42
0.000000
 10
22.499982
 20
-78.566967
 42
0.000000
 10
22.499982
 20
-77.566967
 42
0.000000
 10
21.999982
 20
-76.566967
 42
0.000000
 10
22.499982
 20
-75.566967
 42
0.000000
 10
22.499982
 20
-74.566967
 42
0.000000
 10
22.999982
 20
-73.566967
 42
0.000000
 10
22.499982
 20
-72.566967
 42
0.000000
 10
22.499982
 20
-71.566967
 42
0.000000
 10
21.999982
 20
-70.566967
 42
0.000000
 10
22.499982
 20
-69.566967
 42
0.000000
 10
22.499982
 20
-68.566967
 42
0.000000
 10
22.999982
 20
-67.566967
 42
0.000000
 10
22.499982
 20
-66.566967
 42
0.000000
 10
22.499982
 20
-65.566967
 42
0.000000
 10
21.999982
 20
-64.566967
 42
0.000000
 10
22.499982
 20
-63.566967
 42
0.000000
 10
22.499982
 20
-62.566967
 42
0.000000
 10
22.999982
 20
-61.566967
 42
0.000000
 10
22.499982
 20
-60.566967
 42
0.000000
 10
22.499982
 20
-59.566967
 42
0.000000
 10
21.999982
 20
-58.566967
 42
0.000000
 10
22.499982
 20
-57.566967
 42
0.000000
 10
22.499982
 20
-56.566967
 42
0.000000
 10
22.999982
 20
-55.566967
 42
0.000000
 10
22.499982
 20
-54.566967
 42
0.000000
 10
22.499982
 20
-53.566967
 42
0.000000
 10
21.999982
 20
-52.566967
 42
0.000000
 10
22.499982
 20
-51.566967
 42
0.000000
 10
22.499982
 20
-50.566967
 42
0.000000
 10
22.999982
 20
-49.566967
 42
0.000000
 10
22.499982
 20
-48.566967
 42
0.000000
 10
22.499982
 20
-47.566967
 42
0.000000
 10
21.999982
 20
-46.566967
 42
0.000000
 10
22.499982
 20
-45.566967
 42
0.000000
 10
22.499982
 20
-44.566967
 42
0.000000
 10
22.999982
 20
-43.566967
 42
0.000000
 10
22.499982
 20
-42.566967
 42
0.000000
 10
22.499982
 20
-41.566967
 42
0.000000
 10
21.999982
 20
-40.566967
 42
0.000000
 10
22.499982
 20
-39.566967
 42
0.000000
 10
22.499982
 20
-38.566967
 42
0.000000
 10
22.999982
 20
-37.566967
 42
0.000000
 10
22.499982
 20
-36.566967
 42
0.000000
 10
22.499982
 20
-35.566967
 42
0.000000
 10
21.999982
 20
-34.566967
 42
0.000000
 10
22.499982
 20
-33.566967
 42
0.000000
 10
22.499982
 20
-32.566967
 42
0.000000
 10
22.999982
 20
-31.566967
 42
0.000000
 10
22.499982
 20
-30.566967
 42
0.000000
 10
22.499982
 20
-29.566967
 42
0.000000
 10
21.999982
 20
-28.566967
 42
0.000000
 10
22.499982
 20
-27.566967
 42
0.000000
 10
22.499982
 20
-26.566967
 42
0.000000
 10
22.999982
 20
-25.566967
 42
0.000000
 10
22.499982
 20
-24.566967
 42
0.000000
 10
22.499982
 20
-23.566967
 42
0.000000
 10
21.999982
 20
-22.566967
 42
0.000000
 10
22.499982
 20
-21.566967
 42
0.000000
 10
22.499982
 20
-20.566967
 42
0.000000
 10
22.999982
 20
-19.566967
 42
0.000000
 10
22.499982
 20
-18.566967
 42
0.000000
 10
22.499982
 20
-17.566967
 42
0.000000
 10
21.999982
 20
-16.566967
 42
0.000000
 10
22.499982
 20
-15.566967
 42
0.000000
 10
22.499982
 20
-14.566967
 42
0.000000
 10
22.999982
 20
-13.566967
 42
0.000000
 10
22.499982
 20
-12.566967
 42
0.000000
 10
22.499982
 20
-11.566967
 42
0.000000
 10
21.999982
 20
-10.566967
 42
0.000000
 10
22.499982
 20
-9.566967
 42
0.000000
 10
22.499982
 20
-8.574634
 42
0.000000
 10
22.999982
 20
-7.566967
 42
0.000000
 10
22.499982
 20
-6.566967
 42
0.000000
 10
22.499982
 20
-5.566967
 42
0.000000
 10
21.999982
 20
-4.566967
 42
0.000000
 10
22.499982
 20
-3.566967
 42
0.000000
 10
22.499982
 20
-2.566967
 42
0.000000
 10
22.999982
 20
-1.566967
 42
0.000000
 10
22.499982
 20
-0.566967
 42
0.000000
 10
22.499982
 20
0.433033
 42
0.000000
 10
21.999982
 20
1.433033
 42
0.000000
 10
22.499982
 20
2.433033
 42
0.000000
 10
22.499982
 20
3.433033
 42
0.000000
 10
22.999982
 20
4.433033
 42
0.000000
 10
22.499982
 20
5.433033
 42
0.000000
 10
22.499982
 20
6.433033
 42
0.000000
 10
21.999982
 20
7.433033
 42
0.000000
 10
22.499982
 20
8.433033
 42
0.000000
 10
22.499982
 20
9.433033
 42
0.000000
 10
22.999982
 20
10.433033
 42
0.000000
 10
22.499982
 20
11.433033
 42
0.000000
 10
22.499982
 20
12.433033
 42
0.000000
 10
21.999982
 20
13.433033
 42
0.000000
 10
22.499982
 20
14.433033
 42
0.000000
 10
22.499982
 20
15.433033
 42
0.000000
 10
22.999982
 20
16.433033
 42
0.000000
 10
22.499982
 20
17.433033
 42
0.000000
 10
22.499982
 20
18.433033
 42
0.000000
 10
21.999982
 20
19.433033
 42
0.000000
 10
22.499982
 20
20.433033
 42
0.000000
 10
22.499982
 20
21.433033
 42
0.000000
 10
22.999982
 20
22.433033
 42
0.000000
 10
22.504380
 20
23.424237
 42
0.000000
 10
22.499982
 20
24.433033
 42
0.000000
 10
21.999982
 20
25.433033
 42
0.000000
 10
22.499982
 20
26.433033
 42
0.000000
 10
22.499982
 20
27.433033
 42
0.000000
 10
22.999982
 20
28.433033
 42
0.000000
 10
22.499982
 20
29.433033
 42
0.000000
 10
22.499982
 20
30.433033
 42
0.000000
 10
21.999982
 20
31.433033
 42
0.000000
 10
22.499982
 20
32.433033
 42
0.000000
 10
22.499982
 20
33.433033
 42
0.000000
 10
22.999982
 20
34.433033
 42
0.000000
 10
22.499982
 20
35.433033
 42
0.000000
 10
22.499982
 20
36.433033
 42
0.000000
 10
21.999982
 20
37.433033
 42
0.000000
 10
22.499982
 20
38.433033
 42
0.000000
 10
22.499982
 20
39.433033
 42
0.000000
 10
22.999982
 20
40.433033
 42
0.000000
 10
22.499982
 20
41.433033
 42
0.000000
 10
22.499982
 20
42.433033
 42
0.000000
 10
21.999982
 20
43.433033
 42
0.000000
 10
22.499982
 20
44.433033
 42
0.000000
 10
22.499982
 20
45.433033
 42
0.000000
 10
22.999982
 20
46.433033
 42
0.000000
 10
22.499982
 20
47.433033
 42
0.000000
 10
22.499982
 20
48.433033
 42
0.000000
 10
21.999982
 20
49.433033
 42
0.000000
 10
22.499982
 20
50.433033
 42
0.000000
 10
22.499982
 20
51.433033
 42
0.000000
 10
22.999982
 20
52.433033
 42
0.000000
 10
22.499982
 20
53.433033
 42
0.000000
 10
22.499982
 20
54.433033
 42
0.000000
 10
21.999982
 20
55.433033
 42
0.000000
 10
22.499982
 20
56.433033
 42
0.000000
 10
22.499982
 20
57.433033
 42
0.000000
 10
22.999982
 20
58.433033
 42
0.000000
 10
22.499982
 20
59.433033
 42
0.000000
 10
22.499982
 20
60.433033
 42
0.000000
 10
21.999982
 20
61.433033
 42
0.000000
 10
22.499982
 20
62.433033
 42
0.000000
 10
22.499982
 20
63.433033
 42
0.000000
 10
22.999982
 20
64.433033
 42
0.000000
 10
22.499982
 20
65.433033
 42
0.000000
 10
22.499982
 20
66.433033
 42
0.000000
 10
21.999982
 20
67.433033
 42
0.000000
 10
22.499982
 20
68.433033
 42
0.000000
 10
22.499982
 20
69.433033
 42
0.000000
 10
22.999982
 20
70.433033
 42
0.000000
 10
22.499982
 20
71.433033
 42
0.000000
 10
22.499982
 20
72.433033
 42
0.000000
 10
21.999982
 20
73.433033
 42
0.000000
 10
22.499982
 20
74.433033
 42
0.000000
 10
22.499982
 20
75.433033
 42
0.000000
 10
22.999982
 20
76.433033
 42
0.000000
 10
22.499982
 20
77.433033
 42
0.000000
 10
22.499982
 20
78.433033
 42
0.000000
 10
21.999982
 20
79.433033
 42
0.000000
 10
22.499982
 20
80.433033
 42
0.000000
 10
22.499982
 20
81.433033
 42
0.000000
 10
22.999982
 20
82.433033
 42
0.000000
 10
22.499982
 20
83.433033
 42
0.000000
 10
22.499982
 20
84.433033
 42
0.000000
 10
21.999982
 20
85.433033
 42
0.000000
 10
22.499982
 20
86.433033
 42
0.000000
 10
22.499982
 20
87.433033
 42
0.000000
 10
22.999982
 20
88.433033
 42
0.000000
 10
22.499982
 20
89.433033
 42
0.000000
 10
22.499982
 20
90.433033
 42
0.000000
 10
21.999982
 20
91.433033
 42
0.000000
 10
22.499982
 20
92.433033
 42
0.000000
 10
22.499982
 20
93.433033
 42
0.000000
 10
22.999982
 20
94.433033
 42
0.000000
 10
22.499982
 20
95.433033
 42
0.000000
 10
22.499982
 20
96.433033
 42
0.000000
 10
21.999982
 20
97.433033
 42
0.000000
 10
22.499982
 20
98.433033
 42
0.000000
 10
22.499982
 20
99.425366
 42
0.000000
 10
22.999982
 20
100.433033
 42
0.000000
 10
22.499982
 20
101.433033
 42
0.000000
 10
22.499982
 20
102.433033
 42
0.000000
 10
21.999982
 20
103.433033
 42
0.000000
 10
22.499982
 20
104.433033
 42
0.000000
 10
22.499982
 20
105.433033
 42
0.000000
 10
22.999982
 20
106.433033
 42
0.000000
 10
22.499982
 20
107.433033
 42
0.000000
 10
22.499982
 20
108.433033
 42
0.000000
 10
21.999982
 20
109.433033
 42
0.000000
 10
22.499982
 20
110.433033
 42
0.000000
 10
22.499982
 20
111.433033
 42
0.000000
 10
22.999982
 20
112.433033
 42
0.000000
 10
22.499982
 20
113.433033
 42
0.000000
 10
22.499982
 20
114.433033
 42
0.000000
 10
21.999982
 20
115.433033
 42
0.000000
 10
22.499982
 20
116.433033
 42
0.000000
 10
22.499982
 20
117.433033
 42
0.000000
 10
22.999982
 20
118.433033
 42
0.000000
 10
22.499982
 20
119.433033
 42
0.000000
 10
22.499982
 20
120.433033
 42
0.000000
 10
21.999982
 20
121.433033
 42
0.000000
 10
22.499982
 20
122.433033
 42
0.000000
 10
22.499982
 20
123.433033
 42
0.000000
 10
22.999982
 20
124.433033
 42
0.000000
 10
22.499982
 20
125.433033
 42
0.000000
 10
22.499982
 20
126.433033
 42
0.000000
 10
21.999982
 20
127.433033
 42
0.000000
 10
22.499982
 20
128.433033
 42
0.000000
 10
22.499982
 20
129.433033
 42
0.000000
 10
22.999982
 20
130.433033
 42
0.000000
 10
22.499982
 20
131.433033
 42
0.000000
 10
22.499982
 20
132.433033
 42
0.000000
 10
21.999982
 20
133.433033
 42
0.000000
 10
22.499982
 20
134.433033
 42
0.000000
 10
22.499982
 20
135.433033
 42
0.000000
 10
22.999982
 20
136.433033
 42
0.000000
 10
22.499982
 20
137.433033
 42
0.000000
 10
22.499982
 20
138.433033
 42
0.000000
 10
21.999982
 20
139.433033
 42
0.000000
 10
22.499982
 20
140.433033
 42
0.000000
 10
22.499982
 20
141.433033
 42
0.000000
 10
22.999982
 20
142.433033
 42
0.000000
 10
22.499982
 20
143.433033
 42
0.000000
 10
22.499982
 20
144.433033
 42
0.000000
 10
21.999982
 20
145.433033
 42
0.000000
 10
22.499982
 20
146.433033
 42
0.000000
 10
22.499982
 20
147.431211
 42
0.000000
 10
22.999982
 20
148.433033
 42
0.000000
 10
22.499982
 20
149.433033
 42
0.000000
 10
22.499982
 20
150.433033
 42
0.000000
 10
22.251223
 20
147.945440
 42
0.000000
 10
12.499982
 20
148.920408
 42
0.000000
 10
12.499982
 20
-196.249941
 42
0.000000
 10
22.158495
 20
-196.249941
 42
0.000000
 97
     0
 75
     0
 76
     1
 98
     0
  0
ENDBLK
  5
214
100
AcDbEntity
  8
0
100
AcDbBlockEnd
  0
BLOCK
  5
215
100
AcDbEntity
  8
SCHRAFF
100
AcDbBlockBegin
  2
B-4
 70
    66
 10
0.000000
 20
0.000000
 30
0.000000
  0
HATCH
  5
216
100
AcDbEntity
  8
SCHRAFF
 62
    51
440
     0
100
AcDbHatch
 10
0.000000
 20
0.000000
 30
0.000000
210
0.000000
220
0.000000
230
1.000000
  2
SOLID
 70
     1
 71
     1
 91
     1
 92
    18
 72
     1
 73
     0
 93
     5
 10
-17.514215
 20
-69.749941
 42
0.000000
 10
2.499982
 20
-69.749941
 42
0.000000
 10
2.499982
 20
-9.749941
 42
0.000000
 10
-17.514215
 20
-9.749941
 42
0.000000
 10
-17.514215
 20
-69.749941
 42
0.000000
 97
     0
 75
     0
 76
     1
 98
     0
  0
HATCH
  5
217
100
AcDbEntity
  8
SCHRAFF
  6
CONTINUOUS
 62
     9
100
AcDbHatch
 10
0.000000
 20
0.000000
 30
0.000000
210
0.000000
220
0.000000
230
1.000000
  2
_U
 70
     0
 71
     1
 91
     1
 92
    18
 72
     1
 73
     0
 93
     5
 10
2.499982
 20
-69.749941
 42
0.000000
 10
2.499982
 20
-9.749941
 42
0.000000
 10
-17.500018
 20
-9.749941
 42
0.000000
 10
-17.500018
 20
-69.749941
 42
0.000000
 10
2.499982
 20
-69.749941
 42
0.000000
 97
     0
 75
     0
 76
     0
 52
0.000000
 41
1.000000
 77
     0
 78
     1
 53
90.000000
 43
-0.000000
 44
0.000000
 45
-6.875000
 46
0.000000
 79
     0
 98
     0
  0
ENDBLK
  5
218
100
AcDbEntity
  8
0
100
AcDbBlockEnd
  0
BLOCK
  5
219
100
AcDbEntity
  8
SCHRAFF
100
AcDbBlockBegin
  2
B-5
 70
    66
 10
0.000000
 20
0.000000
 30
0.000000
  0
HATCH
  5
21A
100
AcDbEntity
  8
SCHRAFF
 62
   254
440
     0
100
AcDbHatch
 10
0.000000
 20
0.000000
 30
0.000000
210
0.000000
220
0.000000
230
1.000000
  2
SOLID
 70
     1
 71
     1
 91
     1
 92
    18
 72
     1
 73
     0
 93
     7
 10
-132.500018
 20
130.250059
 42
0.000000
 10
-77.500018
 20
130.250059
 42
0.000000
 10
-77.500018
 20
-196.249941
 42
0.000000
 10
-82.500018
 20
-196.249941
 42
0.000000
 10
-82.500018
 20
125.250059
 42
0.000000
 10
-132.500018
 20
125.250059
 42
0.000000
 10
-132.500018
 20
130.250059
 42
0.000000
 97
     0
 75
     0
 76
     1
 98
     0
  0
ENDBLK
  5
21B
100
AcDbEntity
  8
0
100
AcDbBlockEnd
  0
BLOCK
  5
21C
100
AcDbEntity
  8
SCHRAFF
100
AcDbBlockBegin
  2
B-6
 70
    66
 10
0.000000
 20
0.000000
 30
0.000000
  0
HATCH
  5
21D
100
AcDbEntity
  8
SCHRAFF
 62
    51
440
     0
100
AcDbHatch
 10
0.000000
 20
0.000000
 30
0.000000
210
0.000000
220
0.000000
230
1.000000
  2
SOLID
 70
     1
 71
     1
 91
     1
 92
    18
 72
     1
 73
     0
 93
     9
 10
-77.500018
 20
155.420245
 42
0.000000
 10
2.499982
 20
147.420245
 42
0.000000
 10
2.499982
 20
-9.749941
 42
0.000000
 10
-17.514215
 20
-9.749941
 42
0.000000
 10
-17.514215
 20
-69.749941
 42
0.000000
 10
2.499982
 20
-69.749941
 42
0.000000
 10
2.499982
 20
-196.249941
 42
0.000000
 10
-77.500018
 20
-196.249941
 42
0.000000
 10
-77.500018
 20
155.420245
 42
0.000000
 97
     0
 75
     0
 76
     1
 98
     0
  0
ENDBLK
  5
21E
100
AcDbEntity
  8
0
100
AcDbBlockEnd
  0
BLOCK
  5
21F
100
AcDbEntity
  8
SCHRAFF
100
AcDbBlockBegin
  2
B-7
 70
    66
 10
0.000000
 20
0.000000
 30
0.000000
  0
HATCH
  5
220
100
AcDbEntity
  8
SCHRAFF
  6
CONTINUOUS
 62
     9
100
AcDbHatch
 10
0.000000
 20
0.000000
 30
0.000000
210
0.000000
220
0.000000
230
1.000000
  2
_U
 70
     0
 71
     1
 91
     1
 92
    18
 72
     1
 73
     0
 93
     9
 10
-77.500018
 20
155.420245
 42
0.000000
 10
2.499982
 20
147.420245
 42
0.000000
 10
2.499982
 20
-9.749941
 42
0.000000
 10
-17.514215
 20
-9.749941
 42
0.000000
 10
-17.514215
 20
-69.749941
 42
0.000000
 10
2.499982
 20
-69.749941
 42
0.000000
 10
2.499982
 20
-196.249941
 42
0.000000
 10
-77.500018
 20
-196.249941
 42
0.000000
 10
-77.500018
 20
155.420245
 42
0.000000
 97
     0
 75
     0
 76
     0
 52
0.000000
 41
1.000000
 77
     0
 78
     1
 53
90.000000
 43
-0.000000
 44
0.000000
 45
-13.750000
 46
0.000000
 79
     0
 98
     0
  0
ENDBLK
  5
221
100
AcDbEntity
  8
0
100
AcDbBlockEnd
  0
BLOCK
  5
222
100
AcDbEntity
  8
Detail
100
AcDbBlockBegin
  2
B-8
 70
    66
 10
0.000000
 20
0.000000
 30
0.000000
  0
LWPOLYLINE
  5
223
100
AcDbEntity
  8
Detail
  6
CONTINUOUS
 62
     9
100
AcDbPolyline
 90
     3
 10
60.694738
 20
150.308864
 42
0.000000
 10
22.499982
 20
168.522809
 42
0.000000
 10
-122.509939
 20
183.023802
 42
0.000000
  0
ENDBLK
  5
227
100
AcDbEntity
  8
0
100
AcDbBlockEnd
  0
BLOCK
  5
228
100
AcDbEntity
  8
SCHRAFF
100
AcDbBlockBegin
  2
B-9
 70
    66
 10
0.000000
 20
0.000000
 30
0.000000
  0
HATCH
  5
229
100
AcDbEntity
  8
SCHRAFF
 62
   254
440
     0
100
AcDbHatch
 10
0.000000
 20
0.000000
 30
0.000000
210
0.000000
220
0.000000
230
1.000000
  2
SOLID
 70
     1
 71
     1
 91
     1
 92
    18
 72
     1
 73
     0
 93
     5
 10
-77.500018
 20
157.920245
 42
0.000000
 10
-77.500018
 20
130.250059
 42
0.000000
 10
-82.500018
 20
130.250059
 42
0.000000
 10
-82.500018
 20
158.420245
 42
0.000000
 10
-77.500018
 20
157.920245
 42
0.000000
 97
     0
 75
     0
 76
     1
 98
     0
  0
ENDBLK
  5
22A
100
AcDbEntity
  8
0
100
AcDbBlockEnd
  0
BLOCK
  5
22B
100
AcDbEntity
  8
Detail
100
AcDbBlockBegin
  2
B-10
 70
    66
 10
0.000000
 20
0.000000
 30
0.000000
  0
LWPOLYLINE
  5
22C
100
AcDbEntity
  8
Detail
  6
CONTINUOUS
 62
     6
100
AcDbPolyline
 90
     5
 10
-82.500018
 20
130.250059
 42
0.000000
 10
-77.500018
 20
130.250059
 42
0.000000
 10
-77.500018
 20
157.920245
 42
0.000000
 10
-82.500018
 20
158.420245
 42
0.000000
 10
-82.500018
 20
130.250059
 42
0.000000
  0
ENDBLK
  5
232
100
AcDbEntity
  8
0
100
AcDbBlockEnd
  0
BLOCK
  5
233
100
AcDbEntity
  8
SCHRAFF
100
AcDbBlockBegin
  2
B-11
 70
    66
 10
0.000000
 20
0.000000
 30
0.000000
  0
HATCH
  5
234
100
AcDbEntity
  8
SCHRAFF
 62
   250
440
     0
100
AcDbHatch
 10
0.000000
 20
0.000000
 30
0.000000
210
0.000000
220
0.000000
230
1.000000
  2
SOLID
 70
     1
 71
     1
 91
     1
 92
    18
 72
     1
 73
     0
 93
    11
 10
62.499982
 20
149.447996
 42
0.000000
 10
-127.500015
 20
168.447996
 42
0.000000
 10
-127.500014
 20
183.522809
 42
0.000000
 10
-130.500014
 20
183.522809
 42
0.000000
 10
-130.500016
 20
165.733033
 42
0.000000
 10
59.499982
 20
146.733033
 42
0.000000
 10
59.499982
 20
126.690637
 42
0.000000
 10
54.550235
 20
131.640384
 42
0.000000
 10
52.428914
 20
129.519064
 42
0.000000
 10
62.499982
 20
119.447996
 42
0.000000
 10
62.499982
 20
149.447996
 42
0.000000
 97
     0
 75
     0
 76
     1
 98
     0
  0
ENDBLK
  5
235
100
AcDbEntity
  8
0
100
AcDbBlockEnd
  0
BLOCK
  5
236
100
AcDbEntity
  8
SCHRAFF
100
AcDbBlockBegin
  2
B-12
 70
    66
 10
0.000000
 20
0.000000
 30
0.000000
  0
HATCH
  5
237
100
AcDbEntity
  8
SCHRAFF
 62
     9
440
     0
100
AcDbHatch
 10
0.000000
 20
0.000000
 30
0.000000
210
0.000000
220
0.000000
230
1.000000
  2
SOLID
 70
     1
 71
     1
 91
     1
 92
    18
 72
     1
 73
     0
 93
     5
 10
2.499982
 20
149.920245
 42
0.000000
 10
12.499982
 20
148.920408
 42
0.000000
 10
12.499982
 20
-196.249941
 42
0.000000
 10
2.499982
 20
-196.249941
 42
0.000000
 10
2.499982
 20
149.920245
 42
0.000000
 97
     0
 75
     0
 76
     1
 98
     0
  0
ENDBLK
  5
238
100
AcDbEntity
  8
0
100
AcDbBlockEnd
  0
BLOCK
  5
239
100
AcDbEntity
  8
SCHRAFF
100
AcDbBlockBegin
  2
B-13
 70
    66
 10
0.000000
 20
0.000000
 30
0.000000
  0
HATCH
  5
23A
100
AcDbEntity
  8
SCHRAFF
 62
    51
440
     0
100
AcDbHatch
 10
0.000000
 20
0.000000
 30
0.000000
210
0.000000
220
0.000000
230
1.000000
  2
SOLID
 70
     1
 71
     1
 91
     1
 92
    18
 72
     1
 73
     0
 93
     5
 10
-132.500016
 20
165.933033
 42
0.000000
 10
-82.500018
 20
160.933033
 42
0.000000
 10
-82.500018
 20
130.250059
 42
0.000000
 10
-132.500018
 20
130.250059
 42
0.000000
 10
-132.500016
 20
165.933033
 42
0.000000
 97
     0
 75
     0
 76
     1
 98
     0
  0
ENDBLK
  5
23B
100
AcDbEntity
  8
0
100
AcDbBlockEnd
  0
BLOCK
  5
23C
100
AcDbEntity
  8
Detail
100
AcDbBlockBegin
  2
B-14
 70
    66
 10
0.000000
 20
0.000000
 30
0.000000
  0
LWPOLYLINE
  5
23D
100
AcDbEntity
  8
Detail
  6
CONTINUOUS
 62
     6
100
AcDbPolyline
 90
     6
 10
-82.500018
 20
-196.249941
 42
0.000000
 10
-82.500018
 20
125.250059
 42
0.000000
 10
-132.500018
 20
125.250059
 42
0.000000
 10
-132.500018
 20
130.250059
 42
0.000000
 10
-77.500018
 20
130.250059
 42
0.000000
 10
-77.500018
 20
-196.249941
 42
0.000000
  0
ENDBLK
  5
244
100
AcDbEntity
  8
0
100
AcDbBlockEnd
  0
BLOCK
  5
245
100
AcDbEntity
  8
Detail
100
AcDbBlockBegin
  2
B-15
 70
    66
 10
0.000000
 20
0.000000
 30
0.000000
  0
LWPOLYLINE
  5
246
100
AcDbEntity
  8
Detail
  6
CONTINUOUS
 62
     6
100
AcDbPolyline
 90
     4
 10
2.499982
 20
-196.249941
 42
0.000000
 10
2.499982
 20
149.920245
 42
0.000000
 10
12.499982
 20
148.920408
 42
0.000000
 10
12.499982
 20
-196.249941
 42
0.000000
  0
ENDBLK
  5
24B
100
AcDbEntity
  8
0
100
AcDbBlockEnd
  0
BLOCK
  5
24C
100
AcDbEntity
  8
SCHRAFF
100
AcDbBlockBegin
  2
B-16
 70
    66
 10
0.000000
 20
0.000000
 30
0.000000
  0
HATCH
  5
24D
100
AcDbEntity
  8
SCHRAFF
  6
CONTINUOUS
 62
     9
100
AcDbHatch
 10
0.000000
 20
0.000000
 30
0.000000
210
0.000000
220
0.000000
230
1.000000
  2
_U
 70
     0
 71
     1
 91
     1
 92
    18
 72
     1
 73
     0
 93
     5
 10
-212.500018
 20
125.250059
 42
0.000000
 10
-82.500018
 20
125.250059
 42
0.000000
 10
-82.500018
 20
-196.249941
 42
0.000000
 10
-212.500018
 20
-196.249941
 42
0.000000
 10
-212.500018
 20
125.250059
 42
0.000000
 97
     0
 75
     0
 76
     0
 52
0.000000
 41
1.000000
 77
     0
 78
     1
 53
45.000000
 43
-0.000000
 44
0.000000
 45
-17.677670
 46
17.677670
 79
     0
 98
     0
  0
ENDBLK
  5
24E
100
AcDbEntity
  8
0
100
AcDbBlockEnd
  0
BLOCK
  5
24F
100
AcDbEntity
  8
Detail
100
AcDbBlockBegin
  2
B-17
 70
    66
 10
0.000000
 20
0.000000
 30
0.000000
  0
LWPOLYLINE
  5
250
100
AcDbEntity
  8
Detail
  6
CONTINUOUS
 62
     3
100
AcDbPolyline
 90
     5
 10
-82.500018
 20
130.250059
 42
0.000000
 10
-132.500018
 20
130.250059
 42
0.000000
 10
-132.500016
 20
165.933033
 42
0.000000
 10
-82.500018
 20
160.933033
 42
0.000000
 10
-82.500018
 20
130.250059
 42
0.000000
  0
ENDBLK
  5
256
100
AcDbEntity
  8
0
100
AcDbBlockEnd
  0
BLOCK
  5
257
100
AcDbEntity
  8
Detail
100
AcDbBlockBegin
  2
B-18
 70
    66
 10
0.000000
 20
0.000000
 30
0.000000
  0
LWPOLYLINE
  5
258
100
AcDbEntity
  8
Detail
  6
HIDDEN
 62
     9
100
AcDbPolyline
 90
     2
 10
11.499982
 20
149.433033
 42
0.000000
 10
11.499982
 20
-196.249941
 42
0.000000
  0
ENDBLK
  5
25B
100
AcDbEntity
  8
0
100
AcDbBlockEnd
  0
BLOCK
  5
25C
100
AcDbEntity
  8
SCHRAFF
100
AcDbBlockBegin
  2
B-19
 70
    66
 10
0.000000
 20
0.000000
 30
0.000000
  0
HATCH
  5
25D
100
AcDbEntity
  8
SCHRAFF
  6
CONTINUOUS
 62
     9
100
AcDbHatch
 10
0.000000
 20
0.000000
 30
0.000000
210
0.000000
220
0.000000
230
1.000000
  2
_U
 70
     0
 71
     1
 91
     1
 92
    18
 72
     1
 73
     0
 93
     5
 10
-132.500016
 20
165.933033
 42
0.000000
 10
-82.500018
 20
160.933033
 42
0.000000
 10
-82.500018
 20
130.250059
 42
0.000000
 10
-132.500018
 20
130.250059
 42
0.000000
 10
-132.500016
 20
165.933033
 42
0.000000
 97
     0
 75
     0
 76
     0
 52
0.000000
 41
1.000000
 77
     0
 78
     1
 53
90.000000
 43
-0.000000
 44
0.000000
 45
-6.875000
 46
0.000000
 79
     0
 98
     0
  0
ENDBLK
  5
25E
100
AcDbEntity
  8
0
100
AcDbBlockEnd
  0
BLOCK
  5
25F
100
AcDbEntity
  8
Detail
100
AcDbBlockBegin
  2
B-20
 70
    66
 10
0.000000
 20
0.000000
 30
0.000000
  0
LWPOLYLINE
  5
260
100
AcDbEntity
  8
Detail
  6
CONTINUOUS
 62
     6
100
AcDbPolyline
 90
    24
 10
-212.500018
 20
135.715815
 42
0.000000
 10
-212.431530
 20
135.750059
 42
0.000000
 10
-211.431530
 20
135.250059
 42
0.000000
 10
-210.431530
 20
135.250059
 42
0.000000
 10
-209.431530
 20
134.750059
 42
0.000000
 10
-208.431530
 20
135.250059
 42
0.000000
 10
-207.431530
 20
135.250059
 42
0.000000
 10
-206.431530
 20
135.750059
 42
0.000000
 10
-205.431530
 20
135.250059
 42
0.000000
 10
-204.431530
 20
135.250059
 42
0.000000
 10
-203.431530
 20
134.750059
 42
0.000000
 10
-202.431530
 20
135.250059
 42
0.000000
 10
-201.431530
 20
135.250059
 42
0.000000
 10
-200.431530
 20
135.750059
 42
0.000000
 10
-199.431530
 20
135.250059
 42
0.000000
 10
-198.431530
 20
135.250059
 42
0.000000
 10
-197.431530
 20
134.750059
 42
0.000000
 10
-196.431530
 20
135.250059
 42
0.000000
 10
-195.431530
 20
135.250059
 42
0.000000
 10
-194.431530
 20
135.750059
 42
0.000000
 10
-193.431530
 20
135.250059
 42
0.000000
 10
-192.431530
 20
135.250059
 42
0.000000
 10
-191.431530
 20
134.750059
 42
0.000000
 10
-190.431530
 20
135.250059
 42
0.000000
  0
ENDBLK
  5
279
100
AcDbEntity
  8
0
100
AcDbBlockEnd
  0
BLOCK
  5
27A
100
AcDbEntity
  8
Detail
100
AcDbBlockBegin
  2
B-21
 70
    66
 10
0.000000
 20
0.000000
 30
0.000000
  0
MTEXT
  5
27C
100
AcDbEntity
  8
Detail
 62
     7
100
AcDbMText
 10
79.375023
 20
112.750159
 30
0.000000
 40
5.000000
 41
48.510000
 71
     1
 72
     5
  1
Montagewinkel
  7
Arial
 50
0.000000
  0
ENDBLK
  5
27D
100
AcDbEntity
  8
0
100
AcDbBlockEnd
  0
BLOCK
  5
27E
100
AcDbEntity
  8
Detail
100
AcDbBlockBegin
  2
B-22
 70
    66
 10
0.000000
 20
0.000000
 30
0.000000
  0
MTEXT
  5
27F
100
AcDbEntity
  8
Detail
 62
     7
100
AcDbMText
 10
79.375023
 20
87.750159
 30
0.000000
 40
5.000000
 41
31.185000
 71
     1
 72
     5
  1
Schraube
  7
Arial
 50
0.000000
  0
ENDBLK
  5
280
100
AcDbEntity
  8
0
100
AcDbBlockEnd
  0
BLOCK
  5
281
100
AcDbEntity
  8
Detail
100
AcDbBlockBegin
  2
B-23
 70
    66
 10
0.000000
 20
0.000000
 30
0.000000
  0
MTEXT
  5
282
100
AcDbEntity
  8
Detail
 62
     7
100
AcDbMText
 10
79.375023
 20
62.750159
 30
0.000000
 40
5.000000
 41
44.257500
 71
     1
 72
     5
  1
Edelkratzputz
  7
Arial
 50
0.000000
  0
ENDBLK
  5
283
100
AcDbEntity
  8
0
100
AcDbBlockEnd
  0
BLOCK
  5
284
100
AcDbEntity
  8
SCHRAFF
100
AcDbBlockBegin
  2
B-24
 70
    66
 10
0.000000
 20
0.000000
 30
0.000000
  0
HATCH
  5
285
100
AcDbEntity
  8
SCHRAFF
 62
     7
440
     0
100
AcDbHatch
 10
0.000000
 20
0.000000
 30
0.000000
210
0.000000
220
0.000000
230
1.000000
  2
SOLID
 70
     1
 71
     1
 91
     1
 92
    18
 72
     1
 73
     0
 93
     3
 10
17.999982
 20
60.250059
 42
1.000000
 10
16.999982
 20
60.250059
 42
1.000000
 10
17.999982
 20
60.250059
 42
0.000000
 97
     0
 75
     0
 76
     1
 98
     0
  0
CIRCLE
  5
286
100
AcDbEntity
  8
Detail
  6
CONTINUOUS
 62
     7
100
AcDbCircle
 10
17.499982
 20
60.250059
 40
0.500000
  0
ENDBLK
  5
287
100
AcDbEntity
  8
0
100
AcDbBlockEnd
  0
BLOCK
  5
288
100
AcDbEntity
  8
Detail
100
AcDbBlockBegin
  2
B-25
 70
    66
 10
0.000000
 20
0.000000
 30
0.000000
  0
MTEXT
  5
289
100
AcDbEntity
  8
Detail
 62
     7
100
AcDbMText
 10
79.375023
 20
32.750159
 30
0.000000
 40
5.000000
 41
134.662500
 71
     7
 72
     5
  1
Armierungsschicht mit Glasfasergewebe, 
  7
Arial
 50
0.000000
  0
MTEXT
  5
28A
100
AcDbEntity
  8
Detail
 62
     7
100
AcDbMText
 10
79.375023
 20
25.250159
 30
0.000000
 40
5.000000
 41
66.937500
 71
     7
 72
     5
  1
aufgerauht ca. 8 mm
  7
Arial
 50
0.000000
  0
ENDBLK
  5
28B
100
AcDbEntity
  8
0
100
AcDbBlockEnd
  0
BLOCK
  5
28C
100
AcDbEntity
  8
SCHRAFF
100
AcDbBlockBegin
  2
B-26
 70
    66
 10
0.000000
 20
0.000000
 30
0.000000
  0
HATCH
  5
28D
100
AcDbEntity
  8
SCHRAFF
 62
     7
440
     0
100
AcDbHatch
 10
0.000000
 20
0.000000
 30
0.000000
210
0.000000
220
0.000000
230
1.000000
  2
SOLID
 70
     1
 71
     1
 91
     1
 92
    18
 72
     1
 73
     0
 93
     3
 10
7.999982
 20
35.250059
 42
1.000000
 10
6.999982
 20
35.250059
 42
1.000000
 10
7.999982
 20
35.250059
 42
0.000000
 97
     0
 75
     0
 76
     1
 98
     0
  0
CIRCLE
  5
28E
100
AcDbEntity
  8
Detail
  6
CONTINUOUS
 62
     7
100
AcDbCircle
 10
7.499982
 20
35.250059
 40
0.500000
  0
ENDBLK
  5
28F
100
AcDbEntity
  8
0
100
AcDbBlockEnd
  0
BLOCK
  5
290
100
AcDbEntity
  8
SCHRAFF
100
AcDbBlockBegin
  2
B-27
 70
    66
 10
0.000000
 20
0.000000
 30
0.000000
  0
HATCH
  5
291
100
AcDbEntity
  8
SCHRAFF
 62
     7
440
     0
100
AcDbHatch
 10
0.000000
 20
0.000000
 30
0.000000
210
0.000000
220
0.000000
230
1.000000
  2
SOLID
 70
     1
 71
     1
 91
     1
 92
    18
 72
     1
 73
     0
 93
     3
 10
-15.514215
 20
-39.749941
 42
1.000000
 10
-16.514215
 20
-39.749941
 42
1.000000
 10
-15.514215
 20
-39.749941
 42
0.000000
 97
     0
 75
     0
 76
     1
 98
     0
  0
CIRCLE
  5
292
100
AcDbEntity
  8
Detail
  6
CONTINUOUS
 62
     7
100
AcDbCircle
 10
-16.014215
 20
-39.749941
 40
0.500000
  0
ENDBLK
  5
293
100
AcDbEntity
  8
0
100
AcDbBlockEnd
  0
BLOCK
  5
294
100
AcDbEntity
  8
Detail
100
AcDbBlockBegin
  2
B-28
 70
    66
 10
0.000000
 20
0.000000
 30
0.000000
  0
MTEXT
  5
295
100
AcDbEntity
  8
Detail
 62
     7
100
AcDbMText
 10
79.375023
 20
-42.249841
 30
0.000000
 40
5.000000
 41
82.372500
 71
     7
 72
     5
  1
Verdübelung versenkt mit
  7
Arial
 50
0.000000
  0
MTEXT
  5
296
100
AcDbEntity
  8
Detail
 62
     7
100
AcDbMText
 10
79.375023
 20
-49.749841
 30
0.000000
 40
5.000000
 41
82.635000
 71
     7
 72
     5
  1
Thermorondell abgedeckt
  7
Arial
 50
0.000000
  0
ENDBLK
  5
297
100
AcDbEntity
  8
0
100
AcDbBlockEnd
  0
BLOCK
  5
298
100
AcDbEntity
  8
Detail
100
AcDbBlockBegin
  2
B-29
 70
    66
 10
0.000000
 20
0.000000
 30
0.000000
  0
MTEXT
  5
299
100
AcDbEntity
  8
Detail
 62
     7
100
AcDbMText
 10
79.375023
 20
12.750159
 30
0.000000
 40
5.000000
 41
59.482500
 71
     1
 72
     5
  1
WDVS-Dämmstoff
  7
Arial
 50
0.000000
  0
ENDBLK
  5
29A
100
AcDbEntity
  8
0
100
AcDbBlockEnd
  0
BLOCK
  5
29B
100
AcDbEntity
  8
SCHRAFF
100
AcDbBlockBegin
  2
B-30
 70
    66
 10
0.000000
 20
0.000000
 30
0.000000
  0
HATCH
  5
29C
100
AcDbEntity
  8
SCHRAFF
 62
     7
440
     0
100
AcDbHatch
 10
0.000000
 20
0.000000
 30
0.000000
210
0.000000
220
0.000000
230
1.000000
  2
SOLID
 70
     1
 71
     1
 91
     1
 92
    18
 72
     1
 73
     0
 93
     3
 10
-37.000018
 20
10.250059
 42
1.000000
 10
-38.000018
 20
10.250059
 42
1.000000
 10
-37.000018
 20
10.250059
 42
0.000000
 97
     0
 75
     0
 76
     1
 98
     0
  0
CIRCLE
  5
29D
100
AcDbEntity
  8
Detail
  6
CONTINUOUS
 62
     7
100
AcDbCircle
 10
-37.500018
 20
10.250059
 40
0.500000
  0
ENDBLK
  5
29E
100
AcDbEntity
  8
0
100
AcDbBlockEnd
  0
BLOCK
  5
29F
100
AcDbEntity
  8
Detail
100
AcDbBlockBegin
  2
B-31
 70
    66
 10
0.000000
 20
0.000000
 30
0.000000
  0
MTEXT
  5
2A0
100
AcDbEntity
  8
Detail
 62
     7
100
AcDbMText
 10
79.375023
 20
-12.249841
 30
0.000000
 40
5.000000
 41
38.902500
 71
     1
 72
     5
  1
Klebemörtel
  7
Arial
 50
0.000000
  0
ENDBLK
  5
2A1
100
AcDbEntity
  8
0
100
AcDbBlockEnd
  0
BLOCK
  5
2A2
100
AcDbEntity
  8
SCHRAFF
100
AcDbBlockBegin
  2
B-32
 70
    66
 10
0.000000
 20
0.000000
 30
0.000000
  0
HATCH
  5
2A3
100
AcDbEntity
  8
SCHRAFF
 62
     7
440
     0
100
AcDbHatch
 10
0.000000
 20
0.000000
 30
0.000000
210
0.000000
220
0.000000
230
1.000000
  2
SOLID
 70
     1
 71
     1
 91
     1
 92
    18
 72
     1
 73
     0
 93
     3
 10
-79.500018
 20
-14.749941
 42
1.000000
 10
-80.500018
 20
-14.749941
 42
1.000000
 10
-79.500018
 20
-14.749941
 42
0.000000
 97
     0
 75
     0
 76
     1
 98
     0
  0
CIRCLE
  5
2A4
100
AcDbEntity
  8
Detail
  6
CONTINUOUS
 62
     7
100
AcDbCircle
 10
-80.000018
 20
-14.749941
 40
0.500000
  0
ENDBLK
  5
2A5
100
AcDbEntity
  8
0
100
AcDbBlockEnd
  0
BLOCK
  5
2A6
100
AcDbEntity
  8
Detail
100
AcDbBlockBegin
  2
B-33
 70
    66
 10
0.000000
 20
0.000000
 30
0.000000
  0
LWPOLYLINE
  5
2A7
100
AcDbEntity
  8
Detail
  6
CONTINUOUS
 62
     9
100
AcDbPolyline
 90
    17
 10
-188.000016
 20
127.750059
 42
0.262676
 10
-187.568451
 20
126.985260
 42
0.082357
 10
-185.049765
 20
125.982292
 42
0.034537
 10
-181.781918
 20
125.440360
 42
0.024669
 10
-177.927229
 20
125.250059
 42
0.024669
 10
-174.072540
 20
125.440360
 42
0.034537
 10
-170.804693
 20
125.982292
 42
0.082357
 10
-168.286007
 20
126.985260
 42
0.262676
 10
-167.854442
 20
127.750059
 42
0.262676
 10
-168.286007
 20
128.514858
 42
0.082357
 10
-170.804693
 20
129.517826
 42
0.034537
 10
-174.072540
 20
130.059758
 42
0.024669
 10
-177.927229
 20
130.250059
 42
0.024669
 10
-181.781918
 20
130.059758
 42
0.034537
 10
-185.049765
 20
129.517826
 42
0.082357
 10
-187.568451
 20
128.514858
 42
0.262676
 10
-188.000016
 20
127.750059
 42
0.000000
  0
ENDBLK
  5
2B9
100
AcDbEntity
  8
0
100
AcDbBlockEnd
  0
BLOCK
  5
2BA
100
AcDbEntity
  8
Detail
100
AcDbBlockBegin
  2
B-34
 70
    66
 10
0.000000
 20
0.000000
 30
0.000000
  0
LWPOLYLINE
  5
2BB
100
AcDbEntity
  8
Detail
  6
CONTINUOUS
 62
     9
100
AcDbPolyline
 90
    17
 10
-184.373813
 20
127.750059
 42
0.262676
 10
-184.097611
 20
127.260588
 42
0.082357
 10
-182.485652
 20
126.618688
 42
0.034537
 10
-180.394230
 20
126.271852
 42
0.024669
 10
-177.927229
 20
126.150059
 42
0.024669
 10
-175.460228
 20
126.271852
 42
0.034537
 10
-173.368806
 20
126.618688
 42
0.082357
 10
-171.756847
 20
127.260588
 42
0.262676
 10
-171.480645
 20
127.750059
 42
0.262676
 10
-171.756847
 20
128.239531
 42
0.082357
 10
-173.368806
 20
128.881430
 42
0.034537
 10
-175.460228
 20
129.228266
 42
0.024669
 10
-177.927229
 20
129.350059
 42
0.024669
 10
-180.394230
 20
129.228266
 42
0.034537
 10
-182.485652
 20
128.881430
 42
0.082357
 10
-184.097611
 20
128.239531
 42
0.262676
 10
-184.373813
 20
127.750059
 42
0.000000
  0
ENDBLK
  5
2CD
100
AcDbEntity
  8
0
100
AcDbBlockEnd
  0
BLOCK
  5
2CE
100
AcDbEntity
  8
Detail
100
AcDbBlockBegin
  2
B-35
 70
    66
 10
0.000000
 20
0.000000
 30
0.000000
  0
LWPOLYLINE
  5
2CF
100
AcDbEntity
  8
Detail
  6
CONTINUOUS
 62
     9
100
AcDbPolyline
 90
    17
 10
-138.626221
 20
127.750059
 42
-0.262676
 10
-138.902423
 20
127.260588
 42
-0.082357
 10
-140.514382
 20
126.618688
 42
-0.034537
 10
-142.605804
 20
126.271852
 42
-0.024669
 10
-145.072805
 20
126.150059
 42
-0.024669
 10
-147.539806
 20
126.271852
 42
-0.034537
 10
-149.631228
 20
126.618688
 42
-0.082357
 10
-151.243187
 20
127.260588
 42
-0.262676
 10
-151.519389
 20
127.750059
 42
-0.262676
 10
-151.243187
 20
128.239531
 42
-0.082357
 10
-149.631228
 20
128.881430
 42
-0.034537
 10
-147.539806
 20
129.228266
 42
-0.024669
 10
-145.072805
 20
129.350059
 42
-0.024669
 10
-142.605804
 20
129.228266
 42
-0.034537
 10
-140.514382
 20
128.881430
 42
-0.082357
 10
-138.902423
 20
128.239531
 42
-0.262676
 10
-138.626221
 20
127.750059
 42
0.000000
  0
ENDBLK
  5
2E1
100
AcDbEntity
  8
0
100
AcDbBlockEnd
  0
BLOCK
  5
2E2
100
AcDbEntity
  8
Detail
100
AcDbBlockBegin
  2
B-36
 70
    66
 10
0.000000
 20
0.000000
 30
0.000000
  0
LWPOLYLINE
  5
2E3
100
AcDbEntity
  8
Detail
  6
CONTINUOUS
 62
     9
100
AcDbPolyline
 90
    17
 10
-135.000018
 20
127.750059
 42
-0.262676
 10
-135.431583
 20
126.985260
 42
-0.082357
 10
-137.950269
 20
125.982292
 42
-0.034537
 10
-141.218116
 20
125.440360
 42
-0.024669
 10
-145.072805
 20
125.250059
 42
-0.024669
 10
-148.927494
 20
125.440360
 42
-0.034537
 10
-152.195341
 20
125.982292
 42
-0.082357
 10
-154.714027
 20
126.985260
 42
-0.262676
 10
-155.145592
 20
127.750059
 42
-0.262676
 10
-154.714027
 20
128.514858
 42
-0.082357
 10
-152.195341
 20
129.517826
 42
-0.034537
 10
-148.927494
 20
130.059758
 42
-0.024669
 10
-145.072805
 20
130.250059
 42
-0.024669
 10
-141.218116
 20
130.059758
 42
-0.034537
 10
-137.950269
 20
129.517826
 42
-0.082357
 10
-135.431583
 20
128.514858
 42
-0.262676
 10
-135.000018
 20
127.750059
 42
0.000000
  0
ENDBLK
  5
2F5
100
AcDbEntity
  8
0
100
AcDbBlockEnd
  0
BLOCK
  5
2F6
100
AcDbEntity
  8
Detail
100
AcDbBlockBegin
  2
B-37
 70
    66
 10
0.000000
 20
0.000000
 30
0.000000
  0
ENDBLK
  5
2F7
100
AcDbEntity
  8
0
100
AcDbBlockEnd
  0
BLOCK
  5
2F8
100
AcDbEntity
  8
Detail
100
AcDbBlockBegin
  2
B-38
 70
    66
 10
0.000000
 20
0.000000
 30
0.000000
  0
LWPOLYLINE
  5
2F9
100
AcDbEntity
  8
Detail
  6
CONTINUOUS
 62
     4
100
AcDbPolyline
 90
    11
 10
-127.500014
 20
183.522809
 42
0.000000
 10
-130.500014
 20
183.522809
 42
0.000000
 10
-130.500016
 20
165.733033
 42
0.000000
 10
59.499982
 20
146.733033
 42
0.000000
 10
59.499982
 20
126.690637
 42
0.000000
 10
54.550235
 20
131.640384
 42
0.000000
 10
52.428914
 20
129.519064
 42
0.000000
 10
62.499982
 20
119.447996
 42
0.000000
 10
62.499982
 20
149.447996
 42
0.000000
 10
-127.500015
 20
168.447996
 42
0.000000
 10
-127.500014
 20
183.522809
 42
0.000000
  0
ENDBLK
  5
305
100
AcDbEntity
  8
0
100
AcDbBlockEnd
  0
BLOCK
  5
306
100
AcDbEntity
  8
SCHRAFF
100
AcDbBlockBegin
  2
glasleiste
 70
    66
 10
0.000000
 20
0.000000
 30
0.000000
  0
HATCH
  5
307
100
AcDbEntity
  8
SCHRAFF
  6
CONTINUOUS
 62
     9
100
AcDbHatch
 10
0.000000
 20
0.000000
 30
0.000000
210
0.000000
220
0.000000
230
1.000000
  2
_U
 70
     0
 71
     1
 91
     1
 92
    18
 72
     1
 73
     0
 93
    15
 10
-190.292241
 20
265.250059
 42
0.000000
 10
-208.009877
 20
260.502633
 42
0.339455
 10
-209.492239
 20
258.570781
 42
0.000000
 10
-209.492239
 20
249.250059
 42
0.414214
 10
-207.492239
 20
247.250059
 42
0.000000
 10
-206.492239
 20
247.250060
 42
0.000000
 10
-185.292241
 20
247.250059
 42
0.000000
 10
-185.292241
 20
257.250059
 42
0.000000
 10
-185.492241
 20
257.250059
 42
0.000000
 10
-189.492241
 20
257.250059
 42
0.000000
 10
-190.992241
 20
259.250059
 42
0.000000
 10
-190.992241
 20
261.250059
 42
0.000000
 10
-189.492241
 20
261.250059
 42
0.000000
 10
-189.492241
 20
264.270264
 42
0.356393
 10
-190.292241
 20
265.250059
 42
0.000000
 97
     0
 75
     0
 76
     0
 52
0.000000
 41
1.000000
 77
     0
 78
     1
 53
45.000001
 43
-0.000000
 44
0.000000
 45
-2.209709
 46
2.209709
 79
     0
 98
     0
  0
LWPOLYLINE
  5
308
100
AcDbEntity
  8
Detail
  6
CONTINUOUS
 62
     3
100
AcDbPolyline
 90
     2
 10
-208.009879
 20
260.502633
 42
0.000000
 10
-190.292242
 20
265.250059
 42
0.000000
  0
LWPOLYLINE
  5
30B
100
AcDbEntity
  8
Detail
  6
CONTINUOUS
 62
     4
100
AcDbPolyline
 90
     2
 10
-184.492242
 20
267.250059
 42
0.000000
 10
-190.292242
 20
265.250059
 42
0.000000
  0
LWPOLYLINE
  5
30E
100
AcDbEntity
  8
Detail
  6
CONTINUOUS
 62
     4
100
AcDbPolyline
 90
     2
 10
-184.492242
 20
258.250059
 42
0.000000
 10
-184.492242
 20
267.250059
 42
0.000000
  0
LWPOLYLINE
  5
311
100
AcDbEntity
  8
Detail
  6
CONTINUOUS
 62
     3
100
AcDbPolyline
 90
     2
 10
-185.292242
 20
257.250059
 42
0.000000
 10
-185.292242
 20
247.250059
 42
0.000000
  0
LWPOLYLINE
  5
314
100
AcDbEntity
  8
Detail
  6
CONTINUOUS
 62
     4
100
AcDbPolyline
 90
     2
 10
-185.492242
 20
257.250059
 42
0.414214
 10
-184.492242
 20
258.250059
 42
0.000000
  0
LWPOLYLINE
  5
317
100
AcDbEntity
  8
Detail
  6
CONTINUOUS
 62
     3
100
AcDbPolyline
 90
     2
 10
-189.492242
 20
257.250059
 42
0.000000
 10
-185.292242
 20
257.250059
 42
0.000000
  0
LWPOLYLINE
  5
31A
100
AcDbEntity
  8
Detail
  6
CONTINUOUS
 62
     3
100
AcDbPolyline
 90
     2
 10
-190.992242
 20
259.250059
 42
0.000000
 10
-189.492242
 20
257.250059
 42
0.000000
  0
LWPOLYLINE
  5
31D
100
AcDbEntity
  8
Detail
  6
CONTINUOUS
 62
     3
100
AcDbPolyline
 90
     2
 10
-190.992242
 20
261.250059
 42
0.000000
 10
-190.992242
 20
259.250059
 42
0.000000
  0
LWPOLYLINE
  5
320
100
AcDbEntity
  8
Detail
  6
CONTINUOUS
 62
     3
100
AcDbPolyline
 90
     3
 10
-189.492242
 20
264.270263
 42
0.000000
 10
-189.492242
 20
261.250059
 42
0.000000
 10
-190.992242
 20
261.250059
 42
0.000000
  0
LWPOLYLINE
  5
324
100
AcDbEntity
  8
Detail
  6
CONTINUOUS
 62
     3
100
AcDbPolyline
 90
     2
 10
-190.292242
 20
265.250059
 42
-0.356394
 10
-189.492242
 20
264.270264
 42
0.000000
  0
LWPOLYLINE
  5
327
100
AcDbEntity
  8
Detail
  6
CONTINUOUS
 62
     3
100
AcDbPolyline
 90
     3
 10
-209.492241
 20
249.250059
 42
0.000000
 10
-209.492241
 20
258.570781
 42
-0.339454
 10
-208.009879
 20
260.502631
 42
0.000000
  0
LWPOLYLINE
  5
32B
100
AcDbEntity
  8
Detail
  6
CONTINUOUS
 62
     3
100
AcDbPolyline
 90
     2
 10
-207.492241
 20
247.250059
 42
-0.414214
 10
-209.492241
 20
249.250059
 42
0.000000
  0
LWPOLYLINE
  5
32E
100
AcDbEntity
  8
Detail
  6
CONTINUOUS
 62
     3
100
AcDbPolyline
 90
     2
 10
-185.292242
 20
247.250059
 42
0.000000
 10
-207.492241
 20
247.250059
 42
0.000000
  0
ENDBLK
  5
331
100
AcDbEntity
  8
0
100
AcDbBlockEnd
  0
BLOCK
  5
332
100
AcDbEntity
  8
SCHRAFF
100
AcDbBlockBegin
  2
rahmen
 70
    66
 10
0.000000
 20
0.000000
 30
0.000000
  0
HATCH
  5
333
100
AcDbEntity
  8
SCHRAFF
  6
CONTINUOUS
 62
     9
100
AcDbHatch
 10
0.000000
 20
0.000000
 30
0.000000
210
0.000000
220
0.000000
230
1.000000
  2
_U
 70
     0
 71
     1
 91
     1
 92
    18
 72
     1
 73
     0
 93
    32
 10
-132.500018
 20
183.250060
 42
0.000000
 10
-132.500018
 20
131.750060
 42
0.000000
 10
-134.000018
 20
130.250060
 42
0.000000
 10
-189.000017
 20
130.250060
 42
0.000000
 10
-190.500017
 20
131.750060
 42
0.000000
 10
-190.500017
 20
198.750058
 42
-0.414213
 10
-189.000017
 20
200.250060
 42
0.000000
 10
-184.500017
 20
200.250060
 42
-0.414214
 10
-183.500017
 20
199.250060
 42
0.000000
 10
-183.500017
 20
196.250060
 42
0.000000
 10
-175.500017
 20
196.250060
 42
0.000000
 10
-175.500017
 20
199.250060
 42
-0.414212
 10
-174.500017
 20
200.250060
 42
0.000000
 10
-171.500017
 20
200.250060
 42
0.414214
 10
-169.500017
 20
202.250060
 42
0.000000
 10
-169.500017
 20
206.750060
 42
-0.414213
 10
-168.000017
 20
208.250060
 42
0.000000
 10
-164.200017
 20
208.250060
 42
0.000000
 10
-163.700017
 20
207.750060
 42
0.000000
 10
-163.700017
 20
198.621840
 42
0.113237
 10
-163.500017
 20
197.750060
 42
0.000000
 10
-163.500017
 20
186.250060
 42
0.000000
 10
-159.500017
 20
186.250060
 42
0.000000
 10
-159.500017
 20
197.250060
 42
0.000000
 10
-159.000017
 20
197.750060
 42
0.000000
 10
-151.500017
 20
197.750060
 42
0.000000
 10
-151.000017
 20
197.250060
 42
0.000000
 10
-151.000017
 20
188.750060
 42
0.000000
 10
-144.300018
 20
188.750060
 42
0.000000
 10
-136.794243
 20
185.250060
 42
0.000000
 10
-134.500018
 20
185.250060
 42
-0.414214
 10
-132.500018
 20
183.250060
 42
0.000000
 97
     0
 75
     0
 76
     0
 52
0.000000
 41
1.000000
 77
     0
 78
     1
 53
44.999994
 43
-0.000000
 44
0.000000
 45
-2.209703
 46
2.209704
 79
     0
 98
     0
  0
LWPOLYLINE
  5
334
100
AcDbEntity
  8
Detail
  6
CONTINUOUS
 62
     3
100
AcDbPolyline
 90
    32
 10
-132.500018
 20
131.750059
 42
0.000000
 10
-134.000018
 20
130.250059
 42
0.000000
 10
-189.000018
 20
130.250059
 42
0.000000
 10
-190.500018
 20
131.750059
 42
0.000000
 10
-190.500018
 20
198.750057
 42
-0.414214
 10
-189.000018
 20
200.250057
 42
0.000000
 10
-184.500018
 20
200.250059
 42
-0.414213
 10
-183.500016
 20
199.250059
 42
0.000000
 10
-183.500018
 20
196.250059
 42
0.000000
 10
-175.500018
 20
196.250059
 42
0.000000
 10
-175.500018
 20
199.250059
 42
-0.414213
 10
-174.500018
 20
200.250057
 42
0.000000
 10
-171.500018
 20
200.250059
 42
0.414214
 10
-169.500020
 20
202.250059
 42
0.000000
 10
-169.500018
 20
206.750059
 42
-0.414213
 10
-168.000018
 20
208.250057
 42
0.000000
 10
-164.200018
 20
208.250059
 42
0.000000
 10
-163.700018
 20
207.750059
 42
0.000000
 10
-163.700018
 20
198.621839
 42
0.113237
 10
-163.500019
 20
197.750059
 42
0.000000
 10
-163.500018
 20
186.250059
 42
0.000000
 10
-159.500018
 20
186.250059
 42
0.000000
 10
-159.500018
 20
197.250059
 42
0.000000
 10
-159.000018
 20
197.750059
 42
0.000000
 10
-151.500018
 20
197.750059
 42
0.000000
 10
-151.000018
 20
197.250059
 42
0.000000
 10
-151.000018
 20
188.750059
 42
0.000000
 10
-144.300018
 20
188.750059
 42
0.000000
 10
-136.794243
 20
185.250059
 42
0.000000
 10
-134.500018
 20
185.250059
 42
-0.414214
 10
-132.500016
 20
183.250057
 42
0.000000
 10
-132.500018
 20
131.750059
 42
0.000000
  0
ENDBLK
  5
355
100
AcDbEntity
  8
0
100
AcDbBlockEnd
  0
BLOCK
  5
356
100
AcDbEntity
  8
SCHRAFF
100
AcDbBlockBegin
  2
fluegel
 70
    66
 10
0.000000
 20
0.000000
 30
0.000000
  0
HATCH
  5
357
100
AcDbEntity
  8
SCHRAFF
  6
CONTINUOUS
 62
     9
100
AcDbHatch
 10
0.000000
 20
0.000000
 30
0.000000
210
0.000000
220
0.000000
230
1.000000
  2
_U
 70
     0
 71
     1
 91
     1
 92
    18
 72
     1
 73
     0
 93
    56
 10
-142.500053
 20
257.968429
 42
0.000000
 10
-142.500018
 20
238.722534
 42
-0.339454
 10
-143.982378
 20
236.790679
 42
0.000000
 10
-144.517657
 20
236.647254
 42
0.339454
 10
-146.000017
 20
234.715404
 42
0.000000
 10
-146.000017
 20
225.750059
 42
-0.414214
 10
-147.500017
 20
224.250059
 42
0.000000
 10
-149.349027
 20
224.250059
 42
-0.339454
 10
-150.797917
 20
225.361829
 42
0.000000
 10
-151.541867
 20
228.138284
 42
0.339453
 10
-152.990752
 20
229.250059
 42
0.000000
 10
-155.509282
 20
229.250059
 42
0.339455
 10
-156.958167
 20
228.138284
 42
0.000000
 10
-157.702117
 20
225.361829
 42
-0.339455
 10
-159.151007
 20
224.250059
 42
0.000000
 10
-161.500017
 20
224.250059
 42
0.414214
 10
-163.500017
 20
222.250059
 42
0.000000
 10
-163.500017
 20
213.750059
 42
-0.414214
 10
-165.000017
 20
212.250059
 42
0.000000
 10
-188.500017
 20
212.250059
 42
0.414214
 10
-190.500017
 20
210.250059
 42
0.000000
 10
-190.500017
 20
193.750059
 42
-0.414214
 10
-192.000017
 20
192.250059
 42
0.000000
 10
-208.000052
 20
192.250059
 42
-0.414214
 10
-210.500052
 20
194.750059
 42
0.000000
 10
-210.500052
 20
244.750059
 42
-0.414213
 10
-208.000052
 20
247.250059
 42
0.000000
 10
-206.500052
 20
247.250059
 42
-0.414212
 10
-205.500052
 20
246.250059
 42
0.000000
 10
-205.500052
 20
243.250059
 42
0.000000
 10
-200.000052
 20
243.250059
 42
0.000000
 10
-200.000052
 20
246.250059
 42
-0.414212
 10
-199.000052
 20
247.250059
 42
0.000000
 10
-175.767382
 20
247.250059
 42
-0.339456
 10
-174.801457
 20
246.508874
 42
0.000000
 10
-173.789557
 20
242.732419
 42
0.339454
 10
-171.857707
 20
241.250059
 42
0.000000
 10
-168.642402
 20
241.250059
 42
0.339454
 10
-166.710552
 20
242.732419
 42
0.000000
 10
-165.698652
 20
246.508874
 42
-0.339454
 10
-164.732727
 20
247.250059
 42
0.000000
 10
-162.748387
 20
247.250059
 42
0.576922
 10
-160.500052
 20
248.550059
 42
0.000000
 10
-160.500052
 20
256.750059
 42
0.000000
 10
-160.000052
 20
257.250059
 42
0.000000
 10
-156.632437
 20
257.250059
 42
0.263447
 10
-154.917447
 20
258.221064
 42
0.000000
 10
-154.000052
 20
259.750059
 42
0.000000
 10
-154.000052
 20
260.750059
 42
0.414211
 10
-154.500052
 20
261.250059
 42
0.000000
 10
-155.000052
 20
261.250059
 42
-0.414216
 10
-155.500052
 20
261.750059
 42
0.000000
 10
-155.500052
 20
264.270259
 42
-0.356394
 10
-154.700052
 20
265.250059
 42
0.000000
 10
-143.943508
 20
260.234199
 42
-0.291473
 10
-142.500053
 20
257.968429
 42
0.000000
 97
     0
 75
     0
 76
     0
 52
0.000000
 41
1.000000
 77
     0
 78
     1
 53
45.000000
 43
-0.000000
 44
0.000000
 45
-2.209705
 46
2.209705
 79
     0
 98
     0
  0
POLYLINE
  5
358
100
AcDbEntity
  8
Detail
 66
     1
  6
CONTINUOUS
 62
     3
100
AcDb2dPolyline
  0
VERTEX
  5
359
100
AcDbEntity
  8
Detail
100
AcDbVertex
100
AcDb2dVertex
 10
-142.500053
 20
257.968429
 42
0.291473
  0
VERTEX
  5
35A
100
AcDbEntity
  8
Detail
100
AcDbVertex
100
AcDb2dVertex
 10
-143.943508
 20
260.234199
 42
0.000000
  0
VERTEX
  5
35B
100
AcDbEntity
  8
Detail
100
AcDbVertex
100
AcDb2dVertex
 10
-154.700053
 20
265.250059
 42
0.356395
  0
VERTEX
  5
35C
100
AcDbEntity
  8
Detail
100
AcDbVertex
100
AcDb2dVertex
 10
-155.500057
 20
264.270259
 42
0.000000
  0
VERTEX
  5
35D
100
AcDbEntity
  8
Detail
100
AcDbVertex
100
AcDb2dVertex
 10
-155.500053
 20
261.750059
 42
0.414216
  0
VERTEX
  5
35E
100
AcDbEntity
  8
Detail
100
AcDbVertex
100
AcDb2dVertex
 10
-155.000053
 20
261.250059
 42
0.000000
  0
VERTEX
  5
35F
100
AcDbEntity
  8
Detail
100
AcDbVertex
100
AcDb2dVertex
 10
-154.500053
 20
261.250059
 42
-0.414211
  0
VERTEX
  5
360
100
AcDbEntity
  8
Detail
100
AcDbVertex
100
AcDb2dVertex
 10
-154.000053
 20
260.750059
 42
0.000000
  0
VERTEX
  5
361
100
AcDbEntity
  8
Detail
100
AcDbVertex
100
AcDb2dVertex
 10
-154.000053
 20
259.750059
 42
0.000000
  0
VERTEX
  5
362
100
AcDbEntity
  8
Detail
100
AcDbVertex
100
AcDb2dVertex
 10
-154.917448
 20
258.221064
 42
-0.263447
  0
VERTEX
  5
363
100
AcDbEntity
  8
Detail
100
AcDbVertex
100
AcDb2dVertex
 10
-156.632438
 20
257.250054
 42
0.000000
  0
VERTEX
  5
364
100
AcDbEntity
  8
Detail
100
AcDbVertex
100
AcDb2dVertex
 10
-160.000053
 20
257.250059
 42
0.000000
  0
VERTEX
  5
365
100
AcDbEntity
  8
Detail
100
AcDbVertex
100
AcDb2dVertex
 10
-160.500053
 20
256.750059
 42
0.000000
  0
VERTEX
  5
366
100
AcDbEntity
  8
Detail
100
AcDbVertex
100
AcDb2dVertex
 10
-160.500053
 20
248.550059
 42
-0.576923
  0
VERTEX
  5
367
100
AcDbEntity
  8
Detail
100
AcDbVertex
100
AcDb2dVertex
 10
-162.748390
 20
247.250056
 42
0.000000
  0
VERTEX
  5
368
100
AcDbEntity
  8
Detail
100
AcDbVertex
100
AcDb2dVertex
 10
-164.732728
 20
247.250059
 42
0.339455
  0
VERTEX
  5
369
100
AcDbEntity
  8
Detail
100
AcDbVertex
100
AcDb2dVertex
 10
-165.698656
 20
246.508875
 42
0.000000
  0
VERTEX
  5
36A
100
AcDbEntity
  8
Detail
100
AcDbVertex
100
AcDb2dVertex
 10
-166.710553
 20
242.732419
 42
-0.339454
  0
VERTEX
  5
36B
100
AcDbEntity
  8
Detail
100
AcDbVertex
100
AcDb2dVertex
 10
-168.642403
 20
241.250057
 42
0.000000
  0
VERTEX
  5
36C
100
AcDbEntity
  8
Detail
100
AcDbVertex
100
AcDb2dVertex
 10
-171.857708
 20
241.250059
 42
-0.339454
  0
VERTEX
  5
36D
100
AcDbEntity
  8
Detail
100
AcDbVertex
100
AcDb2dVertex
 10
-173.789555
 20
242.732420
 42
0.000000
  0
VERTEX
  5
36E
100
AcDbEntity
  8
Detail
100
AcDbVertex
100
AcDb2dVertex
 10
-174.801458
 20
246.508874
 42
0.339455
  0
VERTEX
  5
36F
100
AcDbEntity
  8
Detail
100
AcDbVertex
100
AcDb2dVertex
 10
-175.767383
 20
247.250055
 42
0.000000
  0
VERTEX
  5
370
100
AcDbEntity
  8
Detail
100
AcDbVertex
100
AcDb2dVertex
 10
-199.000053
 20
247.250059
 42
0.414213
  0
VERTEX
  5
371
100
AcDbEntity
  8
Detail
100
AcDbVertex
100
AcDb2dVertex
 10
-200.000057
 20
246.250059
 42
0.000000
  0
VERTEX
  5
372
100
AcDbEntity
  8
Detail
100
AcDbVertex
100
AcDb2dVertex
 10
-200.000053
 20
243.250059
 42
0.000000
  0
VERTEX
  5
373
100
AcDbEntity
  8
Detail
100
AcDbVertex
100
AcDb2dVertex
 10
-205.500053
 20
243.250059
 42
0.000000
  0
VERTEX
  5
374
100
AcDbEntity
  8
Detail
100
AcDbVertex
100
AcDb2dVertex
 10
-205.500053
 20
246.250059
 42
0.414212
  0
VERTEX
  5
375
100
AcDbEntity
  8
Detail
100
AcDbVertex
100
AcDb2dVertex
 10
-206.500053
 20
247.250059
 42
0.000000
  0
VERTEX
  5
376
100
AcDbEntity
  8
Detail
100
AcDbVertex
100
AcDb2dVertex
 10
-208.000053
 20
247.250059
 42
0.414214
  0
VERTEX
  5
377
100
AcDbEntity
  8
Detail
100
AcDbVertex
100
AcDb2dVertex
 10
-210.500057
 20
244.750059
 42
0.000000
  0
VERTEX
  5
378
100
AcDbEntity
  8
Detail
100
AcDbVertex
100
AcDb2dVertex
 10
-210.500053
 20
194.750059
 42
0.414214
  0
VERTEX
  5
379
100
AcDbEntity
  8
Detail
100
AcDbVertex
100
AcDb2dVertex
 10
-208.000053
 20
192.250059
 42
0.000000
  0
VERTEX
  5
37A
100
AcDbEntity
  8
Detail
100
AcDbVertex
100
AcDb2dVertex
 10
-192.000018
 20
192.250059
 42
0.414214
  0
VERTEX
  5
37B
100
AcDbEntity
  8
Detail
100
AcDbVertex
100
AcDb2dVertex
 10
-190.500020
 20
193.750059
 42
0.000000
  0
VERTEX
  5
37C
100
AcDbEntity
  8
Detail
100
AcDbVertex
100
AcDb2dVertex
 10
-190.500018
 20
210.250059
 42
-0.414213
  0
VERTEX
  5
37D
100
AcDbEntity
  8
Detail
100
AcDbVertex
100
AcDb2dVertex
 10
-188.500018
 20
212.250057
 42
0.000000
  0
VERTEX
  5
37E
100
AcDbEntity
  8
Detail
100
AcDbVertex
100
AcDb2dVertex
 10
-165.000018
 20
212.250059
 42
0.414214
  0
VERTEX
  5
37F
100
AcDbEntity
  8
Detail
100
AcDbVertex
100
AcDb2dVertex
 10
-163.500020
 20
213.750059
 42
0.000000
  0
VERTEX
  5
380
100
AcDbEntity
  8
Detail
100
AcDbVertex
100
AcDb2dVertex
 10
-163.500018
 20
222.250059
 42
-0.414213
  0
VERTEX
  5
381
100
AcDbEntity
  8
Detail
100
AcDbVertex
100
AcDb2dVertex
 10
-161.500018
 20
224.250057
 42
0.000000
  0
VERTEX
  5
382
100
AcDbEntity
  8
Detail
100
AcDbVertex
100
AcDb2dVertex
 10
-159.151008
 20
224.250059
 42
0.339454
  0
VERTEX
  5
383
100
AcDbEntity
  8
Detail
100
AcDbVertex
100
AcDb2dVertex
 10
-157.702122
 20
225.361830
 42
0.000000
  0
VERTEX
  5
384
100
AcDbEntity
  8
Detail
100
AcDbVertex
100
AcDb2dVertex
 10
-156.958168
 20
228.138284
 42
-0.339454
  0
VERTEX
  5
385
100
AcDbEntity
  8
Detail
100
AcDbVertex
100
AcDb2dVertex
 10
-155.509283
 20
229.250054
 42
0.000000
  0
VERTEX
  5
386
100
AcDbEntity
  8
Detail
100
AcDbVertex
100
AcDb2dVertex
 10
-152.990753
 20
229.250059
 42
-0.339454
  0
VERTEX
  5
387
100
AcDbEntity
  8
Detail
100
AcDbVertex
100
AcDb2dVertex
 10
-151.541863
 20
228.138285
 42
0.000000
  0
VERTEX
  5
388
100
AcDbEntity
  8
Detail
100
AcDbVertex
100
AcDb2dVertex
 10
-150.797918
 20
225.361829
 42
0.339454
  0
VERTEX
  5
389
100
AcDbEntity
  8
Detail
100
AcDbVertex
100
AcDb2dVertex
 10
-149.349028
 20
224.250055
 42
0.000000
  0
VERTEX
  5
38A
100
AcDbEntity
  8
Detail
100
AcDbVertex
100
AcDb2dVertex
 10
-147.500018
 20
224.250059
 42
0.414214
  0
VERTEX
  5
38B
100
AcDbEntity
  8
Detail
100
AcDbVertex
100
AcDb2dVertex
 10
-146.000020
 20
225.750059
 42
0.000000
  0
VERTEX
  5
38C
100
AcDbEntity
  8
Detail
100
AcDbVertex
100
AcDb2dVertex
 10
-146.000018
 20
234.715404
 42
-0.339454
  0
VERTEX
  5
38D
100
AcDbEntity
  8
Detail
100
AcDbVertex
100
AcDb2dVertex
 10
-144.517658
 20
236.647254
 42
0.000000
  0
VERTEX
  5
38E
100
AcDbEntity
  8
Detail
 62
     2
100
AcDbVertex
100
AcDb2dVertex
 10
-143.982378
 20
236.790679
 42
0.339454
  0
VERTEX
  5
38F
100
AcDbEntity
  8
Detail
100
AcDbVertex
100
AcDb2dVertex
 10
-142.500015
 20
238.722534
 42
0.000000
  0
VERTEX
  5
390
100
AcDbEntity
  8
Detail
100
AcDbVertex
100
AcDb2dVertex
 10
-142.500053
 20
257.968429
 42
0.000000
  0
SEQEND
  5
391
100
AcDbEntity
  8
Detail
  0
LWPOLYLINE
  5
392
100
AcDbEntity
  8
Detail
  6
CONTINUOUS
 62
     4
100
AcDbPolyline
 90
     4
 10
-154.700053
 20
265.250059
 42
0.000000
 10
-160.500053
 20
267.250059
 42
0.000000
 10
-160.500053
 20
258.250059
 42
0.414215
 10
-159.500053
 20
257.250059
 42
0.000000
  0
ENDBLK
  5
397
100
AcDbEntity
  8
0
100
AcDbBlockEnd
  0
BLOCK
  5
398
100
AcDbEntity
  8
Detail
100
AcDbBlockBegin
  2
w-schenkel
 70
    66
 10
0.000000
 20
0.000000
 30
0.000000
  0
LWPOLYLINE
  5
399
100
AcDbEntity
  8
Detail
  6
CONTINUOUS
 62
     4
100
AcDbPolyline
 90
    41
 10
-129.905253
 20
185.430619
 42
0.000000
 10
-127.524118
 20
184.805829
 42
0.876982
 10
-127.237832
 20
185.507270
 42
0.000000
 10
-128.801448
 20
186.399224
 42
-0.876979
 10
-128.426797
 20
187.317161
 42
0.000000
 10
-95.296504
 20
178.624084
 42
-0.339454
 10
-94.102606
 20
177.084785
 42
0.000000
 10
-94.078684
 20
172.478255
 42
-0.668178
 10
-94.760043
 20
172.191871
 42
0.000000
 10
-95.397649
 20
172.822880
 42
0.668178
 10
-96.079007
 20
172.536495
 42
0.000000
 10
-96.071729
 20
171.134565
 42
0.267949
 10
-95.970834
 20
170.961880
 42
0.000000
 10
-93.062174
 20
169.302645
 42
0.577351
 10
-92.463981
 20
169.652170
 42
0.000000
 10
-92.502629
 20
177.093095
 42
0.339454
 10
-94.890430
 20
180.171695
 42
0.000000
 10
-145.205527
 20
193.373898
 42
-0.339455
 10
-146.697907
 20
195.298028
 42
0.000000
 10
-146.721612
 20
199.863313
 42
0.414214
 10
-146.922652
 20
200.062274
 42
0.000000
 10
-148.522627
 20
200.053958
 42
0.414220
 10
-148.721585
 20
199.852923
 42
0.000000
 10
-148.717862
 20
199.135948
 42
0.198912
 10
-148.658551
 20
198.994834
 42
0.000000
 10
-148.474762
 20
198.812938
 42
-0.414208
 10
-148.473294
 20
198.530105
 42
0.000000
 10
-148.655182
 20
198.346313
 42
0.198916
 10
-148.713026
 20
198.204588
 42
0.000000
 10
-148.706437
 20
196.935978
 42
0.198912
 10
-148.647126
 20
196.794864
 42
0.000000
 10
-148.463337
 20
196.612968
 42
-0.414210
 10
-148.461869
 20
196.330135
 42
0.000000
 10
-148.643757
 20
196.146343
 42
0.198915
 10
-148.701601
 20
196.004618
 42
0.000000
 10
-148.697877
 20
195.287638
 42
0.339454
 10
-145.713127
 20
191.439388
 42
0.000000
 10
-131.028233
 20
187.586209
 42
-0.339454
 10
-130.655140
 20
187.105179
 42
0.000000
 10
-130.651438
 20
186.392679
 42
0.339453
 10
-129.905253
 20
185.430619
 42
0.000000
  0
LWPOLYLINE
  5
3C3
100
AcDbEntity
  8
Detail
  6
CONTINUOUS
 62
     4
100
AcDbPolyline
 90
   126
 10
-151.473847
 20
201.705703
 42
0.000000
 10
-153.010307
 20
201.786223
 42
-0.198916
 10
-153.148472
 20
201.852123
 42
0.000000
 10
-153.321492
 20
202.044283
 42
0.414216
 10
-153.603949
 20
202.059090
 42
0.000000
 10
-153.796112
 20
201.886063
 42
-0.198906
 10
-153.940402
 20
201.834967
 42
0.000000
 10
-155.207292
 20
201.901363
 42
-0.198916
 10
-155.345457
 20
201.967263
 42
0.000000
 10
-155.518477
 20
202.159423
 42
0.414214
 10
-155.800934
 20
202.174230
 42
0.000000
 10
-155.993097
 20
202.001203
 42
-0.198907
 10
-156.137387
 20
201.950107
 42
0.000000
 10
-157.673847
 20
202.030628
 42
0.429637
 10
-158.200016
 20
201.531313
 42
0.000000
 10
-158.200017
 20
199.530898
 42
0.339453
 10
-157.829427
 20
199.047938
 42
0.000000
 10
-156.670607
 20
198.737433
 42
-0.339454
 10
-156.300017
 20
198.254468
 42
0.000000
 10
-156.300017
 20
197.950058
 42
-0.414214
 10
-156.500017
 20
197.750056
 42
0.000000
 10
-158.585872
 20
197.750058
 42
-0.201515
 10
-158.942946
 20
197.900059
 42
0.881407
 10
-159.733033
 20
197.300058
 42
0.000000
 10
-159.567002
 20
197.012493
 42
-0.131652
 10
-159.500015
 20
196.762493
 42
0.000000
 10
-159.500017
 20
195.817043
 42
-0.131652
 10
-159.633992
 20
195.317043
 42
0.000000
 10
-160.116042
 20
194.482108
 42
0.131653
 10
-160.250017
 20
193.982108
 42
0.000000
 10
-160.250017
 20
191.734178
 42
0.341998
 10
-159.875017
 20
191.250058
 42
-0.341998
 10
-159.500017
 20
190.765934
 42
0.000000
 10
-159.500017
 20
189.518004
 42
-0.131652
 10
-159.633992
 20
189.018004
 42
0.000000
 10
-160.366042
 20
187.750059
 42
-0.267949
 10
-161.232067
 20
187.250057
 42
0.000000
 10
-162.187582
 20
187.250059
 42
-0.267950
 10
-163.053607
 20
187.750059
 42
0.000000
 10
-163.659827
 20
188.800059
 42
-0.637069
 10
-163.347922
 20
189.245499
 42
0.000000
 10
-163.109102
 20
189.203389
 42
0.637070
 10
-162.589266
 20
189.945792
 42
0.000000
 10
-163.659827
 20
191.800058
 42
-0.637070
 10
-163.347922
 20
192.245499
 42
0.000000
 10
-163.109102
 20
192.203388
 42
0.637069
 10
-162.589265
 20
192.945792
 42
0.000000
 10
-163.659827
 20
194.800058
 42
-0.637070
 10
-163.347922
 20
195.245499
 42
0.000000
 10
-163.109102
 20
195.203388
 42
0.637069
 10
-162.589265
 20
195.945792
 42
0.000000
 10
-163.133032
 20
196.887618
 42
-0.131652
 10
-163.200021
 20
197.137618
 42
0.000000
 10
-163.200017
 20
198.250058
 42
-0.414213
 10
-162.700017
 20
198.750056
 42
0.000000
 10
-161.563987
 20
198.750058
 42
0.176327
 10
-160.921202
 20
198.984013
 42
0.000000
 10
-160.057227
 20
199.708968
 42
0.221694
 10
-159.700015
 20
200.475013
 42
0.000000
 10
-159.700017
 20
207.967213
 42
-0.198914
 10
-159.641439
 20
208.108635
 42
0.000000
 10
-159.558597
 20
208.191478
 42
0.198911
 10
-159.500018
 20
208.332898
 42
0.000000
 10
-159.500017
 20
211.250058
 42
-0.414213
 10
-158.500017
 20
212.250056
 42
0.000000
 10
-157.000017
 20
212.250058
 42
-0.414212
 10
-156.500017
 20
211.750058
 42
0.000000
 10
-156.500017
 20
211.435643
 42
-0.339453
 10
-156.870608
 20
210.952680
 42
0.000000
 10
-157.629427
 20
210.749353
 42
0.339454
 10
-158.000015
 20
210.266393
 42
0.000000
 10
-158.000017
 20
204.224538
 42
0.398958
 10
-157.526187
 20
203.725225
 42
0.000000
 10
-135.526188
 20
202.572253
 42
0.429635
 10
-135.000018
 20
203.071568
 42
0.000000
 10
-135.000018
 20
220.079683
 42
0.291474
 10
-135.288707
 20
220.532839
 42
0.000000
 10
-143.288707
 20
224.263298
 42
0.548620
 10
-144.000016
 20
223.810148
 42
0.000000
 10
-144.000017
 20
221.711793
 42
0.113936
 10
-143.949414
 20
221.492607
 42
0.000000
 10
-142.727122
 20
218.986533
 42
-0.999999
 10
-144.075309
 20
218.328974
 42
0.000000
 10
-145.095192
 20
220.420043
 42
-0.113936
 10
-145.500017
 20
222.173528
 42
0.000000
 10
-145.500017
 20
229.500058
 42
-0.999998
 10
-144.000017
 20
229.500058
 42
0.000000
 10
-144.000017
 20
226.568593
 42
0.291474
 10
-143.711327
 20
226.115439
 42
0.000000
 10
-134.366093
 20
221.757683
 42
-0.291474
 10
-133.500019
 20
220.398218
 42
0.000000
 10
-133.500018
 20
199.750058
 42
-0.414214
 10
-134.000018
 20
199.250057
 42
0.000000
 10
-134.500018
 20
199.250058
 42
-0.414214
 10
-135.000017
 20
199.750058
 42
0.000000
 10
-135.000018
 20
200.367863
 42
0.398958
 10
-135.473848
 20
200.867177
 42
0.000000
 10
-148.973847
 20
201.574683
 42
0.429635
 10
-149.500019
 20
201.075368
 42
0.000000
 10
-149.500017
 20
200.031308
 42
0.043659
 10
-149.492421
 20
199.944488
 42
0.000000
 10
-148.162612
 20
192.402758
 42
0.363970
 10
-146.192997
 20
190.750056
 42
0.000000
 10
-143.208387
 20
190.750059
 42
-0.096290
 10
-143.021081
 20
190.713651
 42
0.000000
 10
-133.812713
 20
186.993229
 42
-0.305731
 10
-133.500015
 20
186.529634
 42
0.000000
 10
-133.500018
 20
185.750059
 42
-0.414215
 10
-134.000018
 20
185.250057
 42
0.000000
 10
-135.505578
 20
185.250059
 42
-0.464665
 10
-135.998442
 20
185.834219
 42
0.352599
 10
-136.304008
 20
186.381975
 42
0.000000
 10
-143.312652
 20
189.213649
 42
0.096290
 10
-143.499957
 20
189.250057
 42
0.000000
 10
-146.799047
 20
189.250059
 42
-0.153915
 10
-147.946202
 20
189.611754
 42
0.000000
 10
-150.786807
 20
191.600763
 42
-0.244697
 10
-151.000019
 20
192.010338
 42
0.000000
 10
-151.000017
 20
193.250058
 42
-0.414213
 10
-150.500017
 20
193.750056
 42
0.000000
 10
-150.400017
 20
193.750058
 42
0.466304
 10
-150.006095
 20
194.219512
 42
0.000000
 10
-150.992422
 20
199.813253
 42
-0.043661
 10
-151.000018
 20
199.900078
 42
0.000000
 10
-151.000017
 20
201.206388
 42
0.398957
 10
-151.473847
 20
201.705703
 42
0.000000
  0
POLYLINE
  5
442
100
AcDbEntity
  8
Detail
 66
     1
  6
CONTINUOUS
 62
     4
100
AcDb2dPolyline
  0
VERTEX
  5
443
100
AcDbEntity
  8
Detail
100
AcDbVertex
100
AcDb2dVertex
 10
-161.400182
 20
217.804548
 42
-0.203482
  0
VERTEX
  5
444
100
AcDbEntity
  8
Detail
100
AcDbVertex
100
AcDb2dVertex
 10
-161.450190
 20
218.584514
 42
0.308189
  0
VERTEX
  5
445
100
AcDbEntity
  8
Detail
100
AcDbVertex
100
AcDb2dVertex
 10
-161.282260
 20
218.858453
 42
0.887234
  0
VERTEX
  5
446
100
AcDbEntity
  8
Detail
100
AcDbVertex
100
AcDb2dVertex
 10
-162.274112
 20
218.813253
 42
0.000000
  0
VERTEX
  5
447
100
AcDbEntity
  8
Detail
100
AcDbVertex
100
AcDb2dVertex
 10
-162.698667
 20
212.779384
 42
-0.679249
  0
VERTEX
  5
448
100
AcDbEntity
  8
Detail
100
AcDbVertex
100
AcDb2dVertex
 10
-163.408330
 20
212.557017
 42
-0.150742
  0
VERTEX
  5
449
100
AcDbEntity
  8
Detail
100
AcDbVertex
100
AcDb2dVertex
 10
-163.507204
 20
212.803214
 42
0.000000
  0
VERTEX
  5
44A
100
AcDbEntity
  8
Detail
100
AcDbVertex
100
AcDb2dVertex
 10
-163.272797
 20
218.865993
 42
-0.210504
  0
VERTEX
  5
44B
100
AcDbEntity
  8
Detail
100
AcDbVertex
100
AcDb2dVertex
 10
-162.719966
 20
219.941682
 42
-0.183556
  0
VERTEX
  5
44C
100
AcDbEntity
  8
Detail
100
AcDbVertex
100
AcDb2dVertex
 10
-162.188707
 20
220.226153
 42
-0.320371
  0
VERTEX
  5
44D
100
AcDbEntity
  8
Detail
100
AcDbVertex
100
AcDb2dVertex
 10
-160.612436
 20
219.481539
 42
0.000000
  0
VERTEX
  5
44E
100
AcDbEntity
  8
Detail
100
AcDbVertex
100
AcDb2dVertex
 10
-157.966483
 20
215.307849
 42
0.000000
  0
VERTEX
  5
44F
100
AcDbEntity
  8
Detail
 62
     3
100
AcDbVertex
100
AcDb2dVertex
 10
-157.757133
 20
214.921254
 42
0.000000
  0
VERTEX
  5
450
100
AcDbEntity
  8
Detail
100
AcDbVertex
100
AcDb2dVertex
 10
-156.721683
 20
212.779914
 42
-0.082846
  0
VERTEX
  5
451
100
AcDbEntity
  8
Detail
 62
     3
100
AcDbVertex
100
AcDb2dVertex
 10
-156.700018
 20
212.650059
 42
-0.718683
  0
VERTEX
  5
452
100
AcDbEntity
  8
Detail
100
AcDbVertex
100
AcDb2dVertex
 10
-157.418699
 20
212.408308
 42
0.000000
  0
VERTEX
  5
453
100
AcDbEntity
  8
Detail
 62
     3
100
AcDbVertex
100
AcDb2dVertex
 10
-157.469523
 20
212.475304
 42
0.234622
  0
VERTEX
  5
454
100
AcDbEntity
  8
Detail
100
AcDbVertex
100
AcDb2dVertex
 10
-158.425562
 20
212.850056
 42
0.000000
  0
VERTEX
  5
455
100
AcDbEntity
  8
Detail
 62
     3
100
AcDbVertex
100
AcDb2dVertex
 10
-158.509657
 20
212.850059
 42
0.500491
  0
VERTEX
  5
456
100
AcDbEntity
  8
Detail
100
AcDbVertex
100
AcDb2dVertex
 10
-159.700019
 20
210.403833
 42
0.000000
  0
VERTEX
  5
457
100
AcDbEntity
  8
Detail
100
AcDbVertex
100
AcDb2dVertex
 10
-159.700017
 20
202.000059
 42
-0.414214
  0
VERTEX
  5
458
100
AcDbEntity
  8
Detail
100
AcDbVertex
100
AcDb2dVertex
 10
-160.950017
 20
200.750056
 42
-0.198912
  0
VERTEX
  5
459
100
AcDbEntity
  8
Detail
100
AcDbVertex
100
AcDb2dVertex
 10
-161.907123
 20
201.042948
 42
0.000000
  0
VERTEX
  5
45A
100
AcDbEntity
  8
Detail
100
AcDbVertex
100
AcDb2dVertex
 10
-163.700017
 20
202.835844
 42
0.000000
  0
VERTEX
  5
45B
100
AcDbEntity
  8
Detail
100
AcDbVertex
100
AcDb2dVertex
 10
-163.700017
 20
203.542949
 42
0.000000
  0
VERTEX
  5
45C
100
AcDbEntity
  8
Detail
100
AcDbVertex
100
AcDb2dVertex
 10
-162.002662
 20
202.493029
 42
0.723528
  0
VERTEX
  5
45D
100
AcDbEntity
  8
Detail
100
AcDbVertex
100
AcDb2dVertex
 10
-161.711761
 20
202.737420
 42
0.231341
  0
VERTEX
  5
45E
100
AcDbEntity
  8
Detail
100
AcDbVertex
100
AcDb2dVertex
 10
-163.664236
 20
206.367530
 42
-0.095441
  0
VERTEX
  5
45F
100
AcDbEntity
  8
Detail
100
AcDbVertex
100
AcDb2dVertex
 10
-163.700017
 20
206.553274
 42
0.000000
  0
VERTEX
  5
460
100
AcDbEntity
  8
Detail
100
AcDbVertex
100
AcDb2dVertex
 10
-163.700017
 20
207.008439
 42
-0.305613
  0
VERTEX
  5
461
100
AcDbEntity
  8
Detail
100
AcDbVertex
100
AcDb2dVertex
 10
-163.512517
 20
207.286544
 42
0.724201
  0
VERTEX
  5
462
100
AcDbEntity
  8
Detail
100
AcDbVertex
100
AcDb2dVertex
 10
-163.700017
 20
208.250058
 42
0.000000
  0
VERTEX
  5
463
100
AcDbEntity
  8
Detail
100
AcDbVertex
100
AcDb2dVertex
 10
-165.300017
 20
208.250059
 42
-0.373803
  0
VERTEX
  5
464
100
AcDbEntity
  8
Detail
100
AcDbVertex
100
AcDb2dVertex
 10
-165.696107
 20
208.594274
 42
-0.146796
  0
VERTEX
  5
465
100
AcDbEntity
  8
Detail
100
AcDbVertex
100
AcDb2dVertex
 10
-165.678747
 20
208.707914
 42
-0.243289
  0
VERTEX
  5
466
100
AcDbEntity
  8
Detail
100
AcDbVertex
100
AcDb2dVertex
 10
-164.330762
 20
209.569213
 42
0.000000
  0
VERTEX
  5
467
100
AcDbEntity
  8
Detail
100
AcDbVertex
100
AcDb2dVertex
 10
-162.807732
 20
209.826029
 42
0.308709
  0
VERTEX
  5
468
100
AcDbEntity
  8
Detail
100
AcDbVertex
100
AcDb2dVertex
 10
-162.157670
 20
210.451229
 42
0.000000
  0
VERTEX
  5
469
100
AcDbEntity
  8
Detail
100
AcDbVertex
100
AcDb2dVertex
 10
-161.751882
 20
212.392779
 42
-0.305486
  0
VERTEX
  5
46A
100
AcDbEntity
  8
Detail
100
AcDbVertex
100
AcDb2dVertex
 10
-160.550427
 20
213.561982
 42
0.446187
  0
VERTEX
  5
46B
100
AcDbEntity
  8
Detail
100
AcDbVertex
100
AcDb2dVertex
 10
-159.925393
 20
214.575494
 42
0.000000
  0
VERTEX
  5
46C
100
AcDbEntity
  8
Detail
100
AcDbVertex
100
AcDb2dVertex
 10
-161.400182
 20
217.804548
 42
0.000000
  0
SEQEND
  5
46D
100
AcDbEntity
  8
Detail
  0
ENDBLK
  5
46E
100
AcDbEntity
  8
0
100
AcDbBlockEnd
  0
BLOCK
  5
46F
100
AcDbEntity
  8
Detail
100
AcDbBlockBegin
  2
glas
 70
    66
 10
0.000000
 20
0.000000
 30
0.000000
  0
LWPOLYLINE
  5
470
100
AcDbEntity
  8
Detail
  6
CONTINUOUS
 62
     4
100
AcDbPolyline
 90
     2
 10
-164.500052
 20
252.250059
 42
0.000000
 10
-164.500052
 20
292.988653
 42
0.000000
  0
LWPOLYLINE
  5
473
100
AcDbEntity
  8
Detail
  6
CONTINUOUS
 62
     4
100
AcDbPolyline
 90
     2
 10
-180.492240
 20
252.250061
 42
0.000000
 10
-180.492240
 20
292.988655
 42
0.000000
  0
LWPOLYLINE
  5
476
100
AcDbEntity
  8
Detail
  6
CONTINUOUS
 62
     4
100
AcDbPolyline
 90
     2
 10
-164.500052
 20
266.250059
 42
0.000000
 10
-164.500052
 20
252.250059
 42
0.000000
  0
LWPOLYLINE
  5
479
100
AcDbEntity
  8
Detail
  6
CONTINUOUS
 62
     4
100
AcDbPolyline
 90
     3
 10
-180.492240
 20
252.250061
 42
0.000000
 10
-180.492240
 20
266.250061
 42
0.000000
 10
-164.500052
 20
266.250059
 42
0.000000
  0
LWPOLYLINE
  5
47D
100
AcDbEntity
  8
Detail
  6
CONTINUOUS
 62
     4
100
AcDbPolyline
 90
     2
 10
-184.492241
 20
292.988656
 42
0.000000
 10
-184.492241
 20
252.250062
 42
0.000000
  0
LWPOLYLINE
  5
480
100
AcDbEntity
  8
Detail
  6
CONTINUOUS
 62
     4
100
AcDbPolyline
 90
     2
 10
-160.500053
 20
252.250060
 42
0.000000
 10
-160.500053
 20
292.988654
 42
0.000000
  0
LWPOLYLINE
  5
483
100
AcDbEntity
  8
Detail
  6
CONTINUOUS
 62
     4
100
AcDbPolyline
 90
     2
 10
-184.492241
 20
252.250062
 42
0.000000
 10
-180.492240
 20
252.250061
 42
0.000000
  0
LWPOLYLINE
  5
486
100
AcDbEntity
  8
Detail
  6
CONTINUOUS
 62
     4
100
AcDbPolyline
 90
     2
 10
-164.500052
 20
252.250059
 42
0.000000
 10
-160.500053
 20
252.250060
 42
0.000000
  0
LWPOLYLINE
  5
489
100
AcDbEntity
  8
Detail
  6
CONTINUOUS
 62
     4
100
AcDbPolyline
 90
     2
 10
-164.500052
 20
252.250059
 42
0.000000
 10
-180.492240
 20
252.250061
 42
0.000000
  0
LWPOLYLINE
  5
48C
100
AcDbEntity
  8
Detail
  6
CONTINUOUS
 62
     4
100
AcDbPolyline
 90
     2
 10
-164.500052
 20
256.250059
 42
0.000000
 10
-180.492240
 20
256.250061
 42
0.000000
  0
ENDBLK
  5
48F
100
AcDbEntity
  8
0
100
AcDbBlockEnd
  0
BLOCK
  5
490
100
AcDbEntity
  8
Detail
100
AcDbBlockBegin
  2
B-39
 70
    66
 10
0.000000
 20
0.000000
 30
0.000000
  0
MTEXT
  5
491
100
AcDbEntity
  8
Detail
 62
     7
100
AcDbMText
 10
79.375023
 20
187.750160
 30
0.000000
 40
4.999995
 41
63.577436
 71
     1
 72
     5
  1
Fensterbanksystem
  7
Arial
 50
0.000000
  0
ENDBLK
  5
492
100
AcDbEntity
  8
0
100
AcDbBlockEnd
  0
BLOCK
  5
493
100
AcDbEntity
  8
Detail
100
AcDbBlockBegin
  2
B-40
 70
    66
 10
0.000000
 20
0.000000
 30
0.000000
  0
MTEXT
  5
494
100
AcDbEntity
  8
Detail
 62
     7
100
AcDbMText
 10
79.375023
 20
162.750160
 30
0.000000
 40
4.999995
 41
63.577436
 71
     1
 72
     5
  1
Fugendichtband 2D
  7
Arial
 50
0.000000
  0
ENDBLK
  5
495
100
AcDbEntity
  8
0
100
AcDbBlockEnd
  0
BLOCK
  5
496
100
AcDbEntity
  8
SCHRAFF
100
AcDbBlockBegin
  2
B-41
 70
    66
 10
0.000000
 20
0.000000
 30
0.000000
  0
HATCH
  5
497
100
AcDbEntity
  8
SCHRAFF
 62
     7
440
     0
100
AcDbHatch
 10
0.000000
 20
0.000000
 30
0.000000
210
0.000000
220
0.000000
230
1.000000
  2
SOLID
 70
     1
 71
     1
 91
     1
 92
    18
 72
     1
 73
     0
 93
     3
 10
-23.000016
 20
156.040515
 42
1.000000
 10
-24.000016
 20
156.040515
 42
1.000000
 10
-23.000016
 20
156.040515
 42
0.000000
 97
     0
 75
     0
 76
     1
 98
     0
  0
CIRCLE
  5
498
100
AcDbEntity
  8
Detail
  6
CONTINUOUS
 62
     7
100
AcDbCircle
 10
-23.500016
 20
156.040515
 40
0.500000
  0
ENDBLK
  5
499
100
AcDbEntity
  8
0
100
AcDbBlockEnd
  0
BLOCK
  5
49A
100
AcDbEntity
  8
Detail
100
AcDbBlockBegin
  2
B-42
 70
    66
 10
0.000000
 20
0.000000
 30
0.000000
  0
LWPOLYLINE
  5
49B
100
AcDbEntity
  8
Detail
  6
CONTINUOUS
 62
     7
100
AcDbPolyline
 90
     2
 10
77.500023
 20
-14.749941
 42
0.000000
 10
-80.000018
 20
-14.749941
 42
0.000000
  0
ENDBLK
  5
49E
100
AcDbEntity
  8
0
100
AcDbBlockEnd
  0
BLOCK
  5
49F
100
AcDbEntity
  8
Detail
100
AcDbBlockBegin
  2
B-43
 70
    66
 10
0.000000
 20
0.000000
 30
0.000000
  0
LWPOLYLINE
  5
4A0
100
AcDbEntity
  8
Detail
  6
CONTINUOUS
 62
     7
100
AcDbPolyline
 90
     2
 10
77.500023
 20
-39.749941
 42
0.000000
 10
-16.014215
 20
-39.749941
 42
0.000000
  0
LWPOLYLINE
  5
4A3
100
AcDbEntity
  8
Detail
  6
CONTINUOUS
 62
     7
100
AcDbPolyline
 90
     2
 10
77.500023
 20
10.250059
 42
0.000000
 10
-37.500018
 20
10.250059
 42
0.000000
  0
LWPOLYLINE
  5
4A6
100
AcDbEntity
  8
Detail
  6
CONTINUOUS
 62
     7
100
AcDbPolyline
 90
     2
 10
77.500023
 20
35.250059
 42
0.000000
 10
7.499982
 20
35.250059
 42
0.000000
  0
LWPOLYLINE
  5
4A9
100
AcDbEntity
  8
Detail
  6
CONTINUOUS
 62
     7
100
AcDbPolyline
 90
     3
 10
77.500023
 20
185.250059
 42
0.000000
 10
-23.500016
 20
185.250059
 42
0.000000
 10
-23.500016
 20
156.040515
 42
0.000000
  0
LWPOLYLINE
  5
4AD
100
AcDbEntity
  8
Detail
  6
CONTINUOUS
 62
     7
100
AcDbPolyline
 90
     2
 10
77.500023
 20
60.250059
 42
0.000000
 10
17.499982
 20
60.250059
 42
0.000000
  0
ENDBLK
  5
4B0
100
AcDbEntity
  8
0
100
AcDbBlockEnd
  0
BLOCK
  5
4B1
100
AcDbEntity
  8
Detail
100
AcDbBlockBegin
  2
B-44
 70
    66
 10
0.000000
 20
0.000000
 30
0.000000
  0
LWPOLYLINE
  5
4B2
100
AcDbEntity
  8
Detail
  6
CONTINUOUS
 62
     9
100
AcDbPolyline
 90
     2
 10
60.499982
 20
119.447996
 42
0.000000
 10
24.499982
 20
119.447996
 42
0.000000
  0
ENDBLK
  5
4B5
100
AcDbEntity
  8
0
100
AcDbBlockEnd
  0
BLOCK
  5
4B6
100
AcDbEntity
  8
Detail
100
AcDbBlockBegin
  2
B-45
 70
    66
 10
0.000000
 20
0.000000
 30
0.000000
  0
MTEXT
  5
4B7
100
AcDbEntity
  8
Detail
 62
     7
100
AcDbMText
 10
-211.093768
 20
-225.937628
 30
0.000000
 40
3.749990
 41
353.428963
 71
     7
 72
     5
  1
Capatect Details sind allgemeine planerische Vorschläge. Sie stellen schematisch die Ausführung dar. Ihnen zugrunde liegen die entsprechenden 
  7
Arial
 50
0.000000
  0
MTEXT
  5
4B8
100
AcDbEntity
  8
Detail
 62
     7
100
AcDbMText
 10
-211.093768
 20
-231.562613
 30
0.000000
 40
3.749990
 41
392.764473
 71
     7
 72
     5
  1
Produktdatenblätter sowie Systemzulassungen. Die Möglichkeit der Detailanwendung sowie deren Vollständigkeit sind im speziellen Anwendungsfall vom Planer / 
  7
Arial
 50
0.000000
  0
MTEXT
  5
4B9
100
AcDbEntity
  8
Detail
 62
     7
100
AcDbMText
 10
-211.093768
 20
-237.187598
 30
0.000000
 40
3.749990
 41
107.887184
 71
     7
 72
     5
  1
Unternehmer eigenverantwortlich zu prüfen. 
  7
Arial
 50
0.000000
  0
ENDBLK
  5
4BA
100
AcDbEntity
  8
0
100
AcDbBlockEnd
  0
BLOCK
  5
4BB
100
AcDbEntity
  8
Detail
100
AcDbBlockBegin
  2
B-46
 70
    66
 10
0.000000
 20
0.000000
 30
0.000000
  0
LWPOLYLINE
  5
4BC
100
AcDbEntity
  8
Detail
  6
CONTINUOUS
 62
     6
100
AcDbPolyline
 90
     2
 10
237.500023
 20
-246.249941
 42
0.000000
 10
-237.500018
 20
-246.249941
 42
0.000000
  0
ENDBLK
  5
4BF
100
AcDbEntity
  8
0
100
AcDbBlockEnd
  0
BLOCK
  5
4C0
100
AcDbEntity
  8
Detail
100
AcDbBlockBegin
  2
B-47
 70
    66
 10
0.000000
 20
0.000000
 30
0.000000
  0
MTEXT
  5
4C1
100
AcDbEntity
  8
Detail
 62
     7
100
AcDbMText
 10
-210.625002
 20
-252.656391
 30
0.000000
 40
5.625000
 41
137.261250
 71
     1
 72
     5
  1
System:	WDVS mit Edelkratzputz
  7
Arial
 50
0.000000
  0
ENDBLK
  5
4C2
100
AcDbEntity
  8
0
100
AcDbBlockEnd
  0
BLOCK
  5
4C3
100
AcDbEntity
  8
Detail
100
AcDbBlockBegin
  2
B-48
 70
    66
 10
0.000000
 20
0.000000
 30
0.000000
  0
MTEXT
  5
4C4
100
AcDbEntity
  8
Detail
 62
     7
100
AcDbMText
 10
-210.625002
 20
-290.156391
 30
0.000000
 40
5.625000
 41
56.463750
 71
     1
 72
     5
  1
Detail:	Brüstung
  7
Arial
 50
0.000000
  0
ENDBLK
  5
4C5
100
AcDbEntity
  8
0
100
AcDbBlockEnd
  0
BLOCK
  5
4C6
100
AcDbEntity
  8
Detail
100
AcDbBlockBegin
  2
B-49
 70
    66
 10
0.000000
 20
0.000000
 30
0.000000
  0
MTEXT
  5
4C7
100
AcDbEntity
  8
Detail
 62
     7
100
AcDbMText
 10
6.314834
 20
-252.500141
 30
0.000000
 40
5.000000
 41
114.712500
 71
     1
 72
     5
  1
Plannummer:		130-1010
  7
Arial
 50
0.000000
  0
ENDBLK
  5
4C8
100
AcDbEntity
  8
0
100
AcDbBlockEnd
  0
BLOCK
  5
4C9
100
AcDbEntity
  8
Detail
100
AcDbBlockBegin
  2
B-50
 70
    66
 10
0.000000
 20
0.000000
 30
0.000000
  0
MTEXT
  5
4CA
100
AcDbEntity
  8
Detail
 62
     7
100
AcDbMText
 10
6.314834
 20
-277.500141
 30
0.000000
 40
5.000000
 41
91.035000
 71
     1
 72
     5
  1
Massstab:		ca. 1:2,5
  7
Arial
 50
0.000000
  0
ENDBLK
  5
4CB
100
AcDbEntity
  8
0
100
AcDbBlockEnd
  0
BLOCK
  5
4CC
100
AcDbEntity
  8
Detail
100
AcDbBlockBegin
  2
B-51
 70
    66
 10
0.000000
 20
0.000000
 30
0.000000
  0
MTEXT
  5
4CD
100
AcDbEntity
  8
Detail
 62
     7
100
AcDbMText
 10
6.314834
 20
-302.500141
 30
0.000000
 40
5.000000
 41
99.435000
 71
     1
 72
     5
  1
Aktualisierung:	14.07.2016
  7
Arial
 50
0.000000
  0
ENDBLK
  5
4CE
100
AcDbEntity
  8
0
100
AcDbBlockEnd
  0
BLOCK
  5
4CF
100
AcDbEntity
  8
Detail
100
AcDbBlockBegin
  2
B-52
 70
    66
 10
0.000000
 20
0.000000
 30
0.000000
  0
LWPOLYLINE
  5
4D0
100
AcDbEntity
  8
Detail
  6
CONTINUOUS
 62
     6
100
AcDbPolyline
 90
     2
 10
-20.560166
 20
-321.249941
 42
0.000000
 10
-20.560166
 20
-246.249941
 42
0.000000
  0
LWPOLYLINE
  5
4D3
100
AcDbEntity
  8
Detail
  6
CONTINUOUS
 62
     6
100
AcDbPolyline
 90
     2
 10
-237.500018
 20
-321.249941
 42
0.000000
 10
120.969928
 20
-321.249941
 42
0.000000
  0
LWPOLYLINE
  5
4D6
100
AcDbEntity
  8
Detail
  6
CONTINUOUS
 62
     6
100
AcDbPolyline
 90
     2
 10
-20.560166
 20
-271.249941
 42
0.000000
 10
120.969928
 20
-271.249941
 42
0.000000
  0
LWPOLYLINE
  5
4D9
100
AcDbEntity
  8
Detail
  6
CONTINUOUS
 62
     6
100
AcDbPolyline
 90
     2
 10
-20.560166
 20
-296.249941
 42
0.000000
 10
120.969928
 20
-296.249941
 42
0.000000
  0
ENDBLK
  5
4DC
100
AcDbEntity
  8
0
100
AcDbBlockEnd
  0
BLOCK
  5
4DD
100
AcDbEntity
  8
Detail
100
AcDbBlockBegin
  2
B-53
 70
    66
 10
0.000000
 20
0.000000
 30
0.000000
  0
MTEXT
  5
4DE
100
AcDbEntity
  8
Detail
 62
     7
100
AcDbMText
 10
-210.625009
 20
-332.500113
 30
0.000000
 40
4.999978
 41
58.117221
 71
     7
 72
     5
  1
DAW Schweiz AG
  7
Arial
 50
0.000000
  0
MTEXT
  5
4DF
100
AcDbEntity
  8
Detail
 62
     7
100
AcDbMText
 10
-210.625009
 20
-340.000079
 30
0.000000
 40
4.999978
 41
108.149481
 71
     7
 72
     5
  1
Gewerbestrasse 6, 8606 Nänikon
  7
Arial
 50
0.000000
  0
ENDBLK
  5
4E0
100
AcDbEntity
  8
0
100
AcDbBlockEnd
  0
BLOCK
  5
4E1
100
AcDbEntity
  8
Detail
100
AcDbBlockBegin
  2
B-54
 70
    66
 10
0.000000
 20
0.000000
 30
0.000000
  0
LWPOLYLINE
  5
4E2
100
AcDbEntity
  8
Detail
  6
CONTINUOUS
 62
     6
100
AcDbPolyline
 90
     2
 10
-20.560166
 20
-283.749941
 42
0.000000
 10
-237.500018
 20
-283.749941
 42
0.000000
  0
ENDBLK
  5
4E5
100
AcDbEntity
  8
0
100
AcDbBlockEnd
  0
BLOCK
  5
4E6
100
AcDbEntity
  8
Detail
100
AcDbBlockBegin
  2
B-55
 70
    66
 10
0.000000
 20
0.000000
 30
0.000000
  0
MTEXT
  5
4E7
100
AcDbEntity
  8
Detail
 62
     7
100
AcDbMText
 10
-85.625027
 20
-332.500110
 30
0.000000
 40
4.999975
 41
72.134639
 71
     7
 72
     5
  1
Telefon 043 399 42 22
  7
Arial
 50
0.000000
  0
MTEXT
  5
4E8
100
AcDbEntity
  8
Detail
 62
     7
100
AcDbMText
 10
-85.625027
 20
-340.000072
 30
0.000000
 40
4.999975
 41
71.767141
 71
     7
 72
     5
  1
Telefax 043 399 42 23
  7
Arial
 50
0.000000
  0
ENDBLK
  5
4E9
100
AcDbEntity
  8
0
100
AcDbBlockEnd
  0
BLOCK
  5
4EA
100
AcDbEntity
  8
Detail
100
AcDbBlockBegin
  2
B-56
 70
    66
 10
0.000000
 20
0.000000
 30
0.000000
  0
MTEXT
  5
4EB
100
AcDbEntity
  8
Detail
 62
     7
100
AcDbMText
 10
39.374974
 20
-332.500110
 30
0.000000
 40
4.999975
 41
51.922240
 71
     7
 72
     5
  1
info@daw.swiss
  7
Arial
 50
0.000000
  0
MTEXT
  5
4EC
100
AcDbEntity
  8
Detail
 62
     7
100
AcDbMText
 10
39.374974
 20
-340.000072
 30
0.000000
 40
4.999975
 41
54.599727
 71
     7
 72
     5
  1
www.capatect.ch
  7
Arial
 50
0.000000
  0
ENDBLK
  5
4ED
100
AcDbEntity
  8
0
100
AcDbBlockEnd
  0
BLOCK
  5
4EE
100
AcDbEntity
  8
Detail
100
AcDbBlockBegin
  2
B-57
 70
    66
 10
0.000000
 20
0.000000
 30
0.000000
  0
LWPOLYLINE
  5
4EF
100
AcDbEntity
  8
Detail
  6
CONTINUOUS
 62
     6
100
AcDbPolyline
 90
     2
 10
120.969928
 20
-346.249941
 42
0.000000
 10
120.969928
 20
-246.249941
 42
0.000000
  0
ENDBLK
  5
4F2
100
AcDbEntity
  8
0
100
AcDbBlockEnd
  0
BLOCK
  5
4F3
100
AcDbEntity
  8
Detail
100
AcDbBlockBegin
  2
B-58
 70
    66
 10
0.000000
 20
0.000000
 30
0.000000
  0
LWPOLYLINE
  5
4F4
100
AcDbEntity
  8
Detail
  6
CONTINUOUS
 62
     6
100
AcDbPolyline
 90
     5
 10
-237.500018
 20
-346.249941
 42
0.000000
 10
237.500023
 20
-346.249941
 42
0.000000
 10
237.500023
 20
346.250078
 42
0.000000
 10
-237.500018
 20
346.250078
 42
0.000000
 10
-237.500018
 20
-346.249941
 42
0.000000
  0
ENDBLK
  5
4FA
100
AcDbEntity
  8
0
100
AcDbBlockEnd
  0
BLOCK
  5
4FB
100
AcDbEntity
  8
Detail
100
AcDbBlockBegin
  2
B-59
 70
    66
 10
0.000000
 20
0.000000
 30
0.000000
  0
LWPOLYLINE
  5
4FC
100
AcDbEntity
  8
Detail
  6
CONTINUOUS
 62
     3
100
AcDbPolyline
 90
     8
 10
-77.500018
 20
-196.249941
 42
0.000000
 10
-77.500018
 20
155.420245
 42
0.000000
 10
2.499982
 20
147.420245
 42
0.000000
 10
2.499982
 20
-9.749941
 42
0.000000
 10
-17.514215
 20
-9.749941
 42
0.000000
 10
-17.514215
 20
-69.749941
 42
0.000000
 10
2.499982
 20
-69.749941
 42
0.000000
 10
2.499982
 20
-196.249941
 42
0.000000
  0
ENDBLK
  5
505
100
AcDbEntity
  8
0
100
AcDbBlockEnd
  0
BLOCK
  5
506
100
AcDbEntity
  8
SCHRAFF
100
AcDbBlockBegin
  2
B-60
 70
    66
 10
0.000000
 20
0.000000
 30
0.000000
  0
HATCH
  5
507
100
AcDbEntity
  8
SCHRAFF
 62
   250
440
     0
100
AcDbHatch
 10
0.000000
 20
0.000000
 30
0.000000
210
0.000000
220
0.000000
230
1.000000
  2
SOLID
 70
     1
 71
     1
 91
     1
 92
    18
 72
     1
 73
     0
 93
     7
 10
-77.500018
 20
28.262848
 42
0.000000
 10
-77.500018
 20
155.408096
 42
0.000000
 10
-27.748222
 20
150.432276
 42
0.000000
 10
-27.748222
 20
155.457854
 42
0.000000
 10
-82.500018
 20
160.933033
 42
0.000000
 10
-82.500018
 20
28.262848
 42
0.000000
 10
-77.500018
 20
28.262848
 42
0.000000
 97
     0
 75
     0
 76
     1
 98
     0
  0
ENDBLK
  5
508
100
AcDbEntity
  8
0
100
AcDbBlockEnd
  0
BLOCK
  5
509
100
AcDbEntity
  8
Stahlbau
100
AcDbBlockBegin
  2
B-61
 70
    66
 10
0.000000
 20
0.000000
 30
0.000000
  0
LWPOLYLINE
  5
50A
100
AcDbEntity
  8
Stahlbau
  6
CONTINUOUS
 62
     4
100
AcDbPolyline
 90
     7
 10
-77.500018
 20
28.262848
 42
0.000000
 10
-77.500018
 20
155.408096
 42
0.000000
 10
-27.748222
 20
150.432276
 42
0.000000
 10
-27.748222
 20
155.457854
 42
0.000000
 10
-82.500018
 20
160.933033
 42
0.000000
 10
-82.500018
 20
28.262848
 42
0.000000
 10
-77.500018
 20
28.262848
 42
0.000000
  0
ENDBLK
  5
512
100
AcDbEntity
  8
0
100
AcDbBlockEnd
  0
BLOCK
  5
513
100
AcDbEntity
  8
Detail
100
AcDbBlockBegin
  2
B-62
 70
    66
 10
0.000000
 20
0.000000
 30
0.000000
  0
LWPOLYLINE
  5
514
100
AcDbEntity
  8
Detail
  6
CONTINUOUS
 62
     2
100
AcDbPolyline
 90
     3
 10
-82.500018
 20
-196.249941
 42
0.000000
 10
-82.500018
 20
125.250059
 42
0.000000
 10
-212.500018
 20
125.250059
 42
0.000000
  0
ENDBLK
  5
518
100
AcDbEntity
  8
0
100
AcDbBlockEnd
  0
BLOCK
  5
519
100
AcDbEntity
  8
Detail
100
AcDbBlockBegin
  2
B-63
 70
    66
 10
0.000000
 20
0.000000
 30
0.000000
  0
LWPOLYLINE
  5
51A
100
AcDbEntity
  8
Detail
  6
CONTINUOUS
 62
     9
100
AcDbPolyline
 90
     2
 10
-46.014215
 20
-32.749941
 42
0.000000
 10
-46.014215
 20
-46.729354
 42
0.000000
  0
LWPOLYLINE
  5
51D
100
AcDbEntity
  8
Detail
  6
CONTINUOUS
 62
     9
100
AcDbPolyline
 90
    83
 10
-17.514215
 20
-69.749941
 42
0.000000
 10
-17.014215
 20
-69.749941
 42
0.000000
 10
-16.014215
 20
-64.749941
 42
0.000000
 10
-16.014215
 20
-14.749941
 42
0.000000
 10
-17.014215
 20
-9.749941
 42
0.000000
 10
-17.514215
 20
-9.749941
 42
0.000000
 10
-17.514215
 20
-26.749941
 42
0.000000
 10
-18.764215
 20
-30.499941
 42
0.000000
 10
-22.514215
 20
-31.749941
 42
0.000000
 10
-46.014215
 20
-32.749941
 42
0.000000
 10
-52.014215
 20
-35.249941
 42
0.000000
 10
-94.476412
 20
-35.789941
 42
0.000000
 10
-95.842355
 20
-36.036950
 42
0.000000
 10
-95.918108
 20
-35.789941
 42
0.000000
 10
-98.700412
 20
-35.789941
 42
0.000000
 10
-100.066355
 20
-36.036950
 42
0.000000
 10
-100.142108
 20
-35.789941
 42
0.000000
 10
-102.924412
 20
-35.789941
 42
0.000000
 10
-104.290355
 20
-36.036950
 42
0.000000
 10
-104.366024
 20
-35.794741
 42
0.000000
 10
-107.148412
 20
-35.789941
 42
0.000000
 10
-108.514355
 20
-36.036950
 42
0.000000
 10
-108.590108
 20
-35.789941
 42
0.000000
 10
-111.372412
 20
-35.789941
 42
0.000000
 10
-112.738355
 20
-36.036950
 42
0.000000
 10
-112.814108
 20
-35.789941
 42
0.000000
 10
-115.596412
 20
-35.789941
 42
0.000000
 10
-116.962355
 20
-36.036950
 42
0.000000
 10
-117.038108
 20
-35.789941
 42
0.000000
 10
-119.820412
 20
-35.789941
 42
0.000000
 10
-121.186355
 20
-36.036950
 42
0.000000
 10
-121.262108
 20
-35.789941
 42
0.000000
 10
-124.044412
 20
-35.789941
 42
0.000000
 10
-125.410355
 20
-36.036950
 42
0.000000
 10
-125.486108
 20
-35.789941
 42
0.000000
 10
-128.268412
 20
-35.789941
 42
0.000000
 10
-129.472568
 20
-36.072373
 42
0.000000
 10
-129.931551
 20
-35.909941
 42
0.000000
 10
-130.908412
 20
-36.344197
 42
0.000000
 10
-131.148412
 20
-36.869941
 42
0.000000
 10
-131.916412
 20
-36.869941
 42
0.000000
 10
-133.434305
 20
-37.410909
 42
0.000000
 10
-134.267922
 20
-38.789941
 42
0.000000
 10
-136.014215
 20
-39.749941
 42
0.000000
 10
-134.267922
 20
-40.709941
 42
0.000000
 10
-133.434305
 20
-42.088973
 42
0.000000
 10
-132.171611
 20
-42.616334
 42
0.000000
 10
-131.148412
 20
-42.629941
 42
0.000000
 10
-130.908412
 20
-43.155685
 42
0.000000
 10
-130.156256
 20
-43.589941
 42
0.000000
 10
-129.706843
 20
-43.589941
 42
0.000000
 10
-129.472568
 20
-43.427509
 42
0.000000
 10
-128.268412
 20
-43.709941
 42
0.000000
 10
-125.486108
 20
-43.709941
 42
0.000000
 10
-125.410355
 20
-43.462932
 42
0.000000
 10
-124.044412
 20
-43.709941
 42
0.000000
 10
-121.262108
 20
-43.709941
 42
0.000000
 10
-121.186355
 20
-43.462932
 42
0.000000
 10
-119.820412
 20
-43.709941
 42
0.000000
 10
-117.038108
 20
-43.709941
 42
0.000000
 10
-116.962355
 20
-43.462932
 42
0.000000
 10
-115.596412
 20
-43.709941
 42
0.000000
 10
-112.814108
 20
-43.709941
 42
0.000000
 10
-112.738355
 20
-43.462932
 42
0.000000
 10
-111.372412
 20
-43.709941
 42
0.000000
 10
-108.590108
 20
-43.709941
 42
0.000000
 10
-108.514355
 20
-43.462932
 42
0.000000
 10
-107.148412
 20
-43.709941
 42
0.000000
 10
-104.366024
 20
-43.705141
 42
0.000000
 10
-104.290355
 20
-43.462932
 42
0.000000
 10
-102.924412
 20
-43.709941
 42
0.000000
 10
-100.142108
 20
-43.709941
 42
0.000000
 10
-100.066355
 20
-43.462932
 42
0.000000
 10
-98.700412
 20
-43.709941
 42
0.000000
 10
-95.918108
 20
-43.709941
 42
0.000000
 10
-95.842355
 20
-43.462932
 42
0.000000
 10
-94.476412
 20
-43.709941
 42
0.000000
 10
-52.014215
 20
-44.249941
 42
0.000000
 10
-46.014215
 20
-46.749941
 42
0.000000
 10
-22.514215
 20
-47.749941
 42
0.000000
 10
-18.764215
 20
-48.999941
 42
0.000000
 10
-17.514215
 20
-52.749941
 42
0.000000
 10
-17.514215
 20
-69.749941
 42
0.000000
  0
LWPOLYLINE
  5
571
100
AcDbEntity
  8
Detail
  6
CONTINUOUS
 62
     9
100
AcDbPolyline
 90
   203
 10
-136.014215
 20
-39.749941
 42
0.000000
 10
-133.901139
 20
-38.874676
 42
0.000000
 10
-133.399564
 20
-38.005922
 42
0.000000
 10
-133.010889
 20
-38.505922
 42
0.000000
 10
-131.930552
 20
-38.058432
 42
0.000000
 10
-131.428977
 20
-37.189678
 42
0.000000
 10
-131.040302
 20
-37.689678
 42
0.000000
 10
-130.461525
 20
-37.449941
 42
0.000000
 10
-129.860486
 20
-37.449941
 42
0.000000
 10
-129.571811
 20
-36.949941
 42
0.000000
 10
-129.183136
 20
-37.449941
 42
0.000000
 10
-128.050486
 20
-37.449941
 42
0.000000
 10
-127.761811
 20
-36.949941
 42
0.000000
 10
-127.373136
 20
-37.449941
 42
0.000000
 10
-126.240486
 20
-37.449941
 42
0.000000
 10
-125.951811
 20
-36.949941
 42
0.000000
 10
-125.563136
 20
-37.449941
 42
0.000000
 10
-124.430486
 20
-37.449941
 42
0.000000
 10
-124.141811
 20
-36.949941
 42
0.000000
 10
-123.753136
 20
-37.449941
 42
0.000000
 10
-122.620486
 20
-37.449941
 42
0.000000
 10
-122.331811
 20
-36.949941
 42
0.000000
 10
-121.943136
 20
-37.449941
 42
0.000000
 10
-120.810486
 20
-37.449941
 42
0.000000
 10
-120.521811
 20
-36.949941
 42
0.000000
 10
-120.133136
 20
-37.449941
 42
0.000000
 10
-119.000486
 20
-37.449941
 42
0.000000
 10
-118.711811
 20
-36.949941
 42
0.000000
 10
-118.323136
 20
-37.449941
 42
0.000000
 10
-117.190486
 20
-37.449941
 42
0.000000
 10
-116.901811
 20
-36.949941
 42
0.000000
 10
-116.513136
 20
-37.449941
 42
0.000000
 10
-115.380486
 20
-37.449941
 42
0.000000
 10
-115.091811
 20
-36.949941
 42
0.000000
 10
-114.703136
 20
-37.449941
 42
0.000000
 10
-113.570486
 20
-37.449941
 42
0.000000
 10
-113.281811
 20
-36.949941
 42
0.000000
 10
-112.893136
 20
-37.449941
 42
0.000000
 10
-111.760486
 20
-37.449941
 42
0.000000
 10
-111.471811
 20
-36.949941
 42
0.000000
 10
-111.083136
 20
-37.449941
 42
0.000000
 10
-109.950486
 20
-37.449941
 42
0.000000
 10
-109.661811
 20
-36.949941
 42
0.000000
 10
-109.273136
 20
-37.449941
 42
0.000000
 10
-108.140486
 20
-37.449941
 42
0.000000
 10
-107.851811
 20
-36.949941
 42
0.000000
 10
-107.463136
 20
-37.449941
 42
0.000000
 10
-106.330486
 20
-37.449941
 42
0.000000
 10
-106.041811
 20
-36.949941
 42
0.000000
 10
-105.653136
 20
-37.449941
 42
0.000000
 10
-104.520486
 20
-37.449941
 42
0.000000
 10
-104.231811
 20
-36.949941
 42
0.000000
 10
-103.843136
 20
-37.449941
 42
0.000000
 10
-102.710486
 20
-37.449941
 42
0.000000
 10
-102.421811
 20
-36.949941
 42
0.000000
 10
-102.033136
 20
-37.449941
 42
0.000000
 10
-100.900486
 20
-37.449941
 42
0.000000
 10
-100.611811
 20
-36.949941
 42
0.000000
 10
-100.200622
 20
-37.449941
 42
0.000000
 10
-99.090486
 20
-37.449941
 42
0.000000
 10
-98.801811
 20
-36.949941
 42
0.000000
 10
-98.413136
 20
-37.449941
 42
0.000000
 10
-97.280486
 20
-37.449941
 42
0.000000
 10
-96.991811
 20
-36.949941
 42
0.000000
 10
-96.603136
 20
-37.449941
 42
0.000000
 10
-95.470486
 20
-37.449941
 42
0.000000
 10
-95.181811
 20
-36.949941
 42
0.000000
 10
-94.793136
 20
-37.449941
 42
0.000000
 10
-93.660486
 20
-37.449941
 42
0.000000
 10
-93.371811
 20
-36.949941
 42
0.000000
 10
-92.983136
 20
-37.449941
 42
0.000000
 10
-91.850486
 20
-37.449941
 42
0.000000
 10
-91.561811
 20
-36.949941
 42
0.000000
 10
-91.173136
 20
-37.449941
 42
0.000000
 10
-90.040486
 20
-37.449941
 42
0.000000
 10
-89.751811
 20
-36.949941
 42
0.000000
 10
-89.363136
 20
-37.449941
 42
0.000000
 10
-88.230486
 20
-37.449941
 42
0.000000
 10
-87.941811
 20
-36.949941
 42
0.000000
 10
-87.553136
 20
-37.449941
 42
0.000000
 10
-86.420486
 20
-37.449941
 42
0.000000
 10
-86.131811
 20
-36.949941
 42
0.000000
 10
-85.743136
 20
-37.449941
 42
0.000000
 10
-84.610486
 20
-37.449941
 42
0.000000
 10
-84.321811
 20
-36.949941
 42
0.000000
 10
-83.933136
 20
-37.449941
 42
0.000000
 10
-82.800486
 20
-37.449941
 42
0.000000
 10
-82.511811
 20
-36.949941
 42
0.000000
 10
-82.123136
 20
-37.449941
 42
0.000000
 10
-80.990486
 20
-37.449941
 42
0.000000
 10
-80.701811
 20
-36.949941
 42
0.000000
 10
-80.313136
 20
-37.449941
 42
0.000000
 10
-79.180486
 20
-37.449941
 42
0.000000
 10
-78.891811
 20
-36.949941
 42
0.000000
 10
-78.503136
 20
-37.449941
 42
0.000000
 10
-77.370486
 20
-37.449941
 42
0.000000
 10
-77.081811
 20
-36.949941
 42
0.000000
 10
-76.693136
 20
-37.449941
 42
0.000000
 10
-76.014215
 20
-37.449941
 42
0.000000
 10
-75.841010
 20
-37.349941
 42
0.000000
 10
-52.014215
 20
-35.249941
 42
0.000000
 10
-52.014215
 20
-44.249941
 42
0.000000
 10
-75.841010
 20
-42.149941
 42
0.000000
 10
-76.014215
 20
-42.049941
 42
0.000000
 10
-76.176811
 20
-42.549941
 42
0.000000
 10
-76.465486
 20
-42.049941
 42
0.000000
 10
-77.598136
 20
-42.049941
 42
0.000000
 10
-77.986811
 20
-42.549941
 42
0.000000
 10
-78.275486
 20
-42.049941
 42
0.000000
 10
-79.408136
 20
-42.049941
 42
0.000000
 10
-79.796811
 20
-42.549941
 42
0.000000
 10
-80.085486
 20
-42.049941
 42
0.000000
 10
-81.218136
 20
-42.049941
 42
0.000000
 10
-81.606811
 20
-42.549941
 42
0.000000
 10
-81.895486
 20
-42.049941
 42
0.000000
 10
-83.028136
 20
-42.049941
 42
0.000000
 10
-83.416811
 20
-42.549941
 42
0.000000
 10
-83.705486
 20
-42.049941
 42
0.000000
 10
-84.838136
 20
-42.049941
 42
0.000000
 10
-85.226811
 20
-42.549941
 42
0.000000
 10
-85.515486
 20
-42.049941
 42
0.000000
 10
-86.648136
 20
-42.049941
 42
0.000000
 10
-87.036811
 20
-42.549941
 42
0.000000
 10
-87.325486
 20
-42.049941
 42
0.000000
 10
-88.458136
 20
-42.049941
 42
0.000000
 10
-88.846811
 20
-42.549941
 42
0.000000
 10
-89.135486
 20
-42.049941
 42
0.000000
 10
-90.268136
 20
-42.049941
 42
0.000000
 10
-90.656811
 20
-42.549941
 42
0.000000
 10
-90.945486
 20
-42.049941
 42
0.000000
 10
-92.078136
 20
-42.049941
 42
0.000000
 10
-92.466811
 20
-42.549941
 42
0.000000
 10
-92.755486
 20
-42.049941
 42
0.000000
 10
-93.888136
 20
-42.049941
 42
0.000000
 10
-94.276811
 20
-42.549941
 42
0.000000
 10
-94.565486
 20
-42.049941
 42
0.000000
 10
-95.698136
 20
-42.049941
 42
0.000000
 10
-96.086811
 20
-42.549941
 42
0.000000
 10
-96.375486
 20
-42.049941
 42
0.000000
 10
-97.508136
 20
-42.049941
 42
0.000000
 10
-97.896811
 20
-42.549941
 42
0.000000
 10
-98.185486
 20
-42.049941
 42
0.000000
 10
-99.318136
 20
-42.049941
 42
0.000000
 10
-99.706811
 20
-42.549941
 42
0.000000
 10
-99.995486
 20
-42.049941
 42
0.000000
 10
-101.128136
 20
-42.049941
 42
0.000000
 10
-101.516811
 20
-42.549941
 42
0.000000
 10
-101.805486
 20
-42.049941
 42
0.000000
 10
-102.938136
 20
-42.049941
 42
0.000000
 10
-103.326811
 20
-42.549941
 42
0.000000
 10
-103.615486
 20
-42.049941
 42
0.000000
 10
-104.748136
 20
-42.049941
 42
0.000000
 10
-105.136811
 20
-42.549941
 42
0.000000
 10
-105.425486
 20
-42.049941
 42
0.000000
 10
-106.558136
 20
-42.049941
 42
0.000000
 10
-106.946811
 20
-42.549941
 42
0.000000
 10
-107.235486
 20
-42.049941
 42
0.000000
 10
-108.368136
 20
-42.049941
 42
0.000000
 10
-108.756811
 20
-42.549941
 42
0.000000
 10
-109.045486
 20
-42.049941
 42
0.000000
 10
-110.178136
 20
-42.049941
 42
0.000000
 10
-110.566811
 20
-42.549941
 42
0.000000
 10
-110.855486
 20
-42.049941
 42
0.000000
 10
-111.988136
 20
-42.049941
 42
0.000000
 10
-112.376811
 20
-42.549941
 42
0.000000
 10
-112.665486
 20
-42.049941
 42
0.000000
 10
-113.798136
 20
-42.049941
 42
0.000000
 10
-114.186811
 20
-42.549941
 42
0.000000
 10
-114.475486
 20
-42.049941
 42
0.000000
 10
-115.608136
 20
-42.049941
 42
0.000000
 10
-115.996811
 20
-42.549941
 42
0.000000
 10
-116.285486
 20
-42.049941
 42
0.000000
 10
-117.418136
 20
-42.049941
 42
0.000000
 10
-117.806811
 20
-42.549941
 42
0.000000
 10
-118.095486
 20
-42.049941
 42
0.000000
 10
-119.228136
 20
-42.049941
 42
0.000000
 10
-119.616811
 20
-42.549941
 42
0.000000
 10
-119.905486
 20
-42.049941
 42
0.000000
 10
-121.038136
 20
-42.049941
 42
0.000000
 10
-121.426811
 20
-42.549941
 42
0.000000
 10
-121.715486
 20
-42.049941
 42
0.000000
 10
-122.848136
 20
-42.049941
 42
0.000000
 10
-123.236811
 20
-42.549941
 42
0.000000
 10
-123.525486
 20
-42.049941
 42
0.000000
 10
-124.658136
 20
-42.049941
 42
0.000000
 10
-125.046811
 20
-42.549941
 42
0.000000
 10
-125.335486
 20
-42.049941
 42
0.000000
 10
-126.468136
 20
-42.049941
 42
0.000000
 10
-126.856811
 20
-42.549941
 42
0.000000
 10
-127.145486
 20
-42.049941
 42
0.000000
 10
-128.278136
 20
-42.049941
 42
0.000000
 10
-128.666811
 20
-42.549941
 42
0.000000
 10
-128.955486
 20
-42.049941
 42
0.000000
 10
-130.088136
 20
-42.049941
 42
0.000000
 10
-130.476811
 20
-42.549941
 42
0.000000
 10
-130.861026
 20
-41.884462
 42
0.000000
 10
-131.789885
 20
-41.499715
 42
0.000000
 10
-132.178560
 20
-41.999715
 42
0.000000
 10
-132.680135
 20
-41.130962
 42
0.000000
 10
-133.463499
 20
-40.806482
 42
0.000000
 10
-133.852174
 20
-41.306482
 42
0.000000
 10
-134.353749
 20
-40.437728
 42
0.000000
 10
-136.014215
 20
-39.749941
 42
0.000000
  0
ENDBLK
  5
63D
100
AcDbEntity
  8
0
100
AcDbBlockEnd
  0
BLOCK
  5
63E
100
AcDbEntity
  8
Detail
100
AcDbBlockBegin
  2
B-65
 70
    66
 10
0.000000
 20
0.000000
 30
0.000000
  0
LWPOLYLINE
  5
63F
100
AcDbEntity
  8
Detail
  6
CONTINUOUS
 62
     3
100
AcDbPolyline
 90
     5
 10
2.499982
 20
-9.749941
 42
0.000000
 10
-17.514215
 20
-9.749941
 42
0.000000
 10
-17.514215
 20
-69.749941
 42
0.000000
 10
2.499982
 20
-69.749941
 42
0.000000
 10
2.499982
 20
-9.749941
 42
0.000000
  0
ENDBLK
  5
645
100
AcDbEntity
  8
0
100
AcDbBlockEnd
  0
BLOCK
  5
646
100
AcDbEntity
  8
Detail
100
AcDbBlockBegin
  2
B-66
 70
    66
 10
0.000000
 20
0.000000
 30
0.000000
  0
LWPOLYLINE
  5
647
100
AcDbEntity
  8
Detail
  6
CONTINUOUS
 62
     6
100
AcDbPolyline
 90
   350
 10
12.499982
 20
148.920408
 42
0.000000
 10
22.251223
 20
147.945440
 42
0.000000
 10
22.499982
 20
150.433033
 42
0.000000
 10
22.499982
 20
149.433033
 42
0.000000
 10
22.999982
 20
148.433033
 42
0.000000
 10
22.499982
 20
147.431211
 42
0.000000
 10
22.499982
 20
146.433033
 42
0.000000
 10
21.999982
 20
145.433033
 42
0.000000
 10
22.499982
 20
144.433033
 42
0.000000
 10
22.499982
 20
143.433033
 42
0.000000
 10
22.999982
 20
142.433033
 42
0.000000
 10
22.499982
 20
141.433033
 42
0.000000
 10
22.499982
 20
140.433033
 42
0.000000
 10
21.999982
 20
139.433033
 42
0.000000
 10
22.499982
 20
138.433033
 42
0.000000
 10
22.499982
 20
137.433033
 42
0.000000
 10
22.999982
 20
136.433033
 42
0.000000
 10
22.499982
 20
135.433033
 42
0.000000
 10
22.499982
 20
134.433033
 42
0.000000
 10
21.999982
 20
133.433033
 42
0.000000
 10
22.499982
 20
132.433033
 42
0.000000
 10
22.499982
 20
131.433033
 42
0.000000
 10
22.999982
 20
130.433033
 42
0.000000
 10
22.499982
 20
129.433033
 42
0.000000
 10
22.499982
 20
128.433033
 42
0.000000
 10
21.999982
 20
127.433033
 42
0.000000
 10
22.499982
 20
126.433033
 42
0.000000
 10
22.499982
 20
125.433033
 42
0.000000
 10
22.999982
 20
124.433033
 42
0.000000
 10
22.499982
 20
123.433033
 42
0.000000
 10
22.499982
 20
122.433033
 42
0.000000
 10
21.999982
 20
121.433033
 42
0.000000
 10
22.499982
 20
120.433033
 42
0.000000
 10
22.499982
 20
119.433033
 42
0.000000
 10
22.999982
 20
118.433033
 42
0.000000
 10
22.499982
 20
117.433033
 42
0.000000
 10
22.499982
 20
116.433033
 42
0.000000
 10
21.999982
 20
115.433033
 42
0.000000
 10
22.499982
 20
114.433033
 42
0.000000
 10
22.499982
 20
113.433033
 42
0.000000
 10
22.999982
 20
112.433033
 42
0.000000
 10
22.499982
 20
111.433033
 42
0.000000
 10
22.499982
 20
110.433033
 42
0.000000
 10
21.999982
 20
109.433033
 42
0.000000
 10
22.499982
 20
108.433033
 42
0.000000
 10
22.499982
 20
107.433033
 42
0.000000
 10
22.999982
 20
106.433033
 42
0.000000
 10
22.499982
 20
105.433033
 42
0.000000
 10
22.499982
 20
104.433033
 42
0.000000
 10
21.999982
 20
103.433033
 42
0.000000
 10
22.499982
 20
102.433033
 42
0.000000
 10
22.499982
 20
101.433033
 42
0.000000
 10
22.999982
 20
100.433033
 42
0.000000
 10
22.499982
 20
99.425366
 42
0.000000
 10
22.499982
 20
98.433033
 42
0.000000
 10
21.999982
 20
97.433033
 42
0.000000
 10
22.499982
 20
96.433033
 42
0.000000
 10
22.499982
 20
95.433033
 42
0.000000
 10
22.999982
 20
94.433033
 42
0.000000
 10
22.499982
 20
93.433033
 42
0.000000
 10
22.499982
 20
92.433033
 42
0.000000
 10
21.999982
 20
91.433033
 42
0.000000
 10
22.499982
 20
90.433033
 42
0.000000
 10
22.499982
 20
89.433033
 42
0.000000
 10
22.999982
 20
88.433033
 42
0.000000
 10
22.499982
 20
87.433033
 42
0.000000
 10
22.499982
 20
86.433033
 42
0.000000
 10
21.999982
 20
85.433033
 42
0.000000
 10
22.499982
 20
84.433033
 42
0.000000
 10
22.499982
 20
83.433033
 42
0.000000
 10
22.999982
 20
82.433033
 42
0.000000
 10
22.499982
 20
81.433033
 42
0.000000
 10
22.499982
 20
80.433033
 42
0.000000
 10
21.999982
 20
79.433033
 42
0.000000
 10
22.499982
 20
78.433033
 42
0.000000
 10
22.499982
 20
77.433033
 42
0.000000
 10
22.999982
 20
76.433033
 42
0.000000
 10
22.499982
 20
75.433033
 42
0.000000
 10
22.499982
 20
74.433033
 42
0.000000
 10
21.999982
 20
73.433033
 42
0.000000
 10
22.499982
 20
72.433033
 42
0.000000
 10
22.499982
 20
71.433033
 42
0.000000
 10
22.999982
 20
70.433033
 42
0.000000
 10
22.499982
 20
69.433033
 42
0.000000
 10
22.499982
 20
68.433033
 42
0.000000
 10
21.999982
 20
67.433033
 42
0.000000
 10
22.499982
 20
66.433033
 42
0.000000
 10
22.499982
 20
65.433033
 42
0.000000
 10
22.999982
 20
64.433033
 42
0.000000
 10
22.499982
 20
63.433033
 42
0.000000
 10
22.499982
 20
62.433033
 42
0.000000
 10
21.999982
 20
61.433033
 42
0.000000
 10
22.499982
 20
60.433033
 42
0.000000
 10
22.499982
 20
59.433033
 42
0.000000
 10
22.999982
 20
58.433033
 42
0.000000
 10
22.499982
 20
57.433033
 42
0.000000
 10
22.499982
 20
56.433033
 42
0.000000
 10
21.999982
 20
55.433033
 42
0.000000
 10
22.499982
 20
54.433033
 42
0.000000
 10
22.499982
 20
53.433033
 42
0.000000
 10
22.999982
 20
52.433033
 42
0.000000
 10
22.499982
 20
51.433033
 42
0.000000
 10
22.499982
 20
50.433033
 42
0.000000
 10
21.999982
 20
49.433033
 42
0.000000
 10
22.499982
 20
48.433033
 42
0.000000
 10
22.499982
 20
47.433033
 42
0.000000
 10
22.999982
 20
46.433033
 42
0.000000
 10
22.499982
 20
45.433033
 42
0.000000
 10
22.499982
 20
44.433033
 42
0.000000
 10
21.999982
 20
43.433033
 42
0.000000
 10
22.499982
 20
42.433033
 42
0.000000
 10
22.499982
 20
41.433033
 42
0.000000
 10
22.999982
 20
40.433033
 42
0.000000
 10
22.499982
 20
39.433033
 42
0.000000
 10
22.499982
 20
38.433033
 42
0.000000
 10
21.999982
 20
37.433033
 42
0.000000
 10
22.499982
 20
36.433033
 42
0.000000
 10
22.499982
 20
35.433033
 42
0.000000
 10
22.999982
 20
34.433033
 42
0.000000
 10
22.499982
 20
33.433033
 42
0.000000
 10
22.499982
 20
32.433033
 42
0.000000
 10
21.999982
 20
31.433033
 42
0.000000
 10
22.499982
 20
30.433033
 42
0.000000
 10
22.499982
 20
29.433033
 42
0.000000
 10
22.999982
 20
28.433033
 42
0.000000
 10
22.499982
 20
27.433033
 42
0.000000
 10
22.499982
 20
26.433033
 42
0.000000
 10
21.999982
 20
25.433033
 42
0.000000
 10
22.499982
 20
24.433033
 42
0.000000
 10
22.504380
 20
23.424237
 42
0.000000
 10
22.999982
 20
22.433033
 42
0.000000
 10
22.499982
 20
21.433033
 42
0.000000
 10
22.499982
 20
20.433033
 42
0.000000
 10
21.999982
 20
19.433033
 42
0.000000
 10
22.499982
 20
18.433033
 42
0.000000
 10
22.499982
 20
17.433033
 42
0.000000
 10
22.999982
 20
16.433033
 42
0.000000
 10
22.499982
 20
15.433033
 42
0.000000
 10
22.499982
 20
14.433033
 42
0.000000
 10
21.999982
 20
13.433033
 42
0.000000
 10
22.499982
 20
12.433033
 42
0.000000
 10
22.499982
 20
11.433033
 42
0.000000
 10
22.999982
 20
10.433033
 42
0.000000
 10
22.499982
 20
9.433033
 42
0.000000
 10
22.499982
 20
8.433033
 42
0.000000
 10
21.999982
 20
7.433033
 42
0.000000
 10
22.499982
 20
6.433033
 42
0.000000
 10
22.499982
 20
5.433033
 42
0.000000
 10
22.999982
 20
4.433033
 42
0.000000
 10
22.499982
 20
3.433033
 42
0.000000
 10
22.499982
 20
2.433033
 42
0.000000
 10
21.999982
 20
1.433033
 42
0.000000
 10
22.499982
 20
0.433033
 42
0.000000
 10
22.499982
 20
-0.566967
 42
0.000000
 10
22.999982
 20
-1.566967
 42
0.000000
 10
22.499982
 20
-2.566967
 42
0.000000
 10
22.499982
 20
-3.566967
 42
0.000000
 10
21.999982
 20
-4.566967
 42
0.000000
 10
22.499982
 20
-5.566967
 42
0.000000
 10
22.499982
 20
-6.566967
 42
0.000000
 10
22.999982
 20
-7.566967
 42
0.000000
 10
22.499982
 20
-8.574634
 42
0.000000
 10
22.499982
 20
-9.566967
 42
0.000000
 10
21.999982
 20
-10.566967
 42
0.000000
 10
22.499982
 20
-11.566967
 42
0.000000
 10
22.499982
 20
-12.566967
 42
0.000000
 10
22.999982
 20
-13.566967
 42
0.000000
 10
22.499982
 20
-14.566967
 42
0.000000
 10
22.499982
 20
-15.566967
 42
0.000000
 10
21.999982
 20
-16.566967
 42
0.000000
 10
22.499982
 20
-17.566967
 42
0.000000
 10
22.499982
 20
-18.566967
 42
0.000000
 10
22.999982
 20
-19.566967
 42
0.000000
 10
22.499982
 20
-20.566967
 42
0.000000
 10
22.499982
 20
-21.566967
 42
0.000000
 10
21.999982
 20
-22.566967
 42
0.000000
 10
22.499982
 20
-23.566967
 42
0.000000
 10
22.499982
 20
-24.566967
 42
0.000000
 10
22.999982
 20
-25.566967
 42
0.000000
 10
22.499982
 20
-26.566967
 42
0.000000
 10
22.499982
 20
-27.566967
 42
0.000000
 10
21.999982
 20
-28.566967
 42
0.000000
 10
22.499982
 20
-29.566967
 42
0.000000
 10
22.499982
 20
-30.566967
 42
0.000000
 10
22.999982
 20
-31.566967
 42
0.000000
 10
22.499982
 20
-32.566967
 42
0.000000
 10
22.499982
 20
-33.566967
 42
0.000000
 10
21.999982
 20
-34.566967
 42
0.000000
 10
22.499982
 20
-35.566967
 42
0.000000
 10
22.499982
 20
-36.566967
 42
0.000000
 10
22.999982
 20
-37.566967
 42
0.000000
 10
22.499982
 20
-38.566967
 42
0.000000
 10
22.499982
 20
-39.566967
 42
0.000000
 10
21.999982
 20
-40.566967
 42
0.000000
 10
22.499982
 20
-41.566967
 42
0.000000
 10
22.499982
 20
-42.566967
 42
0.000000
 10
22.999982
 20
-43.566967
 42
0.000000
 10
22.499982
 20
-44.566967
 42
0.000000
 10
22.499982
 20
-45.566967
 42
0.000000
 10
21.999982
 20
-46.566967
 42
0.000000
 10
22.499982
 20
-47.566967
 42
0.000000
 10
22.499982
 20
-48.566967
 42
0.000000
 10
22.999982
 20
-49.566967
 42
0.000000
 10
22.499982
 20
-50.566967
 42
0.000000
 10
22.499982
 20
-51.566967
 42
0.000000
 10
21.999982
 20
-52.566967
 42
0.000000
 10
22.499982
 20
-53.566967
 42
0.000000
 10
22.499982
 20
-54.566967
 42
0.000000
 10
22.999982
 20
-55.566967
 42
0.000000
 10
22.499982
 20
-56.566967
 42
0.000000
 10
22.499982
 20
-57.566967
 42
0.000000
 10
21.999982
 20
-58.566967
 42
0.000000
 10
22.499982
 20
-59.566967
 42
0.000000
 10
22.499982
 20
-60.566967
 42
0.000000
 10
22.999982
 20
-61.566967
 42
0.000000
 10
22.499982
 20
-62.566967
 42
0.000000
 10
22.499982
 20
-63.566967
 42
0.000000
 10
21.999982
 20
-64.566967
 42
0.000000
 10
22.499982
 20
-65.566967
 42
0.000000
 10
22.499982
 20
-66.566967
 42
0.000000
 10
22.999982
 20
-67.566967
 42
0.000000
 10
22.499982
 20
-68.566967
 42
0.000000
 10
22.499982
 20
-69.566967
 42
0.000000
 10
21.999982
 20
-70.566967
 42
0.000000
 10
22.499982
 20
-71.566967
 42
0.000000
 10
22.499982
 20
-72.566967
 42
0.000000
 10
22.999982
 20
-73.566967
 42
0.000000
 10
22.499982
 20
-74.566967
 42
0.000000
 10
22.499982
 20
-75.566967
 42
0.000000
 10
21.999982
 20
-76.566967
 42
0.000000
 10
22.499982
 20
-77.566967
 42
0.000000
 10
22.499982
 20
-78.566967
 42
0.000000
 10
22.999982
 20
-79.566967
 42
0.000000
 10
22.499982
 20
-80.566967
 42
0.000000
 10
22.499982
 20
-81.566967
 42
0.000000
 10
21.999982
 20
-82.566967
 42
0.000000
 10
22.499982
 20
-83.566967
 42
0.000000
 10
22.499982
 20
-84.566967
 42
0.000000
 10
22.999982
 20
-85.566967
 42
0.000000
 10
22.499982
 20
-86.566967
 42
0.000000
 10
22.499982
 20
-87.566967
 42
0.000000
 10
21.999982
 20
-88.566967
 42
0.000000
 10
22.499982
 20
-89.566967
 42
0.000000
 10
22.499982
 20
-90.566967
 42
0.000000
 10
22.999982
 20
-91.566967
 42
0.000000
 10
22.499982
 20
-92.566967
 42
0.000000
 10
22.499982
 20
-93.566967
 42
0.000000
 10
21.999982
 20
-94.566967
 42
0.000000
 10
22.499982
 20
-95.566967
 42
0.000000
 10
22.499982
 20
-96.566967
 42
0.000000
 10
22.999982
 20
-97.566967
 42
0.000000
 10
22.499982
 20
-98.566967
 42
0.000000
 10
22.499982
 20
-99.566967
 42
0.000000
 10
21.999982
 20
-100.566967
 42
0.000000
 10
22.499982
 20
-101.566967
 42
0.000000
 10
22.499982
 20
-102.566967
 42
0.000000
 10
22.999982
 20
-103.566967
 42
0.000000
 10
22.499982
 20
-104.566967
 42
0.000000
 10
22.499982
 20
-105.566967
 42
0.000000
 10
21.999982
 20
-106.566967
 42
0.000000
 10
22.499982
 20
-107.566967
 42
0.000000
 10
22.499982
 20
-108.566967
 42
0.000000
 10
22.999982
 20
-109.566967
 42
0.000000
 10
22.499982
 20
-110.566967
 42
0.000000
 10
22.499982
 20
-111.566967
 42
0.000000
 10
21.999982
 20
-112.566967
 42
0.000000
 10
22.499982
 20
-113.566967
 42
0.000000
 10
22.499982
 20
-114.566967
 42
0.000000
 10
22.999982
 20
-115.566967
 42
0.000000
 10
22.499982
 20
-116.566967
 42
0.000000
 10
22.499982
 20
-117.566967
 42
0.000000
 10
21.999982
 20
-118.566967
 42
0.000000
 10
22.499982
 20
-119.566967
 42
0.000000
 10
22.499982
 20
-120.566967
 42
0.000000
 10
22.999982
 20
-121.566967
 42
0.000000
 10
22.499982
 20
-122.566967
 42
0.000000
 10
22.499982
 20
-123.566967
 42
0.000000
 10
21.999982
 20
-124.566967
 42
0.000000
 10
22.499982
 20
-125.566967
 42
0.000000
 10
22.499982
 20
-126.566967
 42
0.000000
 10
22.999982
 20
-127.566967
 42
0.000000
 10
22.499982
 20
-128.566967
 42
0.000000
 10
22.499982
 20
-129.566967
 42
0.000000
 10
21.999982
 20
-130.566967
 42
0.000000
 10
22.499982
 20
-131.566967
 42
0.000000
 10
22.499982
 20
-132.566967
 42
0.000000
 10
22.999982
 20
-133.566967
 42
0.000000
 10
22.499982
 20
-134.566967
 42
0.000000
 10
22.499982
 20
-135.566967
 42
0.000000
 10
21.999982
 20
-136.566967
 42
0.000000
 10
22.499982
 20
-137.566967
 42
0.000000
 10
22.499982
 20
-138.566967
 42
0.000000
 10
22.999982
 20
-139.566967
 42
0.000000
 10
22.499982
 20
-140.566967
 42
0.000000
 10
22.499982
 20
-141.566967
 42
0.000000
 10
21.999982
 20
-142.566967
 42
0.000000
 10
22.499982
 20
-143.566967
 42
0.000000
 10
22.499982
 20
-144.566967
 42
0.000000
 10
22.999982
 20
-145.566967
 42
0.000000
 10
22.499982
 20
-146.574634
 42
0.000000
 10
22.499982
 20
-147.566967
 42
0.000000
 10
21.999982
 20
-148.566967
 42
0.000000
 10
22.499982
 20
-149.566967
 42
0.000000
 10
22.499982
 20
-150.566967
 42
0.000000
 10
22.999982
 20
-151.566967
 42
0.000000
 10
22.499982
 20
-152.566967
 42
0.000000
 10
22.499982
 20
-153.566967
 42
0.000000
 10
21.999982
 20
-154.566967
 42
0.000000
 10
22.499982
 20
-155.566967
 42
0.000000
 10
22.499982
 20
-156.566967
 42
0.000000
 10
22.999982
 20
-157.566967
 42
0.000000
 10
22.499982
 20
-158.566967
 42
0.000000
 10
22.499982
 20
-159.566967
 42
0.000000
 10
21.999982
 20
-160.566967
 42
0.000000
 10
22.499982
 20
-161.566967
 42
0.000000
 10
22.499982
 20
-162.566967
 42
0.000000
 10
22.999982
 20
-163.566967
 42
0.000000
 10
22.499982
 20
-164.566967
 42
0.000000
 10
22.499982
 20
-165.566967
 42
0.000000
 10
21.999982
 20
-166.566967
 42
0.000000
 10
22.499982
 20
-167.566967
 42
0.000000
 10
22.499982
 20
-168.566967
 42
0.000000
 10
22.999982
 20
-169.566967
 42
0.000000
 10
22.499982
 20
-170.566967
 42
0.000000
 10
22.499982
 20
-171.566967
 42
0.000000
 10
21.999982
 20
-172.566967
 42
0.000000
 10
22.499982
 20
-173.566967
 42
0.000000
 10
22.499982
 20
-174.566967
 42
0.000000
 10
22.999982
 20
-175.566967
 42
0.000000
 10
22.499982
 20
-176.566967
 42
0.000000
 10
22.499982
 20
-177.566967
 42
0.000000
 10
21.999982
 20
-178.566967
 42
0.000000
 10
22.499982
 20
-179.566967
 42
0.000000
 10
22.499982
 20
-180.566967
 42
0.000000
 10
22.999982
 20
-181.566967
 42
0.000000
 10
22.499982
 20
-182.566967
 42
0.000000
 10
22.499982
 20
-183.566967
 42
0.000000
 10
21.999982
 20
-184.566967
 42
0.000000
 10
22.499982
 20
-185.566967
 42
0.000000
 10
22.499982
 20
-186.566967
 42
0.000000
 10
22.999982
 20
-187.566967
 42
0.000000
 10
22.499982
 20
-188.566967
 42
0.000000
 10
22.499982
 20
-189.566967
 42
0.000000
 10
21.999982
 20
-190.566967
 42
0.000000
 10
22.499982
 20
-191.566967
 42
0.000000
 10
22.499982
 20
-192.566967
 42
0.000000
 10
22.999982
 20
-193.566967
 42
0.000000
 10
22.499982
 20
-194.566967
 42
0.000000
 10
22.499982
 20
-195.566967
 42
0.000000
 10
22.158495
 20
-196.249941
 42
0.000000
  0
ENDBLK
  5
7A6
100
AcDbEntity
  8
0
100
AcDbBlockEnd
  0
BLOCK
  5
7A7
100
AcDbEntity
  8
Detail
100
AcDbBlockBegin
  2
B-67
 70
    66
 10
0.000000
 20
0.000000
 30
0.000000
  0
LWPOLYLINE
  5
7A8
100
AcDbEntity
  8
Detail
  6
CONTINUOUS
 62
     6
100
AcDbPolyline
 90
     2
 10
-142.500054
 20
261.718430
 42
0.000000
 10
-142.500054
 20
292.988653
 42
0.000000
  0
LWPOLYLINE
  5
7AB
100
AcDbEntity
  8
Detail
  6
CONTINUOUS
 62
     6
100
AcDbPolyline
 90
     2
 10
-132.500017
 20
228.812761
 42
0.000000
 10
-132.500017
 20
292.988653
 42
0.000000
  0
LWPOLYLINE
  5
7AE
100
AcDbEntity
  8
Detail
  6
CONTINUOUS
 62
     6
100
AcDbPolyline
 90
     2
 10
-209.492238
 20
261.820780
 42
0.000000
 10
-209.492238
 20
292.988653
 42
0.000000
  0
ENDBLK
  5
7B1
100
AcDbEntity
  8
0
100
AcDbBlockEnd
  0
BLOCK
  5
7B2
100
AcDbEntity
  8
SCHRAFF
100
AcDbBlockBegin
  2
B-68
 70
    66
 10
0.000000
 20
0.000000
 30
0.000000
  0
HATCH
  5
7B3
100
AcDbEntity
  8
SCHRAFF
 62
     8
440
     0
100
AcDbHatch
 10
0.000000
 20
0.000000
 30
0.000000
210
0.000000
220
0.000000
230
1.000000
  2
SOLID
 70
     1
 71
     1
 91
     1
 92
    18
 72
     1
 73
     0
 93
     5
 10
2.002463
 20
147.457847
 42
0.000000
 10
2.499982
 20
152.433033
 42
0.000000
 10
-7.450390
 20
153.428071
 42
0.000000
 10
-7.947908
 20
148.452885
 42
0.000000
 10
2.002463
 20
147.457847
 42
0.000000
 97
     0
 75
     0
 76
     1
 98
     0
  0
LWPOLYLINE
  5
7B4
100
AcDbEntity
  8
Detail
  6
CONTINUOUS
 62
     4
100
AcDbPolyline
 90
     5
 10
2.499982
 20
152.433033
 42
0.000000
 10
2.002463
 20
147.457847
 42
0.000000
 10
-7.947908
 20
148.452885
 42
0.000000
 10
-7.450390
 20
153.428071
 42
0.000000
 10
2.499982
 20
152.433033
 42
0.000000
  0
ENDBLK
  5
7BA
100
AcDbEntity
  8
0
100
AcDbBlockEnd
  0
BLOCK
  5
7BB
100
AcDbEntity
  8
SCHRAFF
100
AcDbBlockBegin
  2
B-69
 70
    66
 10
0.000000
 20
0.000000
 30
0.000000
  0
HATCH
  5
7BC
100
AcDbEntity
  8
SCHRAFF
 62
     7
440
     0
100
AcDbHatch
 10
0.000000
 20
0.000000
 30
0.000000
210
0.000000
220
0.000000
230
1.000000
  2
SOLID
 70
     1
 71
     1
 91
     1
 92
    18
 72
     1
 73
     0
 93
     3
 10
-2.110150
 20
150.431258
 42
1.000000
 10
-3.110150
 20
150.431258
 42
1.000000
 10
-2.110150
 20
150.431258
 42
0.000000
 97
     0
 75
     0
 76
     1
 98
     0
  0
ENDBLK
  5
7BD
100
AcDbEntity
  8
0
100
AcDbBlockEnd
  0
BLOCK
  5
7BE
100
AcDbEntity
  8
Detail
100
AcDbBlockBegin
  2
B-70
 70
    66
 10
0.000000
 20
0.000000
 30
0.000000
  0
CIRCLE
  5
7BF
100
AcDbEntity
  8
Detail
  6
CONTINUOUS
 62
     7
100
AcDbCircle
 10
-2.610150
 20
150.431258
 40
0.500000
  0
ENDBLK
  5
7C0
100
AcDbEntity
  8
0
100
AcDbBlockEnd
  0
BLOCK
  5
7C1
100
AcDbEntity
  8
Detail
100
AcDbBlockBegin
  2
B-71
 70
    66
 10
0.000000
 20
0.000000
 30
0.000000
  0
LWPOLYLINE
  5
7C2
100
AcDbEntity
  8
Detail
  6
CONTINUOUS
 62
     7
100
AcDbPolyline
 90
     3
 10
77.500023
 20
160.250059
 42
0.000000
 10
-2.610150
 20
160.250059
 42
0.000000
 10
-2.610150
 20
150.431258
 42
0.000000
  0
ENDBLK
  5
7C6
100
AcDbEntity
  8
0
100
AcDbBlockEnd
  0
BLOCK
  5
7C7
100
AcDbEntity
  8
SCHRAFF
100
AcDbBlockBegin
  2
B-72
 70
    66
 10
0.000000
 20
0.000000
 30
0.000000
  0
HATCH
  5
7C8
100
AcDbEntity
  8
SCHRAFF
 62
     8
440
     0
100
AcDbHatch
 10
0.000000
 20
0.000000
 30
0.000000
210
0.000000
220
0.000000
230
1.000000
  2
SOLID
 70
     1
 71
     1
 91
     1
 92
    18
 72
     1
 73
     0
 93
     5
 10
22.251223
 20
147.945440
 42
0.000000
 10
22.499982
 20
150.433033
 42
0.000000
 10
2.499982
 20
152.433033
 42
0.000000
 10
2.251191
 20
149.945124
 42
0.000000
 10
22.251223
 20
147.945440
 42
0.000000
 97
     0
 75
     0
 76
     1
 98
     0
  0
LWPOLYLINE
  5
7C9
100
AcDbEntity
  8
Detail
  6
CONTINUOUS
 62
     4
100
AcDbPolyline
 90
     5
 10
22.499982
 20
150.433033
 42
0.000000
 10
22.251223
 20
147.945440
 42
0.000000
 10
2.251191
 20
149.945124
 42
0.000000
 10
2.499982
 20
152.433033
 42
0.000000
 10
22.499982
 20
150.433033
 42
0.000000
  0
ENDBLK
  5
7CF
100
AcDbEntity
  8
0
100
AcDbBlockEnd
  0
BLOCK
  5
7D0
100
AcDbEntity
  8
Detail
100
AcDbBlockBegin
  2
B-73
 70
    66
 10
0.000000
 20
0.000000
 30
0.000000
  0
MTEXT
  5
7D1
100
AcDbEntity
  8
Detail
 62
     7
100
AcDbMText
 10
79.375023
 20
137.750160
 30
0.000000
 40
4.999995
 41
49.454951
 71
     1
 72
     5
  1
Gipserband PE
  7
Arial
 50
0.000000
  0
ENDBLK
  5
7D2
100
AcDbEntity
  8
0
100
AcDbBlockEnd
  0
BLOCK
  5
7D3
100
AcDbEntity
  8
Detail
100
AcDbBlockBegin
  2
B-74
 70
    66
 10
0.000000
 20
0.000000
 30
0.000000
  0
LWPOLYLINE
  5
7D4
100
AcDbEntity
  8
Detail
  6
CONTINUOUS
 62
     7
100
AcDbPolyline
 90
     3
 10
77.500023
 20
135.250163
 42
0.000000
 10
27.314676
 20
135.250163
 42
0.000000
 10
12.375602
 20
150.189237
 42
0.000000
  0
ENDBLK
  5
7D8
100
AcDbEntity
  8
0
100
AcDbBlockEnd
  0
BLOCK
  5
7D9
100
AcDbEntity
  8
Detail
100
AcDbBlockBegin
  2
B-75
 70
    66
 10
0.000000
 20
0.000000
 30
0.000000
  0
CIRCLE
  5
7DA
100
AcDbEntity
  8
Detail
  6
CONTINUOUS
 62
     7
100
AcDbCircle
 10
12.375602
 20
150.189237
 40
0.500000
  0
ENDBLK
  5
7DB
100
AcDbEntity
  8
0
100
AcDbBlockEnd
  0
BLOCK
  5
7DC
100
AcDbEntity
  8
SCHRAFF
100
AcDbBlockBegin
  2
B-76
 70
    66
 10
0.000000
 20
0.000000
 30
0.000000
  0
HATCH
  5
7DD
100
AcDbEntity
  8
SCHRAFF
 62
     7
440
     0
100
AcDbHatch
 10
0.000000
 20
0.000000
 30
0.000000
210
0.000000
220
0.000000
230
1.000000
  2
SOLID
 70
     1
 71
     1
 91
     1
 92
    18
 72
     1
 73
     0
 93
     3
 10
12.875602
 20
150.189237
 42
1.000000
 10
11.875602
 20
150.189237
 42
1.000000
 10
12.875602
 20
150.189237
 42
0.000000
 97
     0
 75
     0
 76
     1
 98
     0
  0
ENDBLK
  5
7DE
100
AcDbEntity
  8
0
100
AcDbBlockEnd
  0
BLOCK
  5
7DF
100
AcDbEntity
  8
Detail
100
AcDbBlockBegin
  2
B-77
 70
    66
 10
0.000000
 20
0.000000
 30
0.000000
  0
LWPOLYLINE
  5
7E0
100
AcDbEntity
  8
Detail
  6
CONTINUOUS
 62
     9
100
AcDbPolyline
 90
   171
 10
-133.764215
 20
85.250059
 42
0.000000
 10
-131.651139
 20
85.625324
 42
0.000000
 10
-131.149564
 20
86.494078
 42
0.000000
 10
-130.760889
 20
85.994078
 42
0.000000
 10
-129.680552
 20
86.441568
 42
0.000000
 10
-129.178977
 20
87.310322
 42
0.000000
 10
-128.790302
 20
86.810322
 42
0.000000
 10
-128.211525
 20
87.050059
 42
0.000000
 10
-127.610486
 20
87.050059
 42
0.000000
 10
-127.321811
 20
87.550059
 42
0.000000
 10
-126.933136
 20
87.050059
 42
0.000000
 10
-125.800486
 20
87.050059
 42
0.000000
 10
-125.511811
 20
87.550059
 42
0.000000
 10
-125.123136
 20
87.050059
 42
0.000000
 10
-123.990486
 20
87.050059
 42
0.000000
 10
-123.701811
 20
87.550059
 42
0.000000
 10
-123.313136
 20
87.050059
 42
0.000000
 10
-122.180486
 20
87.050059
 42
0.000000
 10
-121.891811
 20
87.550059
 42
0.000000
 10
-121.503136
 20
87.050059
 42
0.000000
 10
-120.370486
 20
87.050059
 42
0.000000
 10
-120.081811
 20
87.550059
 42
0.000000
 10
-119.693136
 20
87.050059
 42
0.000000
 10
-118.560486
 20
87.050059
 42
0.000000
 10
-118.271811
 20
87.550059
 42
0.000000
 10
-117.883136
 20
87.050059
 42
0.000000
 10
-116.750486
 20
87.050059
 42
0.000000
 10
-116.461811
 20
87.550059
 42
0.000000
 10
-116.073136
 20
87.050059
 42
0.000000
 10
-114.940486
 20
87.050059
 42
0.000000
 10
-114.651811
 20
87.550059
 42
0.000000
 10
-114.263136
 20
87.050059
 42
0.000000
 10
-113.130486
 20
87.050059
 42
0.000000
 10
-112.841811
 20
87.550059
 42
0.000000
 10
-112.453136
 20
87.050059
 42
0.000000
 10
-111.320486
 20
87.050059
 42
0.000000
 10
-111.031811
 20
87.550059
 42
0.000000
 10
-110.643136
 20
87.050059
 42
0.000000
 10
-109.510486
 20
87.050059
 42
0.000000
 10
-109.221811
 20
87.550059
 42
0.000000
 10
-108.833136
 20
87.050059
 42
0.000000
 10
-107.700486
 20
87.050059
 42
0.000000
 10
-107.411811
 20
87.550059
 42
0.000000
 10
-107.023136
 20
87.050059
 42
0.000000
 10
-105.890486
 20
87.050059
 42
0.000000
 10
-105.601811
 20
87.550059
 42
0.000000
 10
-105.213136
 20
87.050059
 42
0.000000
 10
-104.080486
 20
87.050059
 42
0.000000
 10
-103.791811
 20
87.550059
 42
0.000000
 10
-103.403136
 20
87.050059
 42
0.000000
 10
-102.270486
 20
87.050059
 42
0.000000
 10
-101.981811
 20
87.550059
 42
0.000000
 10
-101.593136
 20
87.050059
 42
0.000000
 10
-100.460486
 20
87.050059
 42
0.000000
 10
-100.171811
 20
87.550059
 42
0.000000
 10
-99.783136
 20
87.050059
 42
0.000000
 10
-98.650486
 20
87.050059
 42
0.000000
 10
-98.361811
 20
87.550059
 42
0.000000
 10
-97.950622
 20
87.050059
 42
0.000000
 10
-96.840486
 20
87.050059
 42
0.000000
 10
-96.551811
 20
87.550059
 42
0.000000
 10
-96.163136
 20
87.050059
 42
0.000000
 10
-95.030486
 20
87.050059
 42
0.000000
 10
-94.741811
 20
87.550059
 42
0.000000
 10
-94.353136
 20
87.050059
 42
0.000000
 10
-93.220486
 20
87.050059
 42
0.000000
 10
-92.931811
 20
87.550059
 42
0.000000
 10
-92.543136
 20
87.050059
 42
0.000000
 10
-91.410486
 20
87.050059
 42
0.000000
 10
-91.121811
 20
87.550059
 42
0.000000
 10
-90.733136
 20
87.050059
 42
0.000000
 10
-89.600486
 20
87.050059
 42
0.000000
 10
-89.311811
 20
87.550059
 42
0.000000
 10
-88.923136
 20
87.050059
 42
0.000000
 10
-87.790486
 20
87.050059
 42
0.000000
 10
-87.501811
 20
87.550059
 42
0.000000
 10
-87.113136
 20
87.050059
 42
0.000000
 10
-85.980486
 20
87.050059
 42
0.000000
 10
-85.691811
 20
87.550059
 42
0.000000
 10
-85.303136
 20
87.050059
 42
0.000000
 10
-84.170486
 20
87.050059
 42
0.000000
 10
-83.881811
 20
87.550059
 42
0.000000
 10
-83.493136
 20
87.050059
 42
0.000000
 10
-82.792525
 20
87.050059
 42
0.000000
 10
-77.500018
 20
89.129948
 42
0.000000
 10
-77.500018
 20
81.370170
 42
0.000000
 10
-82.588136
 20
83.450059
 42
0.000000
 10
-82.976811
 20
82.950059
 42
0.000000
 10
-83.265486
 20
83.450059
 42
0.000000
 10
-84.398136
 20
83.450059
 42
0.000000
 10
-84.786811
 20
82.950059
 42
0.000000
 10
-85.075486
 20
83.450059
 42
0.000000
 10
-86.208136
 20
83.450059
 42
0.000000
 10
-86.596811
 20
82.950059
 42
0.000000
 10
-86.885486
 20
83.450059
 42
0.000000
 10
-88.018136
 20
83.450059
 42
0.000000
 10
-88.406811
 20
82.950059
 42
0.000000
 10
-88.695486
 20
83.450059
 42
0.000000
 10
-89.828136
 20
83.450059
 42
0.000000
 10
-90.216811
 20
82.950059
 42
0.000000
 10
-90.505486
 20
83.450059
 42
0.000000
 10
-91.638136
 20
83.450059
 42
0.000000
 10
-92.026811
 20
82.950059
 42
0.000000
 10
-92.315486
 20
83.450059
 42
0.000000
 10
-93.448136
 20
83.450059
 42
0.000000
 10
-93.836811
 20
82.950059
 42
0.000000
 10
-94.125486
 20
83.450059
 42
0.000000
 10
-95.258136
 20
83.450059
 42
0.000000
 10
-95.646811
 20
82.950059
 42
0.000000
 10
-95.935486
 20
83.450059
 42
0.000000
 10
-97.068136
 20
83.450059
 42
0.000000
 10
-97.456811
 20
82.950059
 42
0.000000
 10
-97.745486
 20
83.450059
 42
0.000000
 10
-98.878136
 20
83.450059
 42
0.000000
 10
-99.266811
 20
82.950059
 42
0.000000
 10
-99.555486
 20
83.450059
 42
0.000000
 10
-100.688136
 20
83.450059
 42
0.000000
 10
-101.076811
 20
82.950059
 42
0.000000
 10
-101.365486
 20
83.450059
 42
0.000000
 10
-102.498136
 20
83.450059
 42
0.000000
 10
-102.886811
 20
82.950059
 42
0.000000
 10
-103.175486
 20
83.450059
 42
0.000000
 10
-104.308136
 20
83.450059
 42
0.000000
 10
-104.696811
 20
82.950059
 42
0.000000
 10
-104.985486
 20
83.450059
 42
0.000000
 10
-106.118136
 20
83.450059
 42
0.000000
 10
-106.506811
 20
82.950059
 42
0.000000
 10
-106.795486
 20
83.450059
 42
0.000000
 10
-107.928136
 20
83.450059
 42
0.000000
 10
-108.316811
 20
82.950059
 42
0.000000
 10
-108.605486
 20
83.450059
 42
0.000000
 10
-109.738136
 20
83.450059
 42
0.000000
 10
-110.126811
 20
82.950059
 42
0.000000
 10
-110.415486
 20
83.450059
 42
0.000000
 10
-111.548136
 20
83.450059
 42
0.000000
 10
-111.936811
 20
82.950059
 42
0.000000
 10
-112.225486
 20
83.450059
 42
0.000000
 10
-113.358136
 20
83.450059
 42
0.000000
 10
-113.746811
 20
82.950059
 42
0.000000
 10
-114.035486
 20
83.450059
 42
0.000000
 10
-115.168136
 20
83.450059
 42
0.000000
 10
-115.556811
 20
82.950059
 42
0.000000
 10
-115.845486
 20
83.450059
 42
0.000000
 10
-116.978136
 20
83.450059
 42
0.000000
 10
-117.366811
 20
82.950059
 42
0.000000
 10
-117.655486
 20
83.450059
 42
0.000000
 10
-118.788136
 20
83.450059
 42
0.000000
 10
-119.176811
 20
82.950059
 42
0.000000
 10
-119.465486
 20
83.450059
 42
0.000000
 10
-120.598136
 20
83.450059
 42
0.000000
 10
-120.986811
 20
82.950059
 42
0.000000
 10
-121.275486
 20
83.450059
 42
0.000000
 10
-122.408136
 20
83.450059
 42
0.000000
 10
-122.796811
 20
82.950059
 42
0.000000
 10
-123.085486
 20
83.450059
 42
0.000000
 10
-124.218136
 20
83.450059
 42
0.000000
 10
-124.606811
 20
82.950059
 42
0.000000
 10
-124.895486
 20
83.450059
 42
0.000000
 10
-126.028136
 20
83.450059
 42
0.000000
 10
-126.416811
 20
82.950059
 42
0.000000
 10
-126.705486
 20
83.450059
 42
0.000000
 10
-127.838136
 20
83.450059
 42
0.000000
 10
-128.226811
 20
82.950059
 42
0.000000
 10
-128.611026
 20
83.615538
 42
0.000000
 10
-129.539885
 20
84.000285
 42
0.000000
 10
-129.928560
 20
83.500285
 42
0.000000
 10
-130.430135
 20
84.369038
 42
0.000000
 10
-131.213499
 20
84.693518
 42
0.000000
 10
-131.602174
 20
84.193518
 42
0.000000
 10
-132.103749
 20
85.062272
 42
0.000000
 10
-133.764215
 20
85.250059
 42
0.000000
  0
LWPOLYLINE
  5
88C
100
AcDbEntity
  8
Detail
  6
CONTINUOUS
 62
     9
100
AcDbPolyline
 90
    73
 10
-77.500018
 20
78.350937
 42
0.000000
 10
-76.000018
 20
80.615362
 42
0.000000
 10
-76.000018
 20
89.884756
 42
0.000000
 10
-77.500018
 20
92.149182
 42
0.000000
 10
-77.500018
 20
89.129948
 42
0.000000
 10
-92.212215
 20
88.710059
 42
0.000000
 10
-93.578158
 20
88.463050
 42
0.000000
 10
-93.653911
 20
88.710059
 42
0.000000
 10
-96.436215
 20
88.710059
 42
0.000000
 10
-97.802158
 20
88.463050
 42
0.000000
 10
-97.877911
 20
88.710059
 42
0.000000
 10
-100.660215
 20
88.710059
 42
0.000000
 10
-102.026158
 20
88.463050
 42
0.000000
 10
-102.101827
 20
88.705259
 42
0.000000
 10
-104.884215
 20
88.710059
 42
0.000000
 10
-106.250158
 20
88.463050
 42
0.000000
 10
-106.325911
 20
88.710059
 42
0.000000
 10
-109.108215
 20
88.710059
 42
0.000000
 10
-110.474158
 20
88.463050
 42
0.000000
 10
-110.549911
 20
88.710059
 42
0.000000
 10
-113.332215
 20
88.710059
 42
0.000000
 10
-114.698158
 20
88.463050
 42
0.000000
 10
-114.773911
 20
88.710059
 42
0.000000
 10
-117.556215
 20
88.710059
 42
0.000000
 10
-118.922158
 20
88.463050
 42
0.000000
 10
-118.997911
 20
88.710059
 42
0.000000
 10
-121.780215
 20
88.710059
 42
0.000000
 10
-123.146158
 20
88.463050
 42
0.000000
 10
-123.221911
 20
88.710059
 42
0.000000
 10
-126.004215
 20
88.710059
 42
0.000000
 10
-127.208372
 20
88.427627
 42
0.000000
 10
-127.667355
 20
88.590059
 42
0.000000
 10
-128.644215
 20
88.155803
 42
0.000000
 10
-128.884215
 20
87.630059
 42
0.000000
 10
-129.652215
 20
87.630059
 42
0.000000
 10
-131.170108
 20
87.089091
 42
0.000000
 10
-132.003725
 20
85.710059
 42
0.000000
 10
-133.764215
 20
85.250059
 42
0.000000
 10
-132.003725
 20
84.790059
 42
0.000000
 10
-131.170108
 20
83.411027
 42
0.000000
 10
-129.907414
 20
82.883666
 42
0.000000
 10
-128.884215
 20
82.870059
 42
0.000000
 10
-128.644215
 20
82.344315
 42
0.000000
 10
-127.892059
 20
81.910059
 42
0.000000
 10
-127.442646
 20
81.910059
 42
0.000000
 10
-127.208372
 20
82.072491
 42
0.000000
 10
-126.004215
 20
81.790059
 42
0.000000
 10
-123.221911
 20
81.790059
 42
0.000000
 10
-123.146158
 20
82.037068
 42
0.000000
 10
-121.780215
 20
81.790059
 42
0.000000
 10
-118.997911
 20
81.790059
 42
0.000000
 10
-118.922158
 20
82.037068
 42
0.000000
 10
-117.556215
 20
81.790059
 42
0.000000
 10
-114.773911
 20
81.790059
 42
0.000000
 10
-114.698158
 20
82.037068
 42
0.000000
 10
-113.332215
 20
81.790059
 42
0.000000
 10
-110.549911
 20
81.790059
 42
0.000000
 10
-110.474158
 20
82.037068
 42
0.000000
 10
-109.108215
 20
81.790059
 42
0.000000
 10
-106.325911
 20
81.790059
 42
0.000000
 10
-106.250158
 20
82.037068
 42
0.000000
 10
-104.884215
 20
81.790059
 42
0.000000
 10
-102.101827
 20
81.794859
 42
0.000000
 10
-102.026158
 20
82.037068
 42
0.000000
 10
-100.660215
 20
81.790059
 42
0.000000
 10
-97.877911
 20
81.790059
 42
0.000000
 10
-97.802158
 20
82.037068
 42
0.000000
 10
-96.436215
 20
81.790059
 42
0.000000
 10
-93.653911
 20
81.790059
 42
0.000000
 10
-93.578158
 20
82.037068
 42
0.000000
 10
-92.212215
 20
81.790059
 42
0.000000
 10
-77.500018
 20
81.370170
 42
0.000000
 10
-77.500018
 20
78.350937
 42
0.000000
  0
ENDBLK
  5
8D6
100
AcDbEntity
  8
0
100
AcDbBlockEnd
  0
BLOCK
  5
8D7
100
AcDbEntity
  8
SCHRAFF
100
AcDbBlockBegin
  2
B-79
 70
    66
 10
0.000000
 20
0.000000
 30
0.000000
  0
HATCH
  5
8D8
100
AcDbEntity
  8
SCHRAFF
 62
     7
440
     0
100
AcDbHatch
 10
0.000000
 20
0.000000
 30
0.000000
210
0.000000
220
0.000000
230
1.000000
  2
SOLID
 70
     1
 71
     1
 91
     1
 92
    18
 72
     1
 73
     0
 93
     3
 10
-79.500018
 20
110.250059
 42
1.000000
 10
-80.500018
 20
110.250059
 42
1.000000
 10
-79.500018
 20
110.250059
 42
0.000000
 97
     0
 75
     0
 76
     1
 98
     0
  0
CIRCLE
  5
8D9
100
AcDbEntity
  8
Detail
  6
CONTINUOUS
 62
     7
100
AcDbCircle
 10
-80.000018
 20
110.250059
 40
0.500000
  0
LWPOLYLINE
  5
8DA
100
AcDbEntity
  8
Detail
  6
CONTINUOUS
 62
     7
100
AcDbPolyline
 90
     2
 10
77.500023
 20
110.250059
 42
0.000000
 10
-80.000018
 20
110.250059
 42
0.000000
  0
ENDBLK
  5
8DD
100
AcDbEntity
  8
0
100
AcDbBlockEnd
  0
BLOCK
  5
8DE
100
AcDbEntity
  8
SCHRAFF
100
AcDbBlockBegin
  2
B-80
 70
    66
 10
0.000000
 20
0.000000
 30
0.000000
  0
HATCH
  5
8DF
100
AcDbEntity
  8
SCHRAFF
 62
     7
440
     0
100
AcDbHatch
 10
0.000000
 20
0.000000
 30
0.000000
210
0.000000
220
0.000000
230
1.000000
  2
SOLID
 70
     1
 71
     1
 91
     1
 92
    18
 72
     1
 73
     0
 93
     3
 10
-75.500018
 20
85.250059
 42
1.000000
 10
-76.500018
 20
85.250059
 42
1.000000
 10
-75.500018
 20
85.250059
 42
0.000000
 97
     0
 75
     0
 76
     1
 98
     0
  0
CIRCLE
  5
8E0
100
AcDbEntity
  8
Detail
  6
CONTINUOUS
 62
     7
100
AcDbCircle
 10
-76.000018
 20
85.250059
 40
0.500000
  0
LWPOLYLINE
  5
8E1
100
AcDbEntity
  8
Detail
  6
CONTINUOUS
 62
     7
100
AcDbPolyline
 90
     2
 10
77.500023
 20
85.250059
 42
0.000000
 10
-76.000018
 20
85.250059
 42
0.000000
  0
ENDBLK
  5
8E4
100
AcDbEntity
  8
0
100
AcDbBlockEnd
  0
BLOCK
  5
8E5
100
AcDbEntity
  8
Detail
100
AcDbBlockBegin
  2
B-81
 70
    66
 10
0.000000
 20
0.000000
 30
0.000000
  0
LWPOLYLINE
  5
8E6
100
AcDbEntity
  8
Detail
  6
CONTINUOUS
 62
     4
100
AcDbPolyline
 90
    10
 10
-130.500014
 20
183.522809
 42
0.000000
 10
-127.500014
 20
183.522809
 42
0.000000
 10
-127.500014
 20
178.522809
 42
0.000000
 10
-126.500014
 20
178.522809
 42
0.000000
 10
-125.500014
 20
184.183061
 42
0.000000
 10
-130.500016
 20
185.522807
 42
0.000000
 10
-132.500012
 20
185.522807
 42
0.000000
 10
-132.500012
 20
173.522809
 42
0.000000
 10
-130.500014
 20
173.522809
 42
0.000000
 10
-130.500014
 20
183.522809
 42
0.000000
  0
ENDBLK
  5
8F1
100
AcDbEntity
  8
0
100
AcDbBlockEnd
  0
ENDSEC
  0
SECTION
  2
ENTITIES
  0
INSERT
  5
8F2
100
AcDbEntity
  8
0
100
AcDbBlockReference
  2
B
 10
0.000000
 20
0.000000
 30
0.000000
 41
1.000000
 42
1.000000
 43
1.000000
 50
0.000000
  0
INSERT
  5
8F3
100
AcDbEntity
  8
0
100
AcDbBlockReference
  2
B-2
 10
0.000000
 20
0.000000
 30
0.000000
 41
1.000000
 42
1.000000
 43
1.000000
 50
0.000000
  0
INSERT
  5
8F4
100
AcDbEntity
  8
0
100
AcDbBlockReference
  2
B-3
 10
0.000000
 20
0.000000
 30
0.000000
 41
1.000000
 42
1.000000
 43
1.000000
 50
0.000000
  0
INSERT
  5
8F5
100
AcDbEntity
  8
0
100
AcDbBlockReference
  2
B-4
 10
0.000000
 20
0.000000
 30
0.000000
 41
1.000000
 42
1.000000
 43
1.000000
 50
0.000000
  0
INSERT
  5
8F6
100
AcDbEntity
  8
0
100
AcDbBlockReference
  2
B-5
 10
0.000000
 20
0.000000
 30
0.000000
 41
1.000000
 42
1.000000
 43
1.000000
 50
0.000000
  0
INSERT
  5
8F7
100
AcDbEntity
  8
0
100
AcDbBlockReference
  2
B-6
 10
0.000000
 20
0.000000
 30
0.000000
 41
1.000000
 42
1.000000
 43
1.000000
 50
0.000000
  0
INSERT
  5
8F8
100
AcDbEntity
  8
0
100
AcDbBlockReference
  2
B-7
 10
0.000000
 20
0.000000
 30
0.000000
 41
1.000000
 42
1.000000
 43
1.000000
 50
0.000000
  0
INSERT
  5
8F9
100
AcDbEntity
  8
Detail
100
AcDbBlockReference
  2
B-8
 10
0.000000
 20
0.000000
 30
0.000000
 41
1.000000
 42
1.000000
 43
1.000000
 50
0.000000
  0
INSERT
  5
8FA
100
AcDbEntity
  8
0
100
AcDbBlockReference
  2
B-9
 10
0.000000
 20
0.000000
 30
0.000000
 41
1.000000
 42
1.000000
 43
1.000000
 50
0.000000
  0
INSERT
  5
8FB
100
AcDbEntity
  8
Detail
100
AcDbBlockReference
  2
B-10
 10
0.000000
 20
0.000000
 30
0.000000
 41
1.000000
 42
1.000000
 43
1.000000
 50
0.000000
  0
INSERT
  5
8FC
100
AcDbEntity
  8
0
100
AcDbBlockReference
  2
B-11
 10
0.000000
 20
0.000000
 30
0.000000
 41
1.000000
 42
1.000000
 43
1.000000
 50
0.000000
  0
INSERT
  5
8FD
100
AcDbEntity
  8
0
100
AcDbBlockReference
  2
B-12
 10
0.000000
 20
0.000000
 30
0.000000
 41
1.000000
 42
1.000000
 43
1.000000
 50
0.000000
  0
INSERT
  5
8FE
100
AcDbEntity
  8
0
100
AcDbBlockReference
  2
B-13
 10
0.000000
 20
0.000000
 30
0.000000
 41
1.000000
 42
1.000000
 43
1.000000
 50
0.000000
  0
INSERT
  5
8FF
100
AcDbEntity
  8
Detail
100
AcDbBlockReference
  2
B-14
 10
0.000000
 20
0.000000
 30
0.000000
 41
1.000000
 42
1.000000
 43
1.000000
 50
0.000000
  0
INSERT
  5
900
100
AcDbEntity
  8
Detail
100
AcDbBlockReference
  2
B-15
 10
0.000000
 20
0.000000
 30
0.000000
 41
1.000000
 42
1.000000
 43
1.000000
 50
0.000000
  0
INSERT
  5
901
100
AcDbEntity
  8
0
100
AcDbBlockReference
  2
B-16
 10
0.000000
 20
0.000000
 30
0.000000
 41
1.000000
 42
1.000000
 43
1.000000
 50
0.000000
  0
INSERT
  5
902
100
AcDbEntity
  8
Detail
100
AcDbBlockReference
  2
B-17
 10
0.000000
 20
0.000000
 30
0.000000
 41
1.000000
 42
1.000000
 43
1.000000
 50
0.000000
  0
INSERT
  5
903
100
AcDbEntity
  8
Detail
100
AcDbBlockReference
  2
B-18
 10
0.000000
 20
0.000000
 30
0.000000
 41
1.000000
 42
1.000000
 43
1.000000
 50
0.000000
  0
INSERT
  5
904
100
AcDbEntity
  8
0
100
AcDbBlockReference
  2
B-19
 10
0.000000
 20
0.000000
 30
0.000000
 41
1.000000
 42
1.000000
 43
1.000000
 50
0.000000
  0
INSERT
  5
905
100
AcDbEntity
  8
Detail
100
AcDbBlockReference
  2
B-20
 10
0.000000
 20
0.000000
 30
0.000000
 41
1.000000
 42
1.000000
 43
1.000000
 50
0.000000
  0
INSERT
  5
906
100
AcDbEntity
  8
Detail
100
AcDbBlockReference
  2
B-21
 10
0.000000
 20
0.000000
 30
0.000000
 41
1.000000
 42
1.000000
 43
1.000000
 50
0.000000
  0
INSERT
  5
907
100
AcDbEntity
  8
Detail
100
AcDbBlockReference
  2
B-22
 10
0.000000
 20
0.000000
 30
0.000000
 41
1.000000
 42
1.000000
 43
1.000000
 50
0.000000
  0
INSERT
  5
908
100
AcDbEntity
  8
Detail
100
AcDbBlockReference
  2
B-23
 10
0.000000
 20
0.000000
 30
0.000000
 41
1.000000
 42
1.000000
 43
1.000000
 50
0.000000
  0
INSERT
  5
909
100
AcDbEntity
  8
0
100
AcDbBlockReference
  2
B-24
 10
0.000000
 20
0.000000
 30
0.000000
 41
1.000000
 42
1.000000
 43
1.000000
 50
0.000000
  0
INSERT
  5
90A
100
AcDbEntity
  8
Detail
100
AcDbBlockReference
  2
B-25
 10
0.000000
 20
0.000000
 30
0.000000
 41
1.000000
 42
1.000000
 43
1.000000
 50
0.000000
  0
INSERT
  5
90B
100
AcDbEntity
  8
0
100
AcDbBlockReference
  2
B-26
 10
0.000000
 20
0.000000
 30
0.000000
 41
1.000000
 42
1.000000
 43
1.000000
 50
0.000000
  0
INSERT
  5
90C
100
AcDbEntity
  8
0
100
AcDbBlockReference
  2
B-27
 10
0.000000
 20
0.000000
 30
0.000000
 41
1.000000
 42
1.000000
 43
1.000000
 50
0.000000
  0
INSERT
  5
90D
100
AcDbEntity
  8
Detail
100
AcDbBlockReference
  2
B-28
 10
0.000000
 20
0.000000
 30
0.000000
 41
1.000000
 42
1.000000
 43
1.000000
 50
0.000000
  0
INSERT
  5
90E
100
AcDbEntity
  8
Detail
100
AcDbBlockReference
  2
B-29
 10
0.000000
 20
0.000000
 30
0.000000
 41
1.000000
 42
1.000000
 43
1.000000
 50
0.000000
  0
INSERT
  5
90F
100
AcDbEntity
  8
0
100
AcDbBlockReference
  2
B-30
 10
0.000000
 20
0.000000
 30
0.000000
 41
1.000000
 42
1.000000
 43
1.000000
 50
0.000000
  0
INSERT
  5
910
100
AcDbEntity
  8
Detail
100
AcDbBlockReference
  2
B-31
 10
0.000000
 20
0.000000
 30
0.000000
 41
1.000000
 42
1.000000
 43
1.000000
 50
0.000000
  0
INSERT
  5
911
100
AcDbEntity
  8
0
100
AcDbBlockReference
  2
B-32
 10
0.000000
 20
0.000000
 30
0.000000
 41
1.000000
 42
1.000000
 43
1.000000
 50
0.000000
  0
INSERT
  5
912
100
AcDbEntity
  8
Detail
100
AcDbBlockReference
  2
B-33
 10
0.000000
 20
0.000000
 30
0.000000
 41
1.000000
 42
1.000000
 43
1.000000
 50
0.000000
  0
INSERT
  5
913
100
AcDbEntity
  8
Detail
100
AcDbBlockReference
  2
B-34
 10
0.000000
 20
0.000000
 30
0.000000
 41
1.000000
 42
1.000000
 43
1.000000
 50
0.000000
  0
INSERT
  5
914
100
AcDbEntity
  8
Detail
100
AcDbBlockReference
  2
B-35
 10
0.000000
 20
0.000000
 30
0.000000
 41
1.000000
 42
1.000000
 43
1.000000
 50
0.000000
  0
INSERT
  5
915
100
AcDbEntity
  8
Detail
100
AcDbBlockReference
  2
B-36
 10
0.000000
 20
0.000000
 30
0.000000
 41
1.000000
 42
1.000000
 43
1.000000
 50
0.000000
  0
INSERT
  5
916
100
AcDbEntity
  8
Detail
100
AcDbBlockReference
  2
B-37
 10
0.000000
 20
0.000000
 30
0.000000
 41
1.000000
 42
1.000000
 43
1.000000
 50
0.000000
  0
INSERT
  5
917
100
AcDbEntity
  8
Detail
100
AcDbBlockReference
  2
B-38
 10
0.000000
 20
0.000000
 30
0.000000
 41
1.000000
 42
1.000000
 43
1.000000
 50
0.000000
  0
INSERT
  5
918
100
AcDbEntity
  8
0
100
AcDbBlockReference
  2
glasleiste
 10
0.000000
 20
0.000000
 30
0.000000
 41
1.000000
 42
1.000000
 43
1.000000
 50
0.000000
  0
INSERT
  5
919
100
AcDbEntity
  8
0
100
AcDbBlockReference
  2
rahmen
 10
0.000000
 20
0.000000
 30
0.000000
 41
1.000000
 42
1.000000
 43
1.000000
 50
0.000000
  0
INSERT
  5
91A
100
AcDbEntity
  8
0
100
AcDbBlockReference
  2
fluegel
 10
0.000000
 20
0.000000
 30
0.000000
 41
1.000000
 42
1.000000
 43
1.000000
 50
0.000000
  0
INSERT
  5
91B
100
AcDbEntity
  8
Detail
100
AcDbBlockReference
  2
w-schenkel
 10
0.000000
 20
0.000000
 30
0.000000
 41
1.000000
 42
1.000000
 43
1.000000
 50
0.000000
  0
INSERT
  5
91C
100
AcDbEntity
  8
Detail
100
AcDbBlockReference
  2
glas
 10
0.000000
 20
0.000000
 30
0.000000
 41
1.000000
 42
1.000000
 43
1.000000
 50
0.000000
  0
INSERT
  5
91D
100
AcDbEntity
  8
Detail
100
AcDbBlockReference
  2
B-39
 10
0.000000
 20
0.000000
 30
0.000000
 41
1.000000
 42
1.000000
 43
1.000000
 50
0.000000
  0
INSERT
  5
91E
100
AcDbEntity
  8
Detail
100
AcDbBlockReference
  2
B-40
 10
0.000000
 20
0.000000
 30
0.000000
 41
1.000000
 42
1.000000
 43
1.000000
 50
0.000000
  0
INSERT
  5
91F
100
AcDbEntity
  8
0
100
AcDbBlockReference
  2
B-41
 10
0.000000
 20
0.000000
 30
0.000000
 41
1.000000
 42
1.000000
 43
1.000000
 50
0.000000
  0
INSERT
  5
920
100
AcDbEntity
  8
Detail
100
AcDbBlockReference
  2
B-42
 10
0.000000
 20
0.000000
 30
0.000000
 41
1.000000
 42
1.000000
 43
1.000000
 50
0.000000
  0
INSERT
  5
921
100
AcDbEntity
  8
Detail
100
AcDbBlockReference
  2
B-43
 10
0.000000
 20
0.000000
 30
0.000000
 41
1.000000
 42
1.000000
 43
1.000000
 50
0.000000
  0
INSERT
  5
922
100
AcDbEntity
  8
Detail
100
AcDbBlockReference
  2
B-44
 10
0.000000
 20
0.000000
 30
0.000000
 41
1.000000
 42
1.000000
 43
1.000000
 50
0.000000
  0
INSERT
  5
923
100
AcDbEntity
  8
Detail
100
AcDbBlockReference
  2
B-45
 10
0.000000
 20
0.000000
 30
0.000000
 41
1.000000
 42
1.000000
 43
1.000000
 50
0.000000
  0
INSERT
  5
924
100
AcDbEntity
  8
Detail
100
AcDbBlockReference
  2
B-46
 10
0.000000
 20
0.000000
 30
0.000000
 41
1.000000
 42
1.000000
 43
1.000000
 50
0.000000
  0
INSERT
  5
925
100
AcDbEntity
  8
Detail
100
AcDbBlockReference
  2
B-47
 10
0.000000
 20
0.000000
 30
0.000000
 41
1.000000
 42
1.000000
 43
1.000000
 50
0.000000
  0
INSERT
  5
926
100
AcDbEntity
  8
Detail
100
AcDbBlockReference
  2
B-48
 10
0.000000
 20
0.000000
 30
0.000000
 41
1.000000
 42
1.000000
 43
1.000000
 50
0.000000
  0
INSERT
  5
927
100
AcDbEntity
  8
Detail
100
AcDbBlockReference
  2
B-49
 10
0.000000
 20
0.000000
 30
0.000000
 41
1.000000
 42
1.000000
 43
1.000000
 50
0.000000
  0
INSERT
  5
928
100
AcDbEntity
  8
Detail
100
AcDbBlockReference
  2
B-50
 10
0.000000
 20
0.000000
 30
0.000000
 41
1.000000
 42
1.000000
 43
1.000000
 50
0.000000
  0
INSERT
  5
929
100
AcDbEntity
  8
Detail
100
AcDbBlockReference
  2
B-51
 10
0.000000
 20
0.000000
 30
0.000000
 41
1.000000
 42
1.000000
 43
1.000000
 50
0.000000
  0
INSERT
  5
92A
100
AcDbEntity
  8
Detail
100
AcDbBlockReference
  2
B-52
 10
0.000000
 20
0.000000
 30
0.000000
 41
1.000000
 42
1.000000
 43
1.000000
 50
0.000000
  0
INSERT
  5
92B
100
AcDbEntity
  8
Detail
100
AcDbBlockReference
  2
B-53
 10
0.000000
 20
0.000000
 30
0.000000
 41
1.000000
 42
1.000000
 43
1.000000
 50
0.000000
  0
INSERT
  5
92C
100
AcDbEntity
  8
Detail
100
AcDbBlockReference
  2
B-54
 10
0.000000
 20
0.000000
 30
0.000000
 41
1.000000
 42
1.000000
 43
1.000000
 50
0.000000
  0
INSERT
  5
92D
100
AcDbEntity
  8
Detail
100
AcDbBlockReference
  2
B-55
 10
0.000000
 20
0.000000
 30
0.000000
 41
1.000000
 42
1.000000
 43
1.000000
 50
0.000000
  0
INSERT
  5
92E
100
AcDbEntity
  8
Detail
100
AcDbBlockReference
  2
B-56
 10
0.000000
 20
0.000000
 30
0.000000
 41
1.000000
 42
1.000000
 43
1.000000
 50
0.000000
  0
INSERT
  5
92F
100
AcDbEntity
  8
Detail
100
AcDbBlockReference
  2
B-57
 10
0.000000
 20
0.000000
 30
0.000000
 41
1.000000
 42
1.000000
 43
1.000000
 50
0.000000
  0
INSERT
  5
930
100
AcDbEntity
  8
Detail
100
AcDbBlockReference
  2
B-58
 10
0.000000
 20
0.000000
 30
0.000000
 41
1.000000
 42
1.000000
 43
1.000000
 50
0.000000
  0
INSERT
  5
931
100
AcDbEntity
  8
Detail
100
AcDbBlockReference
  2
B-59
 10
0.000000
 20
0.000000
 30
0.000000
 41
1.000000
 42
1.000000
 43
1.000000
 50
0.000000
  0
INSERT
  5
932
100
AcDbEntity
  8
0
100
AcDbBlockReference
  2
B-60
 10
0.000000
 20
0.000000
 30
0.000000
 41
1.000000
 42
1.000000
 43
1.000000
 50
0.000000
  0
INSERT
  5
933
100
AcDbEntity
  8
Stahlbau
100
AcDbBlockReference
  2
B-61
 10
0.000000
 20
0.000000
 30
0.000000
 41
1.000000
 42
1.000000
 43
1.000000
 50
0.000000
  0
INSERT
  5
934
100
AcDbEntity
  8
Detail
100
AcDbBlockReference
  2
B-62
 10
0.000000
 20
0.000000
 30
0.000000
 41
1.000000
 42
1.000000
 43
1.000000
 50
0.000000
  0
INSERT
  5
935
100
AcDbEntity
  8
Detail
100
AcDbBlockReference
  2
B-63
 10
0.000000
 20
0.000000
 30
0.000000
 41
1.000000
 42
1.000000
 43
1.000000
 50
0.000000
  0
INSERT
  5
936
100
AcDbEntity
  8
Detail
100
AcDbBlockReference
  2
B-65
 10
0.000000
 20
0.000000
 30
0.000000
 41
1.000000
 42
1.000000
 43
1.000000
 50
0.000000
  0
INSERT
  5
937
100
AcDbEntity
  8
Detail
100
AcDbBlockReference
  2
B-66
 10
0.000000
 20
0.000000
 30
0.000000
 41
1.000000
 42
1.000000
 43
1.000000
 50
0.000000
  0
INSERT
  5
938
100
AcDbEntity
  8
Detail
100
AcDbBlockReference
  2
B-67
 10
0.000000
 20
0.000000
 30
0.000000
 41
1.000000
 42
1.000000
 43
1.000000
 50
0.000000
  0
INSERT
  5
939
100
AcDbEntity
  8
0
100
AcDbBlockReference
  2
B-68
 10
0.000000
 20
0.000000
 30
0.000000
 41
1.000000
 42
1.000000
 43
1.000000
 50
0.000000
  0
INSERT
  5
93A
100
AcDbEntity
  8
0
100
AcDbBlockReference
  2
B-69
 10
0.000000
 20
0.000000
 30
0.000000
 41
1.000000
 42
1.000000
 43
1.000000
 50
0.000000
  0
INSERT
  5
93B
100
AcDbEntity
  8
Detail
100
AcDbBlockReference
  2
B-70
 10
0.000000
 20
0.000000
 30
0.000000
 41
1.000000
 42
1.000000
 43
1.000000
 50
0.000000
  0
INSERT
  5
93C
100
AcDbEntity
  8
Detail
100
AcDbBlockReference
  2
B-71
 10
0.000000
 20
0.000000
 30
0.000000
 41
1.000000
 42
1.000000
 43
1.000000
 50
0.000000
  0
INSERT
  5
93D
100
AcDbEntity
  8
0
100
AcDbBlockReference
  2
B-72
 10
0.000000
 20
0.000000
 30
0.000000
 41
1.000000
 42
1.000000
 43
1.000000
 50
0.000000
  0
INSERT
  5
93E
100
AcDbEntity
  8
Detail
100
AcDbBlockReference
  2
B-73
 10
0.000000
 20
0.000000
 30
0.000000
 41
1.000000
 42
1.000000
 43
1.000000
 50
0.000000
  0
INSERT
  5
93F
100
AcDbEntity
  8
Detail
100
AcDbBlockReference
  2
B-74
 10
0.000000
 20
0.000000
 30
0.000000
 41
1.000000
 42
1.000000
 43
1.000000
 50
0.000000
  0
INSERT
  5
940
100
AcDbEntity
  8
Detail
100
AcDbBlockReference
  2
B-75
 10
0.000000
 20
0.000000
 30
0.000000
 41
1.000000
 42
1.000000
 43
1.000000
 50
0.000000
  0
INSERT
  5
941
100
AcDbEntity
  8
0
100
AcDbBlockReference
  2
B-76
 10
0.000000
 20
0.000000
 30
0.000000
 41
1.000000
 42
1.000000
 43
1.000000
 50
0.000000
  0
INSERT
  5
942
100
AcDbEntity
  8
Detail
100
AcDbBlockReference
  2
B-77
 10
0.000000
 20
0.000000
 30
0.000000
 41
1.000000
 42
1.000000
 43
1.000000
 50
0.000000
  0
INSERT
  5
943
100
AcDbEntity
  8
0
100
AcDbBlockReference
  2
B-79
 10
0.000000
 20
0.000000
 30
0.000000
 41
1.000000
 42
1.000000
 43
1.000000
 50
0.000000
  0
INSERT
  5
944
100
AcDbEntity
  8
0
100
AcDbBlockReference
  2
B-80
 10
0.000000
 20
0.000000
 30
0.000000
 41
1.000000
 42
1.000000
 43
1.000000
 50
0.000000
  0
INSERT
  5
945
100
AcDbEntity
  8
Detail
100
AcDbBlockReference
  2
B-81
 10
0.000000
 20
0.000000
 30
0.000000
 41
1.000000
 42
1.000000
 43
1.000000
 50
0.000000
  0
ENDSEC
  0
SECTION
  2
OBJECTS
  0
DICTIONARY
  5
C
330
0
100
AcDbDictionary
281
     1
  3
ACAD_COLOR
350
6B
  3
ACAD_GROUP
350
D
  3
ACAD_IMAGE_DICT
350
1E2
  3
ACAD_IMAGE_VARS
350
1E3
  3
ACAD_MATERIAL
350
6A
  3
ACAD_MLINESTYLE
350
17
  3
ACAD_PLOTSETTINGS
350
19
  3
ACAD_PLOTSTYLENAME
350
E
  3
ACAD_SCALELIST
350
10C
  3
ACAD_TABLESTYLE
350
7E
  3
ACAD_VISUALSTYLE
350
EF
  3
ACDB_RECOMPOSE_DATA
350
15D
  3
AcDbVariableDictionary
350
5E
  0
DICTIONARY
  5
13C
330
10
100
AcDbDictionary
280
     1
281
     1
  0
DICTIONARY
  5
203
330
202
100
AcDbDictionary
280
     1
281
     1
  0
DICTIONARY
  5
6B
102
{ACAD_REACTORS
330
C
102
}
330
C
100
AcDbDictionary
281
     1
  0
DICTIONARY
  5
D
102
{ACAD_REACTORS
330
C
102
}
330
C
100
AcDbDictionary
281
     1
  0
DICTIONARY
  5
1E2
102
{ACAD_REACTORS
330
C
102
}
330
C
100
AcDbDictionary
281
     1
  3
WDVS mit Edelkratzputz_Brüstung_4_1.tif
350
20F
  0
RASTERVARIABLES
  5
1E3
102
{ACAD_REACTORS
330
C
102
}
330
C
100
AcDbRasterVariables
 90
        0
 70
     1
 71
     1
 72
     1
  0
DICTIONARY
  5
6A
102
{ACAD_REACTORS
330
C
102
}
330
C
100
AcDbDictionary
281
     1
  3
ByBlock
350
ED
  3
ByLayer
350
EC
  3
Global
350
EE
  0
DICTIONARY
  5
12D
102
{ACAD_REACTORS
330
C
102
}
330
C
100
AcDbDictionary
281
     1
  3
Annotative
350
13B
  3
Standard
350
12E
  0
DICTIONARY
  5
17
102
{ACAD_REACTORS
330
C
102
}
330
C
100
AcDbDictionary
281
     1
  3
Standard
350
18
  0
DICTIONARY
  5
19
102
{ACAD_REACTORS
330
C
102
}
330
C
100
AcDbDictionary
281
     1
  0
ACDBDICTIONARYWDFLT
  5
E
102
{ACAD_REACTORS
330
C
102
}
330
C
100
AcDbDictionary
281
     1
  3
Normal
350
F
100
AcDbDictionaryWithDefault
340
F
  0
DICTIONARY
  5
10C
102
{ACAD_REACTORS
330
C
102
}
330
C
100
AcDbDictionary
281
     1
  3
A0
350
10D
  3
A1
350
1BE
  3
A2
350
1BF
  3
A3
350
1C0
  3
A4
350
1C1
  3
A5
350
1C2
  3
A6
350
1C3
  3
A7
350
1C4
  3
A8
350
1C5
  3
A9
350
1C6
  3
B0
350
1C7
  3
B1
350
1C8
  3
B2
350
1C9
  3
B3
350
1CA
  3
B4
350
1CB
  3
B5
350
1CC
  3
B6
350
1CD
  0
DICTIONARY
  5
7E
102
{ACAD_REACTORS
330
C
102
}
330
C
100
AcDbDictionary
281
     1
  3
Standard
350
7F
  0
DICTIONARY
  5
EF
102
{ACAD_REACTORS
330
C
102
}
330
C
100
AcDbDictionary
281
     1
  3
2dWireframe
350
F5
  3
3D Hidden
350
F7
  3
3dWireframe
350
F6
  3
Basic
350
F4
  3
Brighten
350
FB
  3
ColorChange
350
FF
  3
Conceptual
350
F8
  3
Dim
350
FA
  3
Facepattern
350
FE
  3
Flat
350
F0
  3
FlatWithEdges
350
F1
  3
Gouraud
350
F2
  3
GouraudWithEdges
350
F3
  3
Linepattern
350
FD
  3
Realistic
350
F9
  3
Thicken
350
FC
  0
XRECORD
  5
15D
102
{ACAD_REACTORS
330
C
102
}
330
C
100
AcDbXrecord
280
     1
 90
        1
330
7F
  0
DICTIONARY
  5
5E
102
{ACAD_REACTORS
330
C
102
}
330
C
100
AcDbDictionary
281
     1
  3
CANNOSCALE
350
146
  3
CMLEADERSTYLE
350
145
  3
CTABLESTYLE
350
84
  3
DIMASSOC
350
5F
  3
HIDETEXT
350
63
  3
LAYEREVAL
350
1AE
  3
LAYERNOTIFY
350
1AF
  0
MATERIAL
  5
ED
102
{ACAD_REACTORS
330
6A
102
}
330
6A
100
AcDbMaterial
  1
ByBlock
 94
       63
  0
MATERIAL
  5
EC
102
{ACAD_REACTORS
330
6A
102
}
330
6A
100
AcDbMaterial
  1
ByLayer
 94
       63
  0
MATERIAL
  5
EE
102
{ACAD_XDICTIONARY
360
173
102
}
102
{ACAD_REACTORS
330
6A
102
}
330
6A
100
AcDbMaterial
  1
Global
 43
0.0007999999797903
 43
0.0
 43
0.0
 43
0.0
 43
0.0
 43
0.0007999999797903
 43
0.0
 43
0.0
 43
0.0
 43
0.0
 43
1.0
 43
0.0
 43
0.0
 43
0.0
 43
0.0
 43
1.0
 49
0.0007999999797903
 49
0.0
 49
0.0
 49
0.0
 49
0.0
 49
0.0007999999797903
 49
0.0
 49
0.0
 49
0.0
 49
0.0
 49
1.0
 49
0.0
 49
0.0
 49
0.0
 49
0.0
 49
1.0
142
0.0007999999797903
142
0.0
142
0.0
142
0.0
142
0.0
142
0.0007999999797903
142
0.0
142
0.0
142
0.0
142
0.0
142
1.0
142
0.0
142
0.0
142
0.0
142
0.0
142
1.0
144
0.0007999999797903
144
0.0
144
0.0
144
0.0
144
0.0
144
0.0007999999797903
144
0.0
144
0.0
144
0.0
144
0.0
144
1.0
144
0.0
144
0.0
144
0.0
144
0.0
144
1.0
 94
       63
1001
ACAD
1070
    -1
1070
     3
1070
     0
1000

1071
        0
1070
     0
  0
MLINESTYLE
  5
18
102
{ACAD_REACTORS
330
17
102
}
330
17
100
AcDbMlineStyle
  2
STANDARD
 70
     0
  3

 62
   256
 51
90.0
 52
90.0
 71
     2
 49
0.5
 62
   256
  6
BYLAYER
 49
-0.5
 62
   256
  6
BYLAYER
  0
ACDBPLACEHOLDER
  5
F
102
{ACAD_REACTORS
330
E
102
}
330
E
  0
SCALE
  5
10D
102
{ACAD_REACTORS
330
10C
102
}
330
10C
100
AcDbScale
 70
     0
300
1:1
140
1.0
141
1.0
290
     1
  0
SCALE
  5
1BE
102
{ACAD_REACTORS
330
10C
102
}
330
10C
100
AcDbScale
 70
     0
300
1:2
140
1.0
141
2.0
290
     0
  0
SCALE
  5
1BF
102
{ACAD_REACTORS
330
10C
102
}
330
10C
100
AcDbScale
 70
     0
300
1:4
140
1.0
141
4.0
290
     0
  0
SCALE
  5
1C0
102
{ACAD_REACTORS
330
10C
102
}
330
10C
100
AcDbScale
 70
     0
300
1:5
140
1.0
141
5.0
290
     0
  0
SCALE
  5
1C1
102
{ACAD_REACTORS
330
10C
102
}
330
10C
100
AcDbScale
 70
     0
300
1:8
140
1.0
141
8.0
290
     0
  0
SCALE
  5
1C2
102
{ACAD_REACTORS
330
10C
102
}
330
10C
100
AcDbScale
 70
     0
300
1:10
140
1.0
141
10.0
290
     0
  0
SCALE
  5
1C3
102
{ACAD_REACTORS
330
10C
102
}
330
10C
100
AcDbScale
 70
     0
300
1:16
140
1.0
141
16.0
290
     0
  0
SCALE
  5
1C4
102
{ACAD_REACTORS
330
10C
102
}
330
10C
100
AcDbScale
 70
     0
300
1:20
140
1.0
141
20.0
290
     0
  0
SCALE
  5
1C5
102
{ACAD_REACTORS
330
10C
102
}
330
10C
100
AcDbScale
 70
     0
300
1:30
140
1.0
141
30.0
290
     0
  0
SCALE
  5
1C6
102
{ACAD_REACTORS
330
10C
102
}
330
10C
100
AcDbScale
 70
     0
300
1:40
140
1.0
141
40.0
290
     0
  0
SCALE
  5
1C7
102
{ACAD_REACTORS
330
10C
102
}
330
10C
100
AcDbScale
 70
     0
300
1:50
140
1.0
141
50.0
290
     0
  0
SCALE
  5
1C8
102
{ACAD_REACTORS
330
10C
102
}
330
10C
100
AcDbScale
 70
     0
300
1:100
140
1.0
141
100.0
290
     0
  0
SCALE
  5
1C9
102
{ACAD_REACTORS
330
10C
102
}
330
10C
100
AcDbScale
 70
     0
300
2:1
140
2.0
141
1.0
290
     0
  0
SCALE
  5
1CA
102
{ACAD_REACTORS
330
10C
102
}
330
10C
100
AcDbScale
 70
     0
300
4:1
140
4.0
141
1.0
290
     0
  0
SCALE
  5
1CB
102
{ACAD_REACTORS
330
10C
102
}
330
10C
100
AcDbScale
 70
     0
300
8:1
140
8.0
141
1.0
290
     0
  0
SCALE
  5
1CC
102
{ACAD_REACTORS
330
10C
102
}
330
10C
100
AcDbScale
 70
     0
300
10:1
140
10.0
141
1.0
290
     0
  0
SCALE
  5
1CD
102
{ACAD_REACTORS
330
10C
102
}
330
10C
100
AcDbScale
 70
     0
300
100:1
140
100.0
141
1.0
290
     0
  0
TABLESTYLE
  5
7F
102
{ACAD_XDICTIONARY
360
162
102
}
102
{ACAD_REACTORS
330
7E
102
}
330
7E
100
AcDbTableStyle
  3
Standard
 70
     0
 71
     0
 40
1.5
 41
1.5
280
     0
281
     0
  7
Standard
140
4.5
170
     2
 62
     0
 63
     7
283
     0
 90
      512
 91
        0
  1

274
    -2
284
     1
 64
     0
275
    -2
285
     1
 65
     0
276
    -2
286
     1
 66
     0
277
    -2
287
     1
 67
     0
278
    -2
288
     1
 68
     0
279
    -2
289
     1
 69
     0
  7
Standard
140
6.0
170
     5
 62
     0
 63
     7
283
     0
 90
      512
 91
        0
  1

274
    -2
284
     1
 64
     0
275
    -2
285
     1
 65
     0
276
    -2
286
     1
 66
     0
277
    -2
287
     1
 67
     0
278
    -2
288
     1
 68
     0
279
    -2
289
     1
 69
     0
  7
Standard
140
4.5
170
     5
 62
     0
 63
     7
283
     0
 90
      512
 91
        0
  1

274
    -2
284
     1
 64
     0
275
    -2
285
     1
 65
     0
276
    -2
286
     1
 66
     0
277
    -2
287
     1
 67
     0
278
    -2
288
     1
 68
     0
279
    -2
289
     1
 69
     0
  0
VISUALSTYLE
  5
F5
102
{ACAD_REACTORS
330
EF
102
}
330
EF
100
AcDbVisualStyle
  2
2dWireframe
 70
     4
 71
     0
 72
     2
 73
     1
 90
        0
 40
-0.6
 41
-30.0
 62
     5
 63
     7
421
 16777215
 74
     1
 91
        4
 64
     7
 65
   257
 75
     1
175
     1
 42
1.0
 92
        0
 66
   257
 43
1.0
 76
     1
 77
     6
 78
     2
 67
     7
 79
     5
170
     0
171
     0
290
     0
174
     0
 93
        1
 44
0.0
173
     0
291
     0
 45
0.0
  0
VISUALSTYLE
  5
F7
102
{ACAD_REACTORS
330
EF
102
}
330
EF
100
AcDbVisualStyle
  2
3D Hidden
 70
     6
 71
     1
 72
     2
 73
     2
 90
        0
 40
-0.6
 41
-30.0
 62
     5
 63
     7
421
 16777215
 74
     2
 91
        2
 64
     7
 65
   257
 75
     2
175
     1
 42
40.0
 92
        0
 66
   257
 43
1.0
 76
     1
 77
     6
 78
     2
 67
     7
 79
     3
170
     0
171
     0
290
     0
174
     0
 93
        1
 44
0.0
173
     0
291
     0
 45
0.0
  0
VISUALSTYLE
  5
F6
102
{ACAD_REACTORS
330
EF
102
}
330
EF
100
AcDbVisualStyle
  2
3dWireframe
 70
     5
 71
     0
 72
     2
 73
     1
 90
        0
 40
-0.6
 41
-30.0
 62
     5
 63
     7
421
 16777215
 74
     1
 91
        4
 64
     7
 65
   257
 75
     1
175
     1
 42
1.0
 92
        0
 66
   257
 43
1.0
 76
     1
 77
     6
 78
     2
 67
     7
 79
     5
170
     0
171
     0
290
     0
174
     0
 93
        1
 44
0.0
173
     0
291
     0
 45
0.0
  0
VISUALSTYLE
  5
F4
102
{ACAD_REACTORS
330
EF
102
}
330
EF
100
AcDbVisualStyle
  2
Basic
 70
     7
 71
     1
 72
     0
 73
     1
 90
        0
 40
-0.6
 41
-30.0
 62
     5
 63
     7
421
 16777215
 74
     0
 91
        4
 64
     7
 65
   257
 75
     1
175
     1
 42
1.0
 92
        8
 66
     7
 43
1.0
 76
     1
 77
     6
 78
     2
 67
     7
 79
     5
170
     0
171
     0
290
     0
174
     0
 93
        1
 44
0.0
173
     0
291
     1
 45
0.0
  0
VISUALSTYLE
  5
FB
102
{ACAD_REACTORS
330
EF
102
}
330
EF
100
AcDbVisualStyle
  2
Brighten
 70
    12
 71
     2
 72
     2
 73
     1
 90
        0
 40
-0.6
 41
-30.0
 62
     5
 63
     7
421
 16777215
 74
     1
 91
        4
 64
     7
 65
   257
 75
     1
175
     1
 42
1.0
 92
        8
 66
     7
 43
1.0
 76
     1
 77
     6
 78
     2
 67
     7
 79
     5
170
     0
171
     0
290
     0
174
     0
 93
        1
 44
50.0
173
     0
291
     1
 45
0.0
  0
VISUALSTYLE
  5
FF
102
{ACAD_REACTORS
330
EF
102
}
330
EF
100
AcDbVisualStyle
  2
ColorChange
 70
    16
 71
     2
 72
     2
 73
     3
 90
        0
 40
-0.6
 41
-30.0
 62
     5
 63
     8
421
  8421504
 74
     1
 91
        4
 64
     7
 65
   257
 75
     1
175
     1
 42
1.0
 92
        8
 66
     8
424
  8421504
 43
1.0
 76
     1
 77
     6
 78
     2
 67
     7
 79
     5
170
     0
171
     0
290
     0
174
     0
 93
        1
 44
0.0
173
     0
291
     1
 45
0.0
  0
VISUALSTYLE
  5
F8
102
{ACAD_REACTORS
330
EF
102
}
330
EF
100
AcDbVisualStyle
  2
Conceptual
 70
     9
 71
     3
 72
     2
 73
     1
 90
        0
 40
-0.6
 41
-30.0
 62
     5
 63
     7
421
 16777215
 74
     2
 91
        2
 64
     7
 65
   257
 75
     1
175
     1
 42
40.0
 92
        8
 66
     7
 43
1.0
 76
     1
 77
     6
 78
     2
 67
     7
 79
     3
170
     0
171
     0
290
     0
174
     0
 93
        1
 44
0.0
173
     0
291
     0
 45
0.0
  0
VISUALSTYLE
  5
FA
102
{ACAD_REACTORS
330
EF
102
}
330
EF
100
AcDbVisualStyle
  2
Dim
 70
    11
 71
     2
 72
     2
 73
     1
 90
        0
 40
-0.6
 41
-30.0
 62
     5
 63
     7
421
 16777215
 74
     1
 91
        4
 64
     7
 65
   257
 75
     1
175
     1
 42
1.0
 92
        8
 66
     7
 43
1.0
 76
     1
 77
     6
 78
     2
 67
     7
 79
     5
170
     0
171
     0
290
     0
174
     0
 93
        1
 44
-50.0
173
     0
291
     1
 45
0.0
  0
VISUALSTYLE
  5
FE
102
{ACAD_REACTORS
330
EF
102
}
330
EF
100
AcDbVisualStyle
  2
Facepattern
 70
    15
 71
     2
 72
     2
 73
     1
 90
        0
 40
-0.6
 41
-30.0
 62
     5
 63
     7
421
 16777215
 74
     1
 91
        4
 64
     7
 65
   257
 75
     1
175
     1
 42
1.0
 92
        8
 66
     7
 43
1.0
 76
     1
 77
     6
 78
     2
 67
     7
 79
     5
170
     0
171
     0
290
     0
174
     0
 93
        1
 44
0.0
173
     0
291
     1
 45
0.0
  0
VISUALSTYLE
  5
F0
102
{ACAD_REACTORS
330
EF
102
}
330
EF
100
AcDbVisualStyle
  2
Flat
 70
     0
 71
     2
 72
     1
 73
     1
 90
        2
 40
-0.6
 41
30.0
 62
     5
 63
     7
421
 16777215
 74
     0
 91
        4
 64
     7
 65
   257
 75
     1
175
     1
 42
1.0
 92
        8
 66
     7
 43
1.0
 76
     1
 77
     6
 78
     2
 67
     7
 79
     5
170
     0
171
     0
290
     0
174
     0
 93
        1
 44
0.0
173
     0
291
     1
 45
0.0
  0
VISUALSTYLE
  5
F1
102
{ACAD_REACTORS
330
EF
102
}
330
EF
100
AcDbVisualStyle
  2
FlatWithEdges
 70
     1
 71
     2
 72
     1
 73
     1
 90
        2
 40
-0.6
 41
30.0
 62
     5
 63
     7
421
 16777215
 74
     1
 91
        4
 64
     7
 65
   257
 75
     1
175
     1
 42
1.0
 92
        0
 66
   257
 43
1.0
 76
     1
 77
     6
 78
     2
 67
     7
 79
     5
170
     0
171
     0
290
     0
174
     0
 93
        1
 44
0.0
173
     0
291
     1
 45
0.0
  0
VISUALSTYLE
  5
F2
102
{ACAD_REACTORS
330
EF
102
}
330
EF
100
AcDbVisualStyle
  2
Gouraud
 70
     2
 71
     2
 72
     2
 73
     1
 90
        2
 40
-0.6
 41
30.0
 62
     5
 63
     7
421
 16777215
 74
     0
 91
        4
 64
     7
 65
   257
 75
     1
175
     1
 42
1.0
 92
        0
 66
     7
 43
1.0
 76
     1
 77
     6
 78
     2
 67
     7
 79
     5
170
     0
171
     0
290
     0
174
     0
 93
        1
 44
0.0
173
     0
291
     1
 45
0.0
  0
VISUALSTYLE
  5
F3
102
{ACAD_REACTORS
330
EF
102
}
330
EF
100
AcDbVisualStyle
  2
GouraudWithEdges
 70
     3
 71
     2
 72
     2
 73
     1
 90
        2
 40
-0.6
 41
30.0
 62
     5
 63
     7
421
 16777215
 74
     1
 91
        4
 64
     7
 65
   257
 75
     1
175
     1
 42
1.0
 92
        0
 66
   257
 43
1.0
 76
     1
 77
     6
 78
     2
 67
     7
 79
     5
170
     0
171
     0
290
     0
174
     0
 93
        1
 44
0.0
173
     0
291
     1
 45
0.0
  0
VISUALSTYLE
  5
FD
102
{ACAD_REACTORS
330
EF
102
}
330
EF
100
AcDbVisualStyle
  2
Linepattern
 70
    14
 71
     2
 72
     2
 73
     1
 90
        0
 40
-0.6
 41
-30.0
 62
     5
 63
     7
421
 16777215
 74
     1
 91
        4
 64
     7
 65
   257
 75
     7
175
     7
 42
1.0
 92
        8
 66
     7
 43
1.0
 76
     1
 77
     6
 78
     2
 67
     7
 79
     5
170
     0
171
     0
290
     0
174
     0
 93
        1
 44
0.0
173
     0
291
     1
 45
0.0
  0
VISUALSTYLE
  5
F9
102
{ACAD_REACTORS
330
EF
102
}
330
EF
100
AcDbVisualStyle
  2
Realistic
 70
     8
 71
     2
 72
     2
 73
     1
 90
        0
 40
-0.6
 41
-30.0
 62
     5
 63
     7
421
 16777215
 74
     1
 91
        0
 64
     7
 65
   257
 75
     1
175
     1
 42
1.0
 92
        8
 66
     8
424
  7895160
 43
1.0
 76
     1
 77
     6
 78
     2
 67
     7
 79
     5
170
     0
171
     0
290
     0
174
     0
 93
       13
 44
0.0
173
     0
291
     0
 45
0.0
  0
VISUALSTYLE
  5
FC
102
{ACAD_REACTORS
330
EF
102
}
330
EF
100
AcDbVisualStyle
  2
Thicken
 70
    13
 71
     2
 72
     2
 73
     1
 90
        0
 40
-0.6
 41
-30.0
 62
     5
 63
     7
421
 16777215
 74
     1
 91
        4
 64
     7
 65
   257
 75
     1
175
     1
 42
1.0
 92
       12
 66
     7
 43
1.0
 76
     1
 77
     6
 78
     2
 67
     7
 79
     5
170
     0
171
     0
290
     0
174
     0
 93
        1
 44
0.0
173
     0
291
     1
 45
0.0
  0
DICTIONARYVAR
  5
146
102
{ACAD_REACTORS
330
5E
102
}
330
5E
100
DictionaryVariables
280
     0
  1
1:1
  0
DICTIONARYVAR
  5
145
102
{ACAD_REACTORS
330
5E
102
}
330
5E
100
DictionaryVariables
280
     0
  1
STANDARD
  0
DICTIONARYVAR
  5
84
102
{ACAD_REACTORS
330
5E
102
}
330
5E
100
DictionaryVariables
280
     0
  1
STANDARD
  0
DICTIONARYVAR
  5
5F
102
{ACAD_REACTORS
330
5E
102
}
330
5E
100
DictionaryVariables
280
     0
  1
2
  0
DICTIONARYVAR
  5
63
102
{ACAD_REACTORS
330
5E
102
}
330
5E
100
DictionaryVariables
280
     0
  1
1
  0
DICTIONARYVAR
  5
1AE
102
{ACAD_REACTORS
330
5E
102
}
330
5E
100
DictionaryVariables
280
     0
  1
0
  0
DICTIONARYVAR
  5
1AF
102
{ACAD_REACTORS
330
5E
102
}
330
5E
100
DictionaryVariables
280
     0
  1
0
  0
DICTIONARY
  5
173
330
EE
100
AcDbDictionary
280
     1
281
     1
  3
BUMPTILE
360
175
  3
DIFFUSETILE
360
174
  3
OPACITYTILE
360
176
  3
REFLECTIONTILE
360
177
  0
DICTIONARY
  5
162
330
7F
100
AcDbDictionary
280
     1
281
     1
  3
ACAD_ROUNDTRIP_2008_TABLESTYLE_CELLSTYLEMAP
360
1E7
  0
XRECORD
  5
175
102
{ACAD_REACTORS
330
173
102
}
330
173
100
AcDbXrecord
280
     1
270
     1
271
     1
  0
XRECORD
  5
174
102
{ACAD_REACTORS
330
173
102
}
330
173
100
AcDbXrecord
280
     1
270
     1
271
     1
  0
XRECORD
  5
176
102
{ACAD_REACTORS
330
173
102
}
330
173
100
AcDbXrecord
280
     1
270
     1
271
     1
  0
XRECORD
  5
177
102
{ACAD_REACTORS
330
173
102
}
330
173
100
AcDbXrecord
280
     1
270
     1
271
     1
  0
CELLSTYLEMAP
  5
1E7
102
{ACAD_REACTORS
330
162
102
}
330
162
100
AcDbCellStyleMap
 90
        3
300
CELLSTYLE
  1
TABLEFORMAT_BEGIN
 90
        5
170
     1
 91
        0
 92
    32768
 62
   257
 93
        1
300
CONTENTFORMAT
  1
CONTENTFORMAT_BEGIN
 90
        0
 91
        0
 92
      512
 93
        0
300

 40
0.0
140
1.0
 94
        5
 62
     0
340
11
144
6.0
309
CONTENTFORMAT_END
171
     1
301
MARGIN
  1
CELLMARGIN_BEGIN
 40
1.5
 40
1.5
 40
1.5
 40
1.5
 40
4.5
 40
4.5
309
CELLMARGIN_END
 94
        6
 95
        1
302
GRIDFORMAT
  1
GRIDFORMAT_BEGIN
 90
        0
 91
        1
 62
     0
 92
       -2
340
14FD
 93
        0
 40
1.125
309
GRIDFORMAT_END
 95
        2
302
GRIDFORMAT
  1
GRIDFORMAT_BEGIN
 90
        0
 91
        1
 62
     0
 92
       -2
340
14FD
 93
        0
 40
1.125
309
GRIDFORMAT_END
 95
        4
302
GRIDFORMAT
  1
GRIDFORMAT_BEGIN
 90
        0
 91
        1
 62
     0
 92
       -2
340
14FD
 93
        0
 40
1.125
309
GRIDFORMAT_END
 95
        8
302
GRIDFORMAT
  1
GRIDFORMAT_BEGIN
 90
        0
 91
        1
 62
     0
 92
       -2
340
14FD
 93
        0
 40
1.125
309
GRIDFORMAT_END
 95
       16
302
GRIDFORMAT
  1
GRIDFORMAT_BEGIN
 90
        0
 91
        1
 62
     0
 92
       -2
340
14FD
 93
        0
 40
1.125
309
GRIDFORMAT_END
 95
       32
302
GRIDFORMAT
  1
GRIDFORMAT_BEGIN
 90
        0
 91
        1
 62
     0
 92
       -2
340
14FD
 93
        0
 40
1.125
309
GRIDFORMAT_END
309
TABLEFORMAT_END
  1
CELLSTYLE_BEGIN
 90
        1
 91
        1
300
_TITLE
309
CELLSTYLE_END
300
CELLSTYLE
  1
TABLEFORMAT_BEGIN
 90
        5
170
     1
 91
        0
 92
        0
 62
   257
 93
        1
300
CONTENTFORMAT
  1
CONTENTFORMAT_BEGIN
 90
        0
 91
        0
 92
      512
 93
        0
300

 40
0.0
140
1.0
 94
        5
 62
     0
340
11
144
4.5
309
CONTENTFORMAT_END
171
     1
301
MARGIN
  1
CELLMARGIN_BEGIN
 40
1.5
 40
1.5
 40
1.5
 40
1.5
 40
4.5
 40
4.5
309
CELLMARGIN_END
 94
        6
 95
        1
302
GRIDFORMAT
  1
GRIDFORMAT_BEGIN
 90
        0
 91
        1
 62
     0
 92
       -2
340
14FD
 93
        0
 40
1.125
309
GRIDFORMAT_END
 95
        2
302
GRIDFORMAT
  1
GRIDFORMAT_BEGIN
 90
        0
 91
        1
 62
     0
 92
       -2
340
14FD
 93
        0
 40
1.125
309
GRIDFORMAT_END
 95
        4
302
GRIDFORMAT
  1
GRIDFORMAT_BEGIN
 90
        0
 91
        1
 62
     0
 92
       -2
340
14FD
 93
        0
 40
1.125
309
GRIDFORMAT_END
 95
        8
302
GRIDFORMAT
  1
GRIDFORMAT_BEGIN
 90
        0
 91
        1
 62
     0
 92
       -2
340
14FD
 93
        0
 40
1.125
309
GRIDFORMAT_END
 95
       16
302
GRIDFORMAT
  1
GRIDFORMAT_BEGIN
 90
        0
 91
        1
 62
     0
 92
       -2
340
14FD
 93
        0
 40
1.125
309
GRIDFORMAT_END
 95
       32
302
GRIDFORMAT
  1
GRIDFORMAT_BEGIN
 90
        0
 91
        1
 62
     0
 92
       -2
340
14FD
 93
        0
 40
1.125
309
GRIDFORMAT_END
309
TABLEFORMAT_END
  1
CELLSTYLE_BEGIN
 90
        2
 91
        1
300
_HEADER
309
CELLSTYLE_END
300
CELLSTYLE
  1
TABLEFORMAT_BEGIN
 90
        5
170
     1
 91
        0
 92
        0
 62
   257
 93
        1
300
CONTENTFORMAT
  1
CONTENTFORMAT_BEGIN
 90
        0
 91
        0
 92
      512
 93
        0
300

 40
0.0
140
1.0
 94
        2
 62
     0
340
11
144
4.5
309
CONTENTFORMAT_END
171
     1
301
MARGIN
  1
CELLMARGIN_BEGIN
 40
1.5
 40
1.5
 40
1.5
 40
1.5
 40
4.5
 40
4.5
309
CELLMARGIN_END
 94
        6
 95
        1
302
GRIDFORMAT
  1
GRIDFORMAT_BEGIN
 90
        0
 91
        1
 62
     0
 92
       -2
340
14FD
 93
        0
 40
1.125
309
GRIDFORMAT_END
 95
        2
302
GRIDFORMAT
  1
GRIDFORMAT_BEGIN
 90
        0
 91
        1
 62
     0
 92
       -2
340
14FD
 93
        0
 40
1.125
309
GRIDFORMAT_END
 95
        4
302
GRIDFORMAT
  1
GRIDFORMAT_BEGIN
 90
        0
 91
        1
 62
     0
 92
       -2
340
14FD
 93
        0
 40
1.125
309
GRIDFORMAT_END
 95
        8
302
GRIDFORMAT
  1
GRIDFORMAT_BEGIN
 90
        0
 91
        1
 62
     0
 92
       -2
340
14FD
 93
        0
 40
1.125
309
GRIDFORMAT_END
 95
       16
302
GRIDFORMAT
  1
GRIDFORMAT_BEGIN
 90
        0
 91
        1
 62
     0
 92
       -2
340
14FD
 93
        0
 40
1.125
309
GRIDFORMAT_END
 95
       32
302
GRIDFORMAT
  1
GRIDFORMAT_BEGIN
 90
        0
 91
        1
 62
     0
 92
       -2
340
14FD
 93
        0
 40
1.125
309
GRIDFORMAT_END
309
TABLEFORMAT_END
  1
CELLSTYLE_BEGIN
 90
        3
 91
        2
300
_DATA
309
CELLSTYLE_END
  0
IMAGEDEF_REACTOR
  5
210
330
20E
100
AcDbRasterImageDefReactor
 90
     2
330
20E
  0
IMAGEDEF
  5
20F
102
{ACAD_REACTORS
330
5E
330
210
102
}
330
5E
100
AcDbRasterImageDef
 90
     0
  1
WDVS mit Edelkratzputz_Brüstung_4_1.tif
 10
395.000000
 20
405.000000
 11
0.002532
 21
0.002469
280
     1
281
     0
  0
ENDSEC
  0
EOF
