  0
SECTION
  2
HEADER
  9
$ACADVER
  1
AC1024
  9
$ACADMAINTVER
 70
     6
  9
$DWGCODEPAGE
  3
ANSI_1252
  9
$INSBASE
 10
0.0
 20
0.0
 30
0.0
  9
$EXTMIN
 10
-262.500018
 20
-371.249941
 30
0.000000
  9
$EXTMAX
 10
237.500023
 20
346.250078
 30
0.000000
  9
$LIMMIN
 10
0.0
 20
0.0
  9
$LIMMAX
 10
420.0
 20
297.0
  9
$ORTHOMODE
 70
     0
  9
$REGENMODE
 70
     1
  9
$FILLMODE
 70
     1
  9
$QTEXTMODE
 70
     0
  9
$MIRRTEXT
 70
     0
  9
$LTSCALE
 40
25.000000
  9
$ATTMODE
 70
     1
  9
$TEXTSIZE
 40
2.5
  9
$TRACEWID
 40
1.0
  9
$TEXTSTYLE
  7
Standard
  9
$CLAYER
  8
0
  9
$CELTYPE
  6
ByLayer
  9
$CECOLOR
 62
   256
  9
$CELTSCALE
 40
1.0
  9
$DISPSILH
 70
     0
  9
$DIMSCALE
 40
1.0
  9
$DIMASZ
 40
2.5
  9
$DIMEXO
 40
0.625
  9
$DIMDLI
 40
3.75
  9
$DIMRND
 40
0.0
  9
$DIMDLE
 40
0.0
  9
$DIMEXE
 40
1.25
  9
$DIMTP
 40
0.0
  9
$DIMTM
 40
0.0
  9
$DIMTXT
 40
2.5
  9
$DIMCEN
 40
2.5
  9
$DIMTSZ
 40
0.0
  9
$DIMTOL
 70
     0
  9
$DIMLIM
 70
     0
  9
$DIMTIH
 70
     0
  9
$DIMTOH
 70
     0
  9
$DIMSE1
 70
     0
  9
$DIMSE2
 70
     0
  9
$DIMTAD
 70
     1
  9
$DIMZIN
 70
     8
  9
$DIMBLK
  1

  9
$DIMASO
 70
     1
  9
$DIMSHO
 70
     1
  9
$DIMPOST
  1

  9
$DIMAPOST
  1

  9
$DIMALT
 70
     0
  9
$DIMALTD
 70
     3
  9
$DIMALTF
 40
0.03937007874016
  9
$DIMLFAC
 40
1.0
  9
$DIMTOFL
 70
     1
  9
$DIMTVP
 40
0.0
  9
$DIMTIX
 70
     0
  9
$DIMSOXD
 70
     0
  9
$DIMSAH
 70
     0
  9
$DIMBLK1
  1

  9
$DIMBLK2
  1

  9
$DIMSTYLE
  2
ISO-25
  9
$DIMCLRD
 70
     0
  9
$DIMCLRE
 70
     0
  9
$DIMCLRT
 70
     0
  9
$DIMTFAC
 40
1.0
  9
$DIMGAP
 40
0.625
  9
$DIMJUST
 70
     0
  9
$DIMSD1
 70
     0
  9
$DIMSD2
 70
     0
  9
$DIMTOLJ
 70
     0
  9
$DIMTZIN
 70
     8
  9
$DIMALTZ
 70
     0
  9
$DIMALTTZ
 70
     0
  9
$DIMUPT
 70
     0
  9
$DIMDEC
 70
     2
  9
$DIMTDEC
 70
     2
  9
$DIMALTU
 70
     2
  9
$DIMALTTD
 70
     3
  9
$DIMTXSTY
  7
Standard
  9
$DIMAUNIT
 70
     0
  9
$DIMADEC
 70
     0
  9
$DIMALTRND
 40
0.0
  9
$DIMAZIN
 70
     0
  9
$DIMDSEP
 70
    44
  9
$DIMATFIT
 70
     3
  9
$DIMFRAC
 70
     0
  9
$DIMLDRBLK
  1

  9
$DIMLUNIT
 70
     2
  9
$DIMLWD
 70
    -2
  9
$DIMLWE
 70
    -2
  9
$DIMTMOVE
 70
     0
  9
$DIMFXL
 40
1.0
  9
$DIMFXLON
 70
     0
  9
$DIMJOGANG
 40
0.7853981633974483
  9
$DIMTFILL
 70
     0
  9
$DIMTFILLCLR
 70
     0
  9
$DIMARCSYM
 70
     0
  9
$DIMLTYPE
  6

  9
$DIMLTEX1
  6

  9
$DIMLTEX2
  6

  9
$DIMTXTDIRECTION
 70
     0
  9
$LUNITS
 70
     2
  9
$LUPREC
 70
     4
  9
$SKETCHINC
 40
1.0
  9
$FILLETRAD
 40
10.0
  9
$AUNITS
 70
     0
  9
$AUPREC
 70
     0
  9
$MENU
  1
.
  9
$ELEVATION
 40
0.0
  9
$PELEVATION
 40
0.0
  9
$THICKNESS
 40
0.0
  9
$LIMCHECK
 70
     0
  9
$CHAMFERA
 40
10.0
  9
$CHAMFERB
 40
10.0
  9
$CHAMFERC
 40
20.0
  9
$CHAMFERD
 40
0.0
  9
$SKPOLY
 70
     0
  9
$TDCREATE
 40
2452006.439837951
  9
$TDUCREATE
 40
2452006.356504618
  9
$TDUPDATE
 40
2452006.439963946
  9
$TDUUPDATE
 40
2452006.356630613
  9
$TDINDWG
 40
0.0001273843
  9
$TDUSRTIMER
 40
0.0001272685
  9
$USRTIMER
 70
     1
  9
$ANGBASE
 50
0.0
  9
$ANGDIR
 70
     0
  9
$PDMODE
 70
     0
  9
$PDSIZE
 40
0.0
  9
$PLINEWID
 40
0.0
  9
$SPLFRAME
 70
     0
  9
$SPLINETYPE
 70
     6
  9
$SPLINESEGS
 70
     8
  9
$HANDSEED
  5
930
  9
$SURFTAB1
 70
     6
  9
$SURFTAB2
 70
     6
  9
$SURFTYPE
 70
     6
  9
$SURFU
 70
     6
  9
$SURFV
 70
     6
  9
$UCSBASE
  2

  9
$UCSNAME
  2

  9
$UCSORG
 10
0.0
 20
0.0
 30
0.0
  9
$UCSXDIR
 10
1.0
 20
0.0
 30
0.0
  9
$UCSYDIR
 10
0.0
 20
1.0
 30
0.0
  9
$UCSORTHOREF
  2

  9
$UCSORTHOVIEW
 70
     0
  9
$UCSORGTOP
 10
0.0
 20
0.0
 30
0.0
  9
$UCSORGBOTTOM
 10
0.0
 20
0.0
 30
0.0
  9
$UCSORGLEFT
 10
0.0
 20
0.0
 30
0.0
  9
$UCSORGRIGHT
 10
0.0
 20
0.0
 30
0.0
  9
$UCSORGFRONT
 10
0.0
 20
0.0
 30
0.0
  9
$UCSORGBACK
 10
0.0
 20
0.0
 30
0.0
  9
$PUCSBASE
  2

  9
$PUCSNAME
  2

  9
$PUCSORG
 10
0.0
 20
0.0
 30
0.0
  9
$PUCSXDIR
 10
1.0
 20
0.0
 30
0.0
  9
$PUCSYDIR
 10
0.0
 20
1.0
 30
0.0
  9
$PUCSORTHOREF
  2

  9
$PUCSORTHOVIEW
 70
     0
  9
$PUCSORGTOP
 10
0.0
 20
0.0
 30
0.0
  9
$PUCSORGBOTTOM
 10
0.0
 20
0.0
 30
0.0
  9
$PUCSORGLEFT
 10
0.0
 20
0.0
 30
0.0
  9
$PUCSORGRIGHT
 10
0.0
 20
0.0
 30
0.0
  9
$PUCSORGFRONT
 10
0.0
 20
0.0
 30
0.0
  9
$PUCSORGBACK
 10
0.0
 20
0.0
 30
0.0
  9
$USERI1
 70
     0
  9
$USERI2
 70
     0
  9
$USERI3
 70
     0
  9
$USERI4
 70
     0
  9
$USERI5
 70
     0
  9
$USERR1
 40
0.0
  9
$USERR2
 40
0.0
  9
$USERR3
 40
0.0
  9
$USERR4
 40
0.0
  9
$USERR5
 40
0.0
  9
$WORLDVIEW
 70
     1
  9
$SHADEDGE
 70
     3
  9
$SHADEDIF
 70
    70
  9
$TILEMODE
 70
     1
  9
$MAXACTVP
 70
    64
  9
$PINSBASE
 10
0.0
 20
0.0
 30
0.0
  9
$PLIMCHECK
 70
     0
  9
$PEXTMIN
 10
1.000000000000000E+20
 20
1.000000000000000E+20
 30
1.000000000000000E+20
  9
$PEXTMAX
 10
-1.000000000000000E+20
 20
-1.000000000000000E+20
 30
-1.000000000000000E+20
  9
$PLIMMIN
 10
0.0
 20
0.0
  9
$PLIMMAX
 10
420.0
 20
297.0
  9
$UNITMODE
 70
     0
  9
$VISRETAIN
 70
     1
  9
$PLINEGEN
 70
     0
  9
$PSLTSCALE
 70
     1
  9
$TREEDEPTH
 70
  3020
  9
$CMLSTYLE
  2
Standard
  9
$CMLJUST
 70
     0
  9
$CMLSCALE
 40
20.0
  9
$PROXYGRAPHICS
 70
     1
  9
$MEASUREMENT
 70
     1
  9
$CELWEIGHT
370
    -1
  9
$ENDCAPS
280
     0
  9
$JOINSTYLE
280
     0
  9
$LWDISPLAY
290
     0
  9
$INSUNITS
 70
     4
  9
$HYPERLINKBASE
  1

  9
$STYLESHEET
  1

  9
$XEDIT
290
     1
  9
$CEPSNTYPE
380
     0
  9
$PSTYLEMODE
290
     1
  9
$FINGERPRINTGUID
  2

  9
$VERSIONGUID
  2

  9
$EXTNAMES
290
     1
  9
$PSVPSCALE
 40
0.0
  9
$OLESTARTUP
290
     0
  9
$SORTENTS
280
   127
  9
$INDEXCTL
280
     0
  9
$HIDETEXT
280
     1
  9
$XCLIPFRAME
280
     2
  9
$HALOGAP
280
     0
  9
$OBSCOLOR
 70
   257
  9
$OBSLTYPE
280
     0
  9
$INTERSECTIONDISPLAY
280
     0
  9
$INTERSECTIONCOLOR
 70
   257
  9
$DIMASSOC
280
     2
  9
$PROJECTNAME
  1

  9
$CAMERADISPLAY
290
     0
  9
$LENSLENGTH
 40
50.0
  9
$CAMERAHEIGHT
 40
0.0
  9
$STEPSPERSEC
 40
2.0
  9
$STEPSIZE
 40
6.0
  9
$3DDWFPREC
 40
2.0
  9
$PSOLWIDTH
 40
5.0
  9
$PSOLHEIGHT
 40
80.0
  9
$LOFTANG1
 40
1.570796326794896
  9
$LOFTANG2
 40
1.570796326794896
  9
$LOFTMAG1
 40
0.0
  9
$LOFTMAG2
 40
0.0
  9
$LOFTPARAM
 70
     7
  9
$LOFTNORMALS
280
     1
  9
$LATITUDE
 40
37.795
  9
$LONGITUDE
 40
-122.394
  9
$NORTHDIRECTION
 40
0.0
  9
$TIMEZONE
 70
 -8000
  9
$LIGHTGLYPHDISPLAY
280
     1
  9
$TILEMODELIGHTSYNCH
280
     1
  9
$CMATERIAL
347
EC
  9
$SOLIDHIST
280
     1
  9
$SHOWHIST
280
     1
  9
$DWFFRAME
280
     2
  9
$DGNFRAME
280
     0
  9
$REALWORLDSCALE
290
     1
  9
$INTERFERECOLOR
 62
     1
  9
$INTERFEREOBJVS
345
F9
  9
$INTERFEREVPVS
346
F6
  9
$CSHADOW
280
     0
  9
$SHADOWPLANELOCATION
 40
0.0
  0
ENDSEC
  0
SECTION
  2
CLASSES
  0
CLASS
  1
ACDBDICTIONARYWDFLT
  2
AcDbDictionaryWithDefault
  3
ObjectDBX Classes
 90
        0
 91
        1
280
     0
281
     0
  0
CLASS
  1
ACDBPLACEHOLDER
  2
AcDbPlaceHolder
  3
ObjectDBX Classes
 90
        0
 91
        1
280
     0
281
     0
  0
CLASS
  1
LAYOUT
  2
AcDbLayout
  3
ObjectDBX Classes
 90
        0
 91
        2
280
     0
281
     0
  0
CLASS
  1
DICTIONARYVAR
  2
AcDbDictionaryVar
  3
ObjectDBX Classes
 90
        0
 91
        7
280
     0
281
     0
  0
CLASS
  1
TABLESTYLE
  2
AcDbTableStyle
  3
ObjectDBX Classes
 90
     4095
 91
        1
280
     0
281
     0
  0
CLASS
  1
MATERIAL
  2
AcDbMaterial
  3
ObjectDBX Classes
 90
     1153
 91
        3
280
     0
281
     0
  0
CLASS
  1
VISUALSTYLE
  2
AcDbVisualStyle
  3
ObjectDBX Classes
 90
     4095
 91
       16
280
     0
281
     0
  0
CLASS
  1
SCALE
  2
AcDbScale
  3
ObjectDBX Classes
 90
     1153
 91
       17
280
     0
281
     0
  0
CLASS
  1
MLEADERSTYLE
  2
AcDbMLeaderStyle
  3
ACDB_MLEADERSTYLE_CLASS
 90
     4095
 91
        1
280
     0
281
     0
  0
CLASS
  1
CELLSTYLEMAP
  2
AcDbCellStyleMap
  3
ObjectDBX Classes
 90
     1152
 91
        2
280
     0
281
     0
  0
CLASS
  1
EXACXREFPANELOBJECT
  2
ExAcXREFPanelObject
  3
EXAC_ESW
 90
    33793
 91
        0
280
     0
281
     0
  0
CLASS
  1
NPOCOLLECTION
  2
AcDbImpNonPersistentObjectsCollection
  3
ObjectDBX Classes
 90
     1153
 91
        0
280
     0
281
     0
  0
CLASS
  1
LAYER_INDEX
  2
AcDbLayerIndex
  3
ObjectDBX Classes
 90
        0
 91
        0
280
     0
281
     0
  0
CLASS
  1
SPATIAL_INDEX
  2
AcDbSpatialIndex
  3
ObjectDBX Classes
 90
        0
 91
        0
280
     0
281
     0
  0
CLASS
  1
IDBUFFER
  2
AcDbIdBuffer
  3
ObjectDBX Classes
 90
        0
 91
        0
280
     0
281
     0
  0
CLASS
  1
RASTERVARIABLES
  2
AcDbRasterVariables
  3
ISM
 90
        0
 91
        2
280
     0
281
     0
  0
CLASS
  1
IMAGEDEF
  2
AcDbRasterImageDef
  3
ISM
 90
        0
 91
        5
280
     0
281
     0
  0
CLASS
  1
IMAGEDEF_REACTOR
  2
AcDbRasterImageDefReactor
  3
ISM
 90
        1
 91
        5
280
     0
281
     0
  0
CLASS
  1
IMAGE
  2
AcDbRasterImage
  3
ISM
 90
     2175
 91
        5
280
     0
281
     1
  0
CLASS
  1
LWPOLYLINE
  2
AcDbPolyline
  3
ObjectDBX Classes
 90
        0
 91
        0
280
     0
281
     1
  0
CLASS
  1
OLE2FRAME
  2
AcDbOle2Frame
  3
ObjectDBX Classes
 90
        0
 91
        0
280
     0
281
     1
  0
CLASS
  1
HATCH
  2
AcDbHatch
  3
ObjectDBX Classes
 90
        0
 91
        0
280
     0
281
     1
  0
CLASS
  1
XRECORD
  2
AcDbXrecord
  3
ObjectDBX Classes
 90
        0
 91
        9
280
     0
281
     0
  0
CLASS
  1
SORTENTSTABLE
  2
AcDbSortentsTable
  3
ObjectDBX Classes
 90
        0
 91
        0
280
     0
281
     0
  0
CLASS
  1
OBJECT_PTR
  2
CAseDLPNTableRecord
  3
"ASE-LPNTableRecord"
 90
    32769
 91
        0
280
     0
281
     0
  0
CLASS
  1
PLOTSETTINGS
  2
AcDbPlotSettings
  3
ObjectDBX Classes
 90
        0
 91
        0
280
     0
281
     0
  0
CLASS
  1
VBA_PROJECT
  2
AcDbVbaProject
  3
acad
 90
        0
 91
        0
280
     0
281
     0
  0
CLASS
  1
WIPEOUT
  2
AcDbWipeout
  3
WipeOut|AutoCAD Express Tool|expresstools@autodesk.com
 90
    32895
 91
        0
280
     0
281
     1
  0
CLASS
  1
WIPEOUTVARIABLES
  2
AcDbWipeoutVariables
  3
WipeOut|AutoCAD Express Tool|expresstools@autodesk.com
 90
    32768
 91
        0
280
     0
281
     0
  0
CLASS
  1
RTEXT
  2
RText
  3
RText|AutoCAD Express Tool|expresstools@autodesk.com
 90
    32768
 91
        0
280
     0
281
     1
  0
CLASS
  1
ARCALIGNEDTEXT
  2
AcDbArcAlignedText
  3
ATEXT|AutoCAD Express Tool|expresstools@autodesk.com
 90
    32768
 91
        0
280
     0
281
     1
  0
ENDSEC
  0
SECTION
  2
TABLES
  0
TABLE
  2
VPORT
  5
8DD
100
AcDbSymbolTable
 70
     1
  0
VPORT
  5
8DE
100
AcDbSymbolTableRecord
100
AcDbViewportTableRecord
  2
*ACTIVE
 70
     0
 10
0.000000
 20
0.000000
 11
1.000000
 21
1.000000
 12
50.000000
 22
50.000000
 13
0.000000
 23
0.000000
 14
1.000000
 24
1.000000
 15
10.000000
 25
10.000000
 16
0.000000
 26
0.000000
 36
1.000000
 17
0.000000
 27
0.000000
 37
0.000000
 40
100.000000
 41
1.387409
 42
50.000000
 43
0.000000
 44
0.000000
 50
0.000000
 51
0.000000
 71
     0
 72
   100
 73
     1
 74
     1
 75
     0
 76
     0
 77
     0
 78
     0
  0
ENDTAB
  0
TABLE
  2
LTYPE
  5
8DF
330
0
100
AcDbSymbolTable
 70
     9
  0
LTYPE
  5
8E0
330
8DF
100
AcDbSymbolTableRecord
100
AcDbLinetypeTableRecord
  2
ByBlock
 70
     0
  3

 72
    65
 73
     0
 40
0.000000
  0
LTYPE
  5
8E1
330
8DF
100
AcDbSymbolTableRecord
100
AcDbLinetypeTableRecord
  2
ByLayer
 70
     0
  3

 72
    65
 73
     0
 40
0.000000
  0
LTYPE
  5
8E2
330
8DF
100
AcDbSymbolTableRecord
100
AcDbLinetypeTableRecord
  2
CONTINUOUS
 70
     0
  3
Solid line
 72
    65
 73
     0
 40
0.000000
  0
LTYPE
  5
8E3
330
8DF
100
AcDbSymbolTableRecord
100
AcDbLinetypeTableRecord
  2
HIDDEN
 70
     0
  3
_ _ _ _ _ _ _ _ _ _ _ _ _ _ _ _ _ _ _ _ _ _ _
 72
    65
 73
     2
 40
0.375000
 49
0.250000
 74
     0
 49
-0.125000
 74
     0
  0
LTYPE
  5
8E4
330
8DF
100
AcDbSymbolTableRecord
100
AcDbLinetypeTableRecord
  2
DOT
 70
     0
  3
...............................................
 72
    65
 73
     2
 40
0.250000
 49
0.000000
 74
     0
 49
-0.250000
 74
     0
  0
LTYPE
  5
8E5
330
8DF
100
AcDbSymbolTableRecord
100
AcDbLinetypeTableRecord
  2
DASHED
 70
     0
  3
__ __ __ __ __ __ __ __ __ __ __ __ __ __ __ 
 72
    65
 73
     2
 40
0.750000
 49
0.500000
 74
     0
 49
-0.250000
 74
     0
  0
LTYPE
  5
8E6
330
8DF
100
AcDbSymbolTableRecord
100
AcDbLinetypeTableRecord
  2
DIVIDE
 70
     0
  3
__ . . __ . . __ . . __ . . __ . . __ . . __
 72
    65
 73
     6
 40
1.250000
 49
0.500000
 74
     0
 49
-0.250000
 74
     0
 49
0.000000
 74
     0
 49
-0.250000
 74
     0
 49
0.000000
 74
     0
 49
-0.250000
 74
     0
  0
LTYPE
  5
8E7
330
8DF
100
AcDbSymbolTableRecord
100
AcDbLinetypeTableRecord
  2
DASHDOT
 70
     0
  3
__ . __ . __ . __ . __ . __ . __ . __ . __ . __
 72
    65
 73
     4
 40
1.000000
 49
0.500000
 74
     0
 49
-0.250000
 74
     0
 49
0.000000
 74
     0
 49
-0.250000
 74
     0
  0
LTYPE
  5
8E8
330
8DF
100
AcDbSymbolTableRecord
100
AcDbLinetypeTableRecord
  2
BORDER
 70
     0
  3
__ __ . __ __ . __ __ . __ __ . __ __ . __ __
 72
    65
 73
     6
 40
1.750000
 49
0.500000
 74
     0
 49
-0.250000
 74
     0
 49
0.500000
 74
     0
 49
-0.250000
 74
     0
 49
0.000000
 74
     0
 49
-0.250000
 74
     0
  0
LTYPE
  5
8E9
330
8DF
100
AcDbSymbolTableRecord
100
AcDbLinetypeTableRecord
  2
CENTER
 70
     0
  3
____ _ ____ _ ____ _ ____ _ ____ _ ____ _ ____
 72
    65
 73
     4
 40
2.000000
 49
1.250000
 74
     0
 49
-0.250000
 74
     0
 49
0.250000
 74
     0
 49
-0.250000
 74
     0
  0
LTYPE
  5
8EA
330
8DF
100
AcDbSymbolTableRecord
100
AcDbLinetypeTableRecord
  2
PHANTOM
 70
     0
  3
_____ _ _ _____ _ _ _____ _ _ _____ _ _ ____
 72
    65
 73
     6
 40
2.500000
 49
1.250000
 74
     0
 49
-0.250000
 74
     0
 49
0.250000
 74
     0
 49
-0.250000
 74
     0
 49
0.250000
 74
     0
 49
-0.250000
 74
     0
  0
ENDTAB
  0
TABLE
  2
LAYER
  5
8EB
100
AcDbSymbolTable
 70
     3
  0
LAYER
  5
8EC
100
AcDbSymbolTableRecord
100
AcDbLayerTableRecord
  2
0
 70
     0
 62
     7
  6
CONTINUOUS
370
    -3
390
     0
  0
LAYER
  5
8ED
100
AcDbSymbolTableRecord
100
AcDbLayerTableRecord
  2
SCHRAFF
 70
     0
 62
     7
  6
CONTINUOUS
370
    -3
390
     0
  0
LAYER
  5
8EE
100
AcDbSymbolTableRecord
100
AcDbLayerTableRecord
  2
Detail
 70
     0
 62
     7
  6
CONTINUOUS
370
    -3
390
     0
  0
ENDTAB
  0
TABLE
  2
STYLE
  5
8EF
100
AcDbSymbolTable
 70
     2
  0
STYLE
  5
201
100
AcDbSymbolTableRecord
100
AcDbTextStyleTableRecord
  2
STANDARD
 70
     0
 40
0.000000
 41
1.000000
 50
0.000000
 71
     0
 42
3.500000
  3
txt
  4

  0
STYLE
  5
24D
100
AcDbSymbolTableRecord
100
AcDbTextStyleTableRecord
  2
Arial
 70
     0
 40
0.000000
 41
1.000000
 50
0.000000
 71
     0
 42
3.500000
  3
Arial.ttf
  4

1001
ACAD
1000
Arial
1071
     0
  0
ENDTAB
  0
TABLE
  2
DIMSTYLE
  5
8F0
100
AcDbSymbolTable
 70
     0
100
AcDbDimStyleTable
  0
ENDTAB
  0
TABLE
  2
VIEW
  5
8F1
100
AcDbSymbolTable
 70
     0
  0
ENDTAB
  0
TABLE
  2
UCS
  5
8F2
100
AcDbSymbolTable
 70
     0
  0
ENDTAB
  0
TABLE
  2
APPID
  5
8F3
100
AcDbSymbolTable
 70
     1
  0
APPID
  5
8F4
100
AcDbSymbolTableRecord
100
AcDbRegAppTableRecord
  2
ACAD
 70
     0
  0
ENDTAB
  0
TABLE
  2
BLOCK_RECORD
  5
8F5
100
AcDbSymbolTable
 70
    59
  0
BLOCK_RECORD
  5
202
102
{ACAD_XDICTIONARY
360
203
102
}
100
AcDbSymbolTableRecord
100
AcDbBlockTableRecord
  2
*Model_Space
  0
BLOCK_RECORD
  5
8F6
100
AcDbSymbolTableRecord
100
AcDbBlockTableRecord
  2
*Paper_Space
  0
BLOCK_RECORD
  5
8F7
100
AcDbSymbolTableRecord
100
AcDbBlockTableRecord
  2
*Paper_Space0
  0
BLOCK_RECORD
  5
8F8
100
AcDbSymbolTableRecord
100
AcDbBlockTableRecord
  2
B
  0
BLOCK_RECORD
  5
8F9
100
AcDbSymbolTableRecord
100
AcDbBlockTableRecord
  2
B-2
  0
BLOCK_RECORD
  5
8FA
100
AcDbSymbolTableRecord
100
AcDbBlockTableRecord
  2
B-3
  0
BLOCK_RECORD
  5
8FB
100
AcDbSymbolTableRecord
100
AcDbBlockTableRecord
  2
B-4
  0
BLOCK_RECORD
  5
8FC
100
AcDbSymbolTableRecord
100
AcDbBlockTableRecord
  2
B-5
  0
BLOCK_RECORD
  5
8FD
100
AcDbSymbolTableRecord
100
AcDbBlockTableRecord
  2
B-6
  0
BLOCK_RECORD
  5
8FE
100
AcDbSymbolTableRecord
100
AcDbBlockTableRecord
  2
B-7
  0
BLOCK_RECORD
  5
8FF
100
AcDbSymbolTableRecord
100
AcDbBlockTableRecord
  2
B-8
  0
BLOCK_RECORD
  5
900
100
AcDbSymbolTableRecord
100
AcDbBlockTableRecord
  2
B-9
  0
BLOCK_RECORD
  5
901
100
AcDbSymbolTableRecord
100
AcDbBlockTableRecord
  2
B-10
  0
BLOCK_RECORD
  5
902
100
AcDbSymbolTableRecord
100
AcDbBlockTableRecord
  2
B-11
  0
BLOCK_RECORD
  5
903
100
AcDbSymbolTableRecord
100
AcDbBlockTableRecord
  2
B-12
  0
BLOCK_RECORD
  5
904
100
AcDbSymbolTableRecord
100
AcDbBlockTableRecord
  2
B-13
  0
BLOCK_RECORD
  5
905
100
AcDbSymbolTableRecord
100
AcDbBlockTableRecord
  2
B-14
  0
BLOCK_RECORD
  5
906
100
AcDbSymbolTableRecord
100
AcDbBlockTableRecord
  2
B-15
  0
BLOCK_RECORD
  5
907
100
AcDbSymbolTableRecord
100
AcDbBlockTableRecord
  2
B-16
  0
BLOCK_RECORD
  5
908
100
AcDbSymbolTableRecord
100
AcDbBlockTableRecord
  2
B-17
  0
BLOCK_RECORD
  5
909
100
AcDbSymbolTableRecord
100
AcDbBlockTableRecord
  2
B-18
  0
BLOCK_RECORD
  5
90A
100
AcDbSymbolTableRecord
100
AcDbBlockTableRecord
  2
B-19
  0
BLOCK_RECORD
  5
90B
100
AcDbSymbolTableRecord
100
AcDbBlockTableRecord
  2
B-20
  0
BLOCK_RECORD
  5
90C
100
AcDbSymbolTableRecord
100
AcDbBlockTableRecord
  2
B-21
  0
BLOCK_RECORD
  5
90D
100
AcDbSymbolTableRecord
100
AcDbBlockTableRecord
  2
B-22
  0
BLOCK_RECORD
  5
90E
100
AcDbSymbolTableRecord
100
AcDbBlockTableRecord
  2
B-23
  0
BLOCK_RECORD
  5
90F
100
AcDbSymbolTableRecord
100
AcDbBlockTableRecord
  2
B-24
  0
BLOCK_RECORD
  5
910
100
AcDbSymbolTableRecord
100
AcDbBlockTableRecord
  2
B-25
  0
BLOCK_RECORD
  5
911
100
AcDbSymbolTableRecord
100
AcDbBlockTableRecord
  2
B-26
  0
BLOCK_RECORD
  5
912
100
AcDbSymbolTableRecord
100
AcDbBlockTableRecord
  2
B-27
  0
BLOCK_RECORD
  5
913
100
AcDbSymbolTableRecord
100
AcDbBlockTableRecord
  2
B-28
  0
BLOCK_RECORD
  5
914
100
AcDbSymbolTableRecord
100
AcDbBlockTableRecord
  2
B-29
  0
BLOCK_RECORD
  5
915
100
AcDbSymbolTableRecord
100
AcDbBlockTableRecord
  2
B-30
  0
BLOCK_RECORD
  5
916
100
AcDbSymbolTableRecord
100
AcDbBlockTableRecord
  2
B-31
  0
BLOCK_RECORD
  5
917
100
AcDbSymbolTableRecord
100
AcDbBlockTableRecord
  2
B-32
  0
BLOCK_RECORD
  5
918
100
AcDbSymbolTableRecord
100
AcDbBlockTableRecord
  2
B-33
  0
BLOCK_RECORD
  5
919
100
AcDbSymbolTableRecord
100
AcDbBlockTableRecord
  2
B-34
  0
BLOCK_RECORD
  5
91A
100
AcDbSymbolTableRecord
100
AcDbBlockTableRecord
  2
B-35
  0
BLOCK_RECORD
  5
91B
100
AcDbSymbolTableRecord
100
AcDbBlockTableRecord
  2
B-36
  0
BLOCK_RECORD
  5
91C
100
AcDbSymbolTableRecord
100
AcDbBlockTableRecord
  2
B-37
  0
BLOCK_RECORD
  5
91D
100
AcDbSymbolTableRecord
100
AcDbBlockTableRecord
  2
B-38
  0
BLOCK_RECORD
  5
91E
100
AcDbSymbolTableRecord
100
AcDbBlockTableRecord
  2
B-39
  0
BLOCK_RECORD
  5
91F
100
AcDbSymbolTableRecord
100
AcDbBlockTableRecord
  2
B-40
  0
BLOCK_RECORD
  5
920
100
AcDbSymbolTableRecord
100
AcDbBlockTableRecord
  2
B-41
  0
BLOCK_RECORD
  5
921
100
AcDbSymbolTableRecord
100
AcDbBlockTableRecord
  2
B-42
  0
BLOCK_RECORD
  5
922
100
AcDbSymbolTableRecord
100
AcDbBlockTableRecord
  2
B-43
  0
BLOCK_RECORD
  5
923
100
AcDbSymbolTableRecord
100
AcDbBlockTableRecord
  2
B-45
  0
BLOCK_RECORD
  5
924
100
AcDbSymbolTableRecord
100
AcDbBlockTableRecord
  2
B-46
  0
BLOCK_RECORD
  5
925
100
AcDbSymbolTableRecord
100
AcDbBlockTableRecord
  2
B-48
  0
BLOCK_RECORD
  5
926
100
AcDbSymbolTableRecord
100
AcDbBlockTableRecord
  2
B-49
  0
BLOCK_RECORD
  5
927
100
AcDbSymbolTableRecord
100
AcDbBlockTableRecord
  2
B-50
  0
BLOCK_RECORD
  5
928
100
AcDbSymbolTableRecord
100
AcDbBlockTableRecord
  2
B-51
  0
BLOCK_RECORD
  5
929
100
AcDbSymbolTableRecord
100
AcDbBlockTableRecord
  2
B-52
  0
BLOCK_RECORD
  5
92A
100
AcDbSymbolTableRecord
100
AcDbBlockTableRecord
  2
B-53
  0
BLOCK_RECORD
  5
92B
100
AcDbSymbolTableRecord
100
AcDbBlockTableRecord
  2
B-54
  0
BLOCK_RECORD
  5
92C
100
AcDbSymbolTableRecord
100
AcDbBlockTableRecord
  2
B-55
  0
BLOCK_RECORD
  5
92D
100
AcDbSymbolTableRecord
100
AcDbBlockTableRecord
  2
B-56
  0
BLOCK_RECORD
  5
92E
100
AcDbSymbolTableRecord
100
AcDbBlockTableRecord
  2
B-57
  0
BLOCK_RECORD
  5
92F
100
AcDbSymbolTableRecord
100
AcDbBlockTableRecord
  2
B-58
  0
ENDTAB
  0
ENDSEC
  0
SECTION
  2
BLOCKS
  0
BLOCK
  5
204
100
AcDbEntity
  8
0
100
AcDbBlockBegin
  2
*Model_Space
 70
     0
 10
0.000000
 20
0.000000
 30
0.000000
  3
*Model_Space
  1

  0
ENDBLK
  5
205
100
AcDbEntity
  8
0
100
AcDbBlockEnd
  0
BLOCK
  5
206
100
AcDbEntity
 67
     1
  8
0
100
AcDbBlockBegin
  2
*Paper_Space
 70
     0
 10
0.000000
 20
0.000000
 30
0.000000
  3
*Paper_Space
  1

  0
ENDBLK
  5
207
100
AcDbEntity
 67
     1
  8
0
100
AcDbBlockEnd
  0
BLOCK
  5
208
100
AcDbEntity
 67
     1
  8
0
100
AcDbBlockBegin
  2
*Paper_Space0
 70
     0
 10
0.000000
 20
0.000000
 30
0.000000
  3
*Paper_Space0
  1

  0
ENDBLK
  5
209
100
AcDbEntity
 67
     1
  8
0
100
AcDbBlockEnd
  0
BLOCK
  5
20A
100
AcDbEntity
  8
SCHRAFF
100
AcDbBlockBegin
  2
B
 70
    66
 10
0.000000
 20
0.000000
 30
0.000000
  0
HATCH
  5
20B
100
AcDbEntity
  8
SCHRAFF
 62
    21
440
     0
100
AcDbHatch
 10
0.000000
 20
0.000000
 30
0.000000
210
0.000000
220
0.000000
230
1.000000
  2
SOLID
 70
     1
 71
     1
 91
     1
 92
    18
 72
     1
 73
     0
 93
   587
 10
12.499982
 20
140.250059
 42
0.000000
 10
-212.500018
 20
140.250059
 42
0.000000
 10
-212.500018
 20
150.250059
 42
0.000000
 10
-211.500018
 20
150.250059
 42
0.000000
 10
-210.500018
 20
149.750059
 42
0.000000
 10
-209.500018
 20
150.250059
 42
0.000000
 10
-208.500018
 20
150.250059
 42
0.000000
 10
-207.500018
 20
150.750059
 42
0.000000
 10
-206.500018
 20
150.250059
 42
0.000000
 10
-205.500018
 20
150.250059
 42
0.000000
 10
-204.500018
 20
149.750059
 42
0.000000
 10
-203.500018
 20
150.250059
 42
0.000000
 10
-202.500018
 20
150.250059
 42
0.000000
 10
-201.500018
 20
150.750059
 42
0.000000
 10
-200.481656
 20
150.250059
 42
0.000000
 10
-199.500018
 20
150.250059
 42
0.000000
 10
-198.500018
 20
149.750059
 42
0.000000
 10
-197.500018
 20
150.250059
 42
0.000000
 10
-196.500018
 20
150.250059
 42
0.000000
 10
-195.483640
 20
150.741870
 42
0.000000
 10
-194.500018
 20
150.250059
 42
0.000000
 10
-193.500018
 20
150.250059
 42
0.000000
 10
-192.500018
 20
149.750059
 42
0.000000
 10
-191.500018
 20
150.250059
 42
0.000000
 10
-190.500018
 20
150.250059
 42
0.000000
 10
-189.500018
 20
150.750059
 42
0.000000
 10
-188.500018
 20
150.250059
 42
0.000000
 10
-187.500018
 20
150.250059
 42
0.000000
 10
-186.500018
 20
149.750059
 42
0.000000
 10
-185.500018
 20
150.250059
 42
0.000000
 10
-184.500018
 20
150.250059
 42
0.000000
 10
-183.500018
 20
150.750059
 42
0.000000
 10
-182.500018
 20
150.250059
 42
0.000000
 10
-181.500018
 20
150.250059
 42
0.000000
 10
-180.500018
 20
149.750059
 42
0.000000
 10
-179.500018
 20
150.250059
 42
0.000000
 10
-178.500018
 20
150.250059
 42
0.000000
 10
-177.500018
 20
150.750059
 42
0.000000
 10
-176.500018
 20
150.250059
 42
0.000000
 10
-175.500018
 20
150.250059
 42
0.000000
 10
-174.500018
 20
149.750059
 42
0.000000
 10
-173.500018
 20
150.250059
 42
0.000000
 10
-172.500018
 20
150.250059
 42
0.000000
 10
-171.500018
 20
150.750059
 42
0.000000
 10
-170.500018
 20
150.250059
 42
0.000000
 10
-169.500018
 20
150.250059
 42
0.000000
 10
-168.500018
 20
149.750059
 42
0.000000
 10
-167.500018
 20
150.250059
 42
0.000000
 10
-166.500018
 20
150.250059
 42
0.000000
 10
-165.500018
 20
150.750059
 42
0.000000
 10
-164.500018
 20
150.250059
 42
0.000000
 10
-163.500018
 20
150.250059
 42
0.000000
 10
-162.500018
 20
149.750059
 42
0.000000
 10
-161.500018
 20
150.250059
 42
0.000000
 10
-160.500018
 20
150.250059
 42
0.000000
 10
-159.500018
 20
150.750059
 42
0.000000
 10
-158.500018
 20
150.250059
 42
0.000000
 10
-157.500018
 20
150.250059
 42
0.000000
 10
-156.500018
 20
149.750059
 42
0.000000
 10
-155.500018
 20
150.250059
 42
0.000000
 10
-154.500018
 20
150.250059
 42
0.000000
 10
-153.500018
 20
150.750059
 42
0.000000
 10
-152.500018
 20
150.250059
 42
0.000000
 10
-151.500018
 20
150.250059
 42
0.000000
 10
-150.500018
 20
149.750059
 42
0.000000
 10
-149.500018
 20
150.250059
 42
0.000000
 10
-148.500018
 20
150.250059
 42
0.000000
 10
-147.500018
 20
150.750059
 42
0.000000
 10
-146.500018
 20
150.250059
 42
0.000000
 10
-145.500018
 20
150.250059
 42
0.000000
 10
-144.500018
 20
149.750059
 42
0.000000
 10
-143.500018
 20
150.250059
 42
0.000000
 10
-142.500018
 20
150.250059
 42
0.000000
 10
-141.500018
 20
150.750059
 42
0.000000
 10
-140.500018
 20
150.250059
 42
0.000000
 10
-139.500018
 20
150.250059
 42
0.000000
 10
-138.500018
 20
149.750059
 42
0.000000
 10
-137.500018
 20
150.250059
 42
0.000000
 10
-136.500018
 20
150.250059
 42
0.000000
 10
-135.500018
 20
150.750059
 42
0.000000
 10
-134.500018
 20
150.250059
 42
0.000000
 10
-133.500018
 20
150.250059
 42
0.000000
 10
-132.500018
 20
149.750059
 42
0.000000
 10
-131.500018
 20
150.250059
 42
0.000000
 10
-130.500018
 20
150.250059
 42
0.000000
 10
-129.500018
 20
150.750059
 42
0.000000
 10
-128.500018
 20
150.250059
 42
0.000000
 10
-127.495608
 20
150.247854
 42
0.000000
 10
-126.500018
 20
149.750059
 42
0.000000
 10
-125.500018
 20
150.250059
 42
0.000000
 10
-124.500018
 20
150.250059
 42
0.000000
 10
-123.500018
 20
150.750059
 42
0.000000
 10
-122.500018
 20
150.250059
 42
0.000000
 10
-121.500018
 20
150.250059
 42
0.000000
 10
-120.500018
 20
149.750059
 42
0.000000
 10
-119.500018
 20
150.250059
 42
0.000000
 10
-118.500018
 20
150.250059
 42
0.000000
 10
-117.500018
 20
150.750059
 42
0.000000
 10
-116.500018
 20
150.250059
 42
0.000000
 10
-115.500018
 20
150.250059
 42
0.000000
 10
-114.500018
 20
149.750059
 42
0.000000
 10
-113.500018
 20
150.250059
 42
0.000000
 10
-112.500018
 20
150.250059
 42
0.000000
 10
-111.500018
 20
150.750059
 42
0.000000
 10
-110.500018
 20
150.250059
 42
0.000000
 10
-109.500018
 20
150.250059
 42
0.000000
 10
-108.500018
 20
149.750059
 42
0.000000
 10
-107.500018
 20
150.250059
 42
0.000000
 10
-106.500018
 20
150.250059
 42
0.000000
 10
-105.500018
 20
150.750059
 42
0.000000
 10
-104.492351
 20
150.250059
 42
0.000000
 10
-103.500018
 20
150.250059
 42
0.000000
 10
-102.500018
 20
149.750059
 42
0.000000
 10
-101.500018
 20
150.250059
 42
0.000000
 10
-100.500018
 20
150.250059
 42
0.000000
 10
-99.500018
 20
150.750059
 42
0.000000
 10
-98.500018
 20
150.250059
 42
0.000000
 10
-97.500018
 20
150.250059
 42
0.000000
 10
-96.500018
 20
149.750059
 42
0.000000
 10
-95.500018
 20
150.250059
 42
0.000000
 10
-94.500018
 20
150.250059
 42
0.000000
 10
-93.500018
 20
150.750059
 42
0.000000
 10
-92.500018
 20
150.250059
 42
0.000000
 10
-91.500018
 20
150.250059
 42
0.000000
 10
-90.500018
 20
149.750059
 42
0.000000
 10
-89.500018
 20
150.250059
 42
0.000000
 10
-88.500018
 20
150.250059
 42
0.000000
 10
-87.500018
 20
150.750059
 42
0.000000
 10
-86.500018
 20
150.250059
 42
0.000000
 10
-85.500018
 20
150.250059
 42
0.000000
 10
-84.500018
 20
149.750059
 42
0.000000
 10
-83.500018
 20
150.250059
 42
0.000000
 10
-82.500018
 20
150.250059
 42
0.000000
 10
-81.500018
 20
150.750059
 42
0.000000
 10
-80.500018
 20
150.250059
 42
0.000000
 10
-79.500018
 20
150.250059
 42
0.000000
 10
-78.500018
 20
149.750059
 42
0.000000
 10
-77.500018
 20
150.250059
 42
0.000000
 10
-76.500018
 20
150.250059
 42
0.000000
 10
-75.500018
 20
150.750059
 42
0.000000
 10
-74.500018
 20
150.250059
 42
0.000000
 10
-73.500018
 20
150.250059
 42
0.000000
 10
-72.500018
 20
149.750059
 42
0.000000
 10
-71.500018
 20
150.250059
 42
0.000000
 10
-70.500018
 20
150.250059
 42
0.000000
 10
-69.500018
 20
150.750059
 42
0.000000
 10
-68.500018
 20
150.250059
 42
0.000000
 10
-67.500018
 20
150.250059
 42
0.000000
 10
-66.500018
 20
149.750059
 42
0.000000
 10
-65.500018
 20
150.250059
 42
0.000000
 10
-64.500018
 20
150.250059
 42
0.000000
 10
-63.500018
 20
150.750059
 42
0.000000
 10
-62.500018
 20
150.250059
 42
0.000000
 10
-61.500018
 20
150.250059
 42
0.000000
 10
-60.500018
 20
149.750059
 42
0.000000
 10
-59.500018
 20
150.250059
 42
0.000000
 10
-58.500018
 20
150.250059
 42
0.000000
 10
-57.500018
 20
150.750059
 42
0.000000
 10
-56.500018
 20
150.250059
 42
0.000000
 10
-55.500018
 20
150.250059
 42
0.000000
 10
-54.500018
 20
149.750059
 42
0.000000
 10
-53.500018
 20
150.250059
 42
0.000000
 10
-52.500018
 20
150.250059
 42
0.000000
 10
-51.500018
 20
150.750059
 42
0.000000
 10
-50.500018
 20
150.250059
 42
0.000000
 10
-49.500018
 20
150.250059
 42
0.000000
 10
-48.500018
 20
149.750059
 42
0.000000
 10
-47.500018
 20
150.250059
 42
0.000000
 10
-46.500018
 20
150.250059
 42
0.000000
 10
-45.500018
 20
150.750059
 42
0.000000
 10
-44.500018
 20
150.250059
 42
0.000000
 10
-43.500018
 20
150.250059
 42
0.000000
 10
-42.500018
 20
149.750059
 42
0.000000
 10
-41.500018
 20
150.250059
 42
0.000000
 10
-40.500018
 20
150.250059
 42
0.000000
 10
-39.500018
 20
150.750059
 42
0.000000
 10
-38.500018
 20
150.250059
 42
0.000000
 10
-37.500018
 20
150.250059
 42
0.000000
 10
-36.500018
 20
149.750059
 42
0.000000
 10
-35.500018
 20
150.250059
 42
0.000000
 10
-34.500018
 20
150.250059
 42
0.000000
 10
-33.500018
 20
150.750059
 42
0.000000
 10
-32.500018
 20
150.250059
 42
0.000000
 10
-31.500018
 20
150.250059
 42
0.000000
 10
-30.500018
 20
149.750059
 42
0.000000
 10
-29.500018
 20
150.250059
 42
0.000000
 10
-28.500018
 20
150.250059
 42
0.000000
 10
-27.500018
 20
150.750059
 42
0.000000
 10
-26.500018
 20
150.250059
 42
0.000000
 10
-25.500018
 20
150.250059
 42
0.000000
 10
-24.500018
 20
149.750059
 42
0.000000
 10
-23.500018
 20
150.250059
 42
0.000000
 10
-22.500018
 20
150.250059
 42
0.000000
 10
-21.500018
 20
150.750059
 42
0.000000
 10
-20.500018
 20
150.250059
 42
0.000000
 10
-19.500018
 20
150.250059
 42
0.000000
 10
-18.500018
 20
149.750059
 42
0.000000
 10
-17.500018
 20
150.250059
 42
0.000000
 10
-16.500018
 20
150.250059
 42
0.000000
 10
-15.500018
 20
150.750059
 42
0.000000
 10
-14.500018
 20
150.250059
 42
0.000000
 10
-13.500018
 20
150.250059
 42
0.000000
 10
-12.500018
 20
149.750059
 42
0.000000
 10
-11.500018
 20
150.250059
 42
0.000000
 10
-10.500018
 20
150.250059
 42
0.000000
 10
-9.500018
 20
150.750059
 42
0.000000
 10
-8.492351
 20
150.250059
 42
0.000000
 10
-7.500018
 20
150.250059
 42
0.000000
 10
-6.500018
 20
149.750059
 42
0.000000
 10
-5.500018
 20
150.250059
 42
0.000000
 10
-4.500018
 20
150.250059
 42
0.000000
 10
-3.500018
 20
150.750059
 42
0.000000
 10
-2.500018
 20
150.250059
 42
0.000000
 10
-1.500018
 20
150.250059
 42
0.000000
 10
-0.500018
 20
149.750059
 42
0.000000
 10
0.499982
 20
150.250059
 42
0.000000
 10
1.499982
 20
150.250059
 42
0.000000
 10
2.499982
 20
150.750059
 42
0.000000
 10
3.499982
 20
150.250059
 42
0.000000
 10
4.499982
 20
150.250059
 42
0.000000
 10
5.499982
 20
149.750059
 42
0.000000
 10
6.499982
 20
150.250059
 42
0.000000
 10
7.499982
 20
150.250059
 42
0.000000
 10
8.499982
 20
150.750059
 42
0.000000
 10
9.499982
 20
150.250059
 42
0.000000
 10
10.499982
 20
150.250059
 42
0.000000
 10
11.499982
 20
149.750059
 42
0.000000
 10
12.499982
 20
150.250059
 42
0.000000
 10
13.499982
 20
150.250059
 42
0.000000
 10
14.499982
 20
150.750059
 42
0.000000
 10
15.499982
 20
150.250059
 42
0.000000
 10
16.499982
 20
150.250059
 42
0.000000
 10
17.499982
 20
149.750059
 42
0.000000
 10
18.499982
 20
150.250059
 42
0.000000
 10
19.499982
 20
150.250059
 42
0.000000
 10
20.499982
 20
150.750059
 42
0.000000
 10
21.499982
 20
150.250059
 42
0.000000
 10
22.499982
 20
150.250059
 42
0.000000
 10
22.499982
 20
149.250059
 42
0.000000
 10
22.499982
 20
148.250059
 42
0.000000
 10
22.999982
 20
147.250059
 42
0.000000
 10
22.499982
 20
146.250059
 42
0.000000
 10
22.499982
 20
145.250059
 42
0.000000
 10
21.999982
 20
144.250059
 42
0.000000
 10
22.499982
 20
143.250059
 42
0.000000
 10
22.499982
 20
142.257726
 42
0.000000
 10
22.999982
 20
141.250059
 42
0.000000
 10
22.499982
 20
140.250059
 42
0.000000
 10
22.499982
 20
139.250059
 42
0.000000
 10
21.999982
 20
138.250059
 42
0.000000
 10
22.499982
 20
137.250059
 42
0.000000
 10
22.499982
 20
136.250059
 42
0.000000
 10
22.999982
 20
135.250059
 42
0.000000
 10
22.499982
 20
134.250059
 42
0.000000
 10
22.499982
 20
133.250059
 42
0.000000
 10
21.999982
 20
132.250059
 42
0.000000
 10
22.499982
 20
131.250059
 42
0.000000
 10
22.499982
 20
130.257726
 42
0.000000
 10
22.999982
 20
129.250059
 42
0.000000
 10
22.499982
 20
128.250059
 42
0.000000
 10
22.499982
 20
127.250059
 42
0.000000
 10
21.999982
 20
126.250059
 42
0.000000
 10
22.499982
 20
125.250059
 42
0.000000
 10
22.499982
 20
124.250059
 42
0.000000
 10
22.999982
 20
123.250059
 42
0.000000
 10
22.499982
 20
122.250059
 42
0.000000
 10
22.499982
 20
121.250059
 42
0.000000
 10
21.999982
 20
120.250059
 42
0.000000
 10
22.499982
 20
119.250059
 42
0.000000
 10
22.499982
 20
118.250059
 42
0.000000
 10
22.999982
 20
117.250059
 42
0.000000
 10
22.499982
 20
116.250059
 42
0.000000
 10
22.499982
 20
115.250059
 42
0.000000
 10
21.999982
 20
114.250059
 42
0.000000
 10
22.499982
 20
113.250059
 42
0.000000
 10
22.499982
 20
112.250059
 42
0.000000
 10
22.999982
 20
111.250059
 42
0.000000
 10
22.499982
 20
110.250059
 42
0.000000
 10
22.499982
 20
109.250059
 42
0.000000
 10
21.999982
 20
108.250059
 42
0.000000
 10
22.499982
 20
107.250059
 42
0.000000
 10
22.499982
 20
106.250059
 42
0.000000
 10
22.999982
 20
105.250059
 42
0.000000
 10
22.499982
 20
104.250059
 42
0.000000
 10
22.499982
 20
103.250059
 42
0.000000
 10
21.999982
 20
102.250059
 42
0.000000
 10
22.499982
 20
101.250059
 42
0.000000
 10
22.499982
 20
100.250059
 42
0.000000
 10
22.999982
 20
99.250059
 42
0.000000
 10
22.499982
 20
98.250059
 42
0.000000
 10
22.499982
 20
97.250059
 42
0.000000
 10
21.999982
 20
96.250059
 42
0.000000
 10
22.499982
 20
95.250059
 42
0.000000
 10
22.499982
 20
94.250059
 42
0.000000
 10
22.999982
 20
93.250059
 42
0.000000
 10
22.499982
 20
92.250059
 42
0.000000
 10
22.499982
 20
91.250059
 42
0.000000
 10
21.999982
 20
90.250059
 42
0.000000
 10
22.499982
 20
89.250059
 42
0.000000
 10
22.499982
 20
88.250059
 42
0.000000
 10
22.999982
 20
87.250059
 42
0.000000
 10
22.499982
 20
86.250059
 42
0.000000
 10
22.499982
 20
85.250059
 42
0.000000
 10
21.999982
 20
84.250059
 42
0.000000
 10
22.499982
 20
83.250059
 42
0.000000
 10
22.499982
 20
82.250059
 42
0.000000
 10
22.999982
 20
81.250059
 42
0.000000
 10
22.499982
 20
80.250059
 42
0.000000
 10
22.499982
 20
79.250059
 42
0.000000
 10
21.999982
 20
78.250059
 42
0.000000
 10
22.499982
 20
77.250059
 42
0.000000
 10
22.499982
 20
76.250059
 42
0.000000
 10
22.999982
 20
75.250059
 42
0.000000
 10
22.499982
 20
74.250059
 42
0.000000
 10
22.499982
 20
73.250059
 42
0.000000
 10
21.999982
 20
72.250059
 42
0.000000
 10
22.499982
 20
71.250059
 42
0.000000
 10
22.499982
 20
70.250059
 42
0.000000
 10
22.999982
 20
69.250059
 42
0.000000
 10
22.499982
 20
68.250059
 42
0.000000
 10
22.499982
 20
67.250059
 42
0.000000
 10
21.999982
 20
66.250059
 42
0.000000
 10
22.499982
 20
65.250059
 42
0.000000
 10
22.499982
 20
64.250059
 42
0.000000
 10
22.999982
 20
63.250059
 42
0.000000
 10
22.499982
 20
62.250059
 42
0.000000
 10
22.499982
 20
61.250059
 42
0.000000
 10
21.999982
 20
60.250059
 42
0.000000
 10
22.499982
 20
59.250059
 42
0.000000
 10
22.499982
 20
58.250059
 42
0.000000
 10
22.999982
 20
57.250059
 42
0.000000
 10
22.499982
 20
56.250059
 42
0.000000
 10
22.499982
 20
55.250059
 42
0.000000
 10
21.999982
 20
54.250059
 42
0.000000
 10
22.499982
 20
53.250059
 42
0.000000
 10
22.499982
 20
52.250059
 42
0.000000
 10
22.999982
 20
51.250059
 42
0.000000
 10
22.499982
 20
50.250059
 42
0.000000
 10
22.499982
 20
49.250059
 42
0.000000
 10
21.999982
 20
48.250059
 42
0.000000
 10
22.499982
 20
47.250059
 42
0.000000
 10
22.499982
 20
46.250059
 42
0.000000
 10
22.999982
 20
45.250059
 42
0.000000
 10
22.499982
 20
44.250059
 42
0.000000
 10
22.499982
 20
43.250059
 42
0.000000
 10
21.999982
 20
42.250059
 42
0.000000
 10
22.499982
 20
41.250059
 42
0.000000
 10
22.499982
 20
40.250059
 42
0.000000
 10
22.999982
 20
39.250059
 42
0.000000
 10
22.499982
 20
38.250059
 42
0.000000
 10
22.499982
 20
37.250059
 42
0.000000
 10
21.999982
 20
36.250059
 42
0.000000
 10
22.499982
 20
35.250059
 42
0.000000
 10
22.499982
 20
34.250059
 42
0.000000
 10
22.999982
 20
33.250059
 42
0.000000
 10
22.499982
 20
32.250059
 42
0.000000
 10
22.499982
 20
31.250059
 42
0.000000
 10
21.999982
 20
30.250059
 42
0.000000
 10
22.499982
 20
29.250059
 42
0.000000
 10
22.499982
 20
28.250059
 42
0.000000
 10
22.999982
 20
27.250059
 42
0.000000
 10
22.499982
 20
26.250059
 42
0.000000
 10
22.499982
 20
25.250059
 42
0.000000
 10
21.999982
 20
24.250059
 42
0.000000
 10
22.499982
 20
23.250059
 42
0.000000
 10
22.499982
 20
22.250059
 42
0.000000
 10
22.999982
 20
21.250059
 42
0.000000
 10
22.499982
 20
20.250059
 42
0.000000
 10
22.499982
 20
19.250059
 42
0.000000
 10
21.999982
 20
18.250059
 42
0.000000
 10
22.499982
 20
17.250059
 42
0.000000
 10
22.499982
 20
16.250059
 42
0.000000
 10
22.999982
 20
15.250059
 42
0.000000
 10
22.499982
 20
14.250059
 42
0.000000
 10
22.499982
 20
13.250059
 42
0.000000
 10
21.999982
 20
12.250059
 42
0.000000
 10
22.499982
 20
11.250059
 42
0.000000
 10
22.499982
 20
10.250059
 42
0.000000
 10
22.999982
 20
9.250059
 42
0.000000
 10
22.499982
 20
8.250059
 42
0.000000
 10
22.499982
 20
7.250059
 42
0.000000
 10
21.999982
 20
6.250059
 42
0.000000
 10
22.499982
 20
5.250059
 42
0.000000
 10
22.499982
 20
4.250059
 42
0.000000
 10
22.999982
 20
3.250059
 42
0.000000
 10
22.499982
 20
2.250059
 42
0.000000
 10
22.499982
 20
1.250059
 42
0.000000
 10
21.999982
 20
0.250059
 42
0.000000
 10
22.499982
 20
-0.749941
 42
0.000000
 10
22.499982
 20
-1.749941
 42
0.000000
 10
22.999982
 20
-2.749941
 42
0.000000
 10
22.499982
 20
-3.749941
 42
0.000000
 10
22.499982
 20
-4.749941
 42
0.000000
 10
21.999982
 20
-5.749941
 42
0.000000
 10
22.499982
 20
-6.749941
 42
0.000000
 10
22.499982
 20
-7.742274
 42
0.000000
 10
22.999982
 20
-8.749941
 42
0.000000
 10
22.499982
 20
-9.749941
 42
0.000000
 10
22.499982
 20
-10.749941
 42
0.000000
 10
21.999982
 20
-11.749941
 42
0.000000
 10
22.499982
 20
-12.749941
 42
0.000000
 10
22.499982
 20
-13.749941
 42
0.000000
 10
22.999982
 20
-14.749941
 42
0.000000
 10
22.499982
 20
-15.749941
 42
0.000000
 10
22.499982
 20
-16.749941
 42
0.000000
 10
21.999982
 20
-17.749941
 42
0.000000
 10
22.499982
 20
-18.749941
 42
0.000000
 10
22.499982
 20
-19.749941
 42
0.000000
 10
22.999982
 20
-20.749941
 42
0.000000
 10
22.499982
 20
-21.749941
 42
0.000000
 10
22.499982
 20
-22.749941
 42
0.000000
 10
21.999982
 20
-23.749941
 42
0.000000
 10
22.499982
 20
-24.749941
 42
0.000000
 10
22.499982
 20
-25.749941
 42
0.000000
 10
22.999982
 20
-26.749941
 42
0.000000
 10
22.499982
 20
-27.749941
 42
0.000000
 10
22.499982
 20
-28.749941
 42
0.000000
 10
21.999982
 20
-29.749941
 42
0.000000
 10
22.499982
 20
-30.749941
 42
0.000000
 10
22.499982
 20
-31.749941
 42
0.000000
 10
22.999982
 20
-32.749941
 42
0.000000
 10
22.499982
 20
-33.749941
 42
0.000000
 10
22.499982
 20
-34.749941
 42
0.000000
 10
21.999982
 20
-35.749941
 42
0.000000
 10
22.499982
 20
-36.749941
 42
0.000000
 10
22.499982
 20
-37.749941
 42
0.000000
 10
22.999982
 20
-38.749941
 42
0.000000
 10
22.504380
 20
-39.741145
 42
0.000000
 10
22.499982
 20
-40.749941
 42
0.000000
 10
21.999982
 20
-41.749941
 42
0.000000
 10
22.499982
 20
-42.749941
 42
0.000000
 10
22.499982
 20
-43.749941
 42
0.000000
 10
22.999982
 20
-44.749941
 42
0.000000
 10
22.499982
 20
-45.749941
 42
0.000000
 10
22.499982
 20
-46.749941
 42
0.000000
 10
21.999982
 20
-47.749941
 42
0.000000
 10
22.499982
 20
-48.749941
 42
0.000000
 10
22.499982
 20
-49.749941
 42
0.000000
 10
22.999982
 20
-50.749941
 42
0.000000
 10
22.499982
 20
-51.749941
 42
0.000000
 10
22.499982
 20
-52.749941
 42
0.000000
 10
21.999982
 20
-53.749941
 42
0.000000
 10
22.499982
 20
-54.749941
 42
0.000000
 10
22.499982
 20
-55.749941
 42
0.000000
 10
22.999982
 20
-56.749941
 42
0.000000
 10
22.499982
 20
-57.749941
 42
0.000000
 10
22.499982
 20
-58.749941
 42
0.000000
 10
21.999982
 20
-59.749941
 42
0.000000
 10
22.499982
 20
-60.749941
 42
0.000000
 10
22.499982
 20
-61.749941
 42
0.000000
 10
22.999982
 20
-62.749941
 42
0.000000
 10
22.499982
 20
-63.749941
 42
0.000000
 10
22.499982
 20
-64.749941
 42
0.000000
 10
21.999982
 20
-65.749941
 42
0.000000
 10
22.499982
 20
-66.749941
 42
0.000000
 10
22.499982
 20
-67.749941
 42
0.000000
 10
22.999982
 20
-68.749941
 42
0.000000
 10
22.499982
 20
-69.749941
 42
0.000000
 10
22.499982
 20
-70.749941
 42
0.000000
 10
21.999982
 20
-71.749941
 42
0.000000
 10
22.499982
 20
-72.749941
 42
0.000000
 10
22.499982
 20
-73.749941
 42
0.000000
 10
22.999982
 20
-74.749941
 42
0.000000
 10
22.499982
 20
-75.749941
 42
0.000000
 10
22.499982
 20
-76.749941
 42
0.000000
 10
21.999982
 20
-77.749941
 42
0.000000
 10
22.499982
 20
-78.749941
 42
0.000000
 10
22.499982
 20
-79.749941
 42
0.000000
 10
22.999982
 20
-80.749941
 42
0.000000
 10
22.499982
 20
-81.749941
 42
0.000000
 10
22.499982
 20
-82.749941
 42
0.000000
 10
21.999982
 20
-83.749941
 42
0.000000
 10
22.499982
 20
-84.749941
 42
0.000000
 10
22.499982
 20
-85.749941
 42
0.000000
 10
22.999982
 20
-86.749941
 42
0.000000
 10
22.499982
 20
-87.749941
 42
0.000000
 10
22.499982
 20
-88.749941
 42
0.000000
 10
21.999982
 20
-89.749941
 42
0.000000
 10
22.499982
 20
-90.749941
 42
0.000000
 10
22.499982
 20
-91.749941
 42
0.000000
 10
22.999982
 20
-92.749941
 42
0.000000
 10
22.499982
 20
-93.749941
 42
0.000000
 10
22.499982
 20
-94.749941
 42
0.000000
 10
21.999982
 20
-95.749941
 42
0.000000
 10
22.499982
 20
-96.749941
 42
0.000000
 10
22.499982
 20
-97.749941
 42
0.000000
 10
22.999982
 20
-98.749941
 42
0.000000
 10
22.499982
 20
-99.749941
 42
0.000000
 10
22.499982
 20
-100.749941
 42
0.000000
 10
21.999982
 20
-101.749941
 42
0.000000
 10
22.499982
 20
-102.749941
 42
0.000000
 10
22.499982
 20
-103.749941
 42
0.000000
 10
22.999982
 20
-104.749941
 42
0.000000
 10
22.499982
 20
-105.749941
 42
0.000000
 10
22.499982
 20
-106.749941
 42
0.000000
 10
21.999982
 20
-107.749941
 42
0.000000
 10
22.499982
 20
-108.749941
 42
0.000000
 10
22.499982
 20
-109.749941
 42
0.000000
 10
22.999982
 20
-110.749941
 42
0.000000
 10
22.499982
 20
-111.749941
 42
0.000000
 10
22.499982
 20
-112.749941
 42
0.000000
 10
21.999982
 20
-113.749941
 42
0.000000
 10
22.499982
 20
-114.749941
 42
0.000000
 10
22.499982
 20
-115.742274
 42
0.000000
 10
22.999982
 20
-116.749941
 42
0.000000
 10
22.499982
 20
-117.749941
 42
0.000000
 10
22.499982
 20
-118.749941
 42
0.000000
 10
21.999982
 20
-119.749941
 42
0.000000
 10
22.499982
 20
-120.749941
 42
0.000000
 10
22.499982
 20
-121.749941
 42
0.000000
 10
22.999982
 20
-122.749941
 42
0.000000
 10
22.499982
 20
-123.749941
 42
0.000000
 10
22.499982
 20
-124.749941
 42
0.000000
 10
21.999982
 20
-125.749941
 42
0.000000
 10
22.499982
 20
-126.749941
 42
0.000000
 10
22.499982
 20
-127.749941
 42
0.000000
 10
22.999982
 20
-128.749941
 42
0.000000
 10
22.499982
 20
-129.749941
 42
0.000000
 10
22.499982
 20
-130.749941
 42
0.000000
 10
21.999982
 20
-131.749941
 42
0.000000
 10
22.499982
 20
-132.749941
 42
0.000000
 10
22.499982
 20
-133.749941
 42
0.000000
 10
22.999982
 20
-134.749941
 42
0.000000
 10
22.499982
 20
-135.749941
 42
0.000000
 10
22.499982
 20
-136.749941
 42
0.000000
 10
21.999982
 20
-137.749941
 42
0.000000
 10
22.499982
 20
-138.749941
 42
0.000000
 10
22.499982
 20
-139.749941
 42
0.000000
 10
22.999982
 20
-140.749941
 42
0.000000
 10
22.499982
 20
-141.749941
 42
0.000000
 10
22.499982
 20
-142.749941
 42
0.000000
 10
21.999982
 20
-143.749941
 42
0.000000
 10
22.499982
 20
-144.749941
 42
0.000000
 10
22.499982
 20
-145.749941
 42
0.000000
 10
22.999982
 20
-146.749941
 42
0.000000
 10
22.499982
 20
-147.749941
 42
0.000000
 10
22.499982
 20
-148.749941
 42
0.000000
 10
21.999982
 20
-149.749941
 42
0.000000
 10
22.499982
 20
-150.749941
 42
0.000000
 10
22.499982
 20
-151.742274
 42
0.000000
 10
22.999982
 20
-152.749941
 42
0.000000
 10
22.499982
 20
-153.749941
 42
0.000000
 10
22.499982
 20
-154.749941
 42
0.000000
 10
21.999982
 20
-155.749941
 42
0.000000
 10
22.499982
 20
-156.749941
 42
0.000000
 10
22.499982
 20
-157.749941
 42
0.000000
 10
22.999982
 20
-158.749941
 42
0.000000
 10
22.499982
 20
-159.749941
 42
0.000000
 10
22.499982
 20
-160.749941
 42
0.000000
 10
21.999982
 20
-161.749941
 42
0.000000
 10
22.499982
 20
-162.749941
 42
0.000000
 10
22.499982
 20
-163.749841
 42
0.000000
 10
22.999982
 20
-164.749841
 42
0.000000
 10
22.499982
 20
-165.749941
 42
0.000000
 10
22.499982
 20
-166.749941
 42
0.000000
 10
21.999982
 20
-167.749941
 42
0.000000
 10
22.499982
 20
-168.749941
 42
0.000000
 10
22.499982
 20
-169.749941
 42
0.000000
 10
22.999982
 20
-170.749941
 42
0.000000
 10
22.499982
 20
-171.749941
 42
0.000000
 10
22.499982
 20
-172.749941
 42
0.000000
 10
21.999982
 20
-173.749941
 42
0.000000
 10
22.499982
 20
-174.749941
 42
0.000000
 10
22.499982
 20
-175.749941
 42
0.000000
 10
22.999982
 20
-176.749941
 42
0.000000
 10
22.499982
 20
-177.749941
 42
0.000000
 10
22.499982
 20
-178.735934
 42
0.000000
 10
21.999982
 20
-179.749941
 42
0.000000
 10
22.499982
 20
-180.749941
 42
0.000000
 10
22.499982
 20
-181.742274
 42
0.000000
 10
22.999982
 20
-182.749941
 42
0.000000
 10
22.499982
 20
-183.749941
 42
0.000000
 10
22.499982
 20
-184.749941
 42
0.000000
 10
21.999982
 20
-185.749941
 42
0.000000
 10
22.499982
 20
-186.749941
 42
0.000000
 10
22.499982
 20
-187.749941
 42
0.000000
 10
22.999982
 20
-188.749941
 42
0.000000
 10
22.499982
 20
-189.749941
 42
0.000000
 10
22.499982
 20
-190.749941
 42
0.000000
 10
21.999982
 20
-191.749941
 42
0.000000
 10
22.499982
 20
-192.749941
 42
0.000000
 10
22.499982
 20
-193.749941
 42
0.000000
 10
22.999982
 20
-194.749941
 42
0.000000
 10
22.499982
 20
-195.749941
 42
0.000000
 10
22.499982
 20
-196.249941
 42
0.000000
 10
12.499982
 20
-196.249941
 42
0.000000
 10
12.499982
 20
140.250059
 42
0.000000
 97
     0
 75
     0
 76
     1
 98
     0
  0
ENDBLK
  5
20C
100
AcDbEntity
  8
0
100
AcDbBlockEnd
  0
BLOCK
  5
20D
100
AcDbEntity
  8
SCHRAFF
100
AcDbBlockBegin
  2
B-2
 70
    66
 10
0.000000
 20
0.000000
 30
0.000000
  0
HATCH
  5
20E
100
AcDbEntity
  8
SCHRAFF
 62
     9
440
     0
100
AcDbHatch
 10
0.000000
 20
0.000000
 30
0.000000
210
0.000000
220
0.000000
230
1.000000
  2
SOLID
 70
     1
 71
     1
 91
     1
 92
    18
 72
     1
 73
     0
 93
     7
 10
-212.500018
 20
140.250059
 42
0.000000
 10
12.499982
 20
140.250059
 42
0.000000
 10
12.499982
 20
-196.249941
 42
0.000000
 10
2.499982
 20
-196.249941
 42
0.000000
 10
2.499982
 20
130.250059
 42
0.000000
 10
-212.500018
 20
130.250059
 42
0.000000
 10
-212.500018
 20
140.250059
 42
0.000000
 97
     0
 75
     0
 76
     1
 98
     0
  0
ENDBLK
  5
20F
100
AcDbEntity
  8
0
100
AcDbBlockEnd
  0
BLOCK
  5
210
100
AcDbEntity
  8
SCHRAFF
100
AcDbBlockBegin
  2
B-3
 70
    66
 10
0.000000
 20
0.000000
 30
0.000000
  0
HATCH
  5
211
100
AcDbEntity
  8
SCHRAFF
 62
    51
440
     0
100
AcDbHatch
 10
0.000000
 20
0.000000
 30
0.000000
210
0.000000
220
0.000000
230
1.000000
  2
SOLID
 70
     1
 71
     1
 91
     1
 92
    18
 72
     1
 73
     0
 93
     9
 10
-77.500018
 20
130.250059
 42
0.000000
 10
2.499982
 20
130.250059
 42
0.000000
 10
2.499982
 20
0.250059
 42
0.000000
 10
-17.514215
 20
0.250059
 42
0.000000
 10
-17.514215
 20
-59.749941
 42
0.000000
 10
2.499982
 20
-59.749941
 42
0.000000
 10
2.499982
 20
-196.249941
 42
0.000000
 10
-77.500018
 20
-196.249941
 42
0.000000
 10
-77.500018
 20
130.250059
 42
0.000000
 97
     0
 75
     0
 76
     1
 98
     0
  0
ENDBLK
  5
212
100
AcDbEntity
  8
0
100
AcDbBlockEnd
  0
BLOCK
  5
213
100
AcDbEntity
  8
SCHRAFF
100
AcDbBlockBegin
  2
B-4
 70
    66
 10
0.000000
 20
0.000000
 30
0.000000
  0
HATCH
  5
214
100
AcDbEntity
  8
SCHRAFF
  6
CONTINUOUS
 62
     9
100
AcDbHatch
 10
0.000000
 20
0.000000
 30
0.000000
210
0.000000
220
0.000000
230
1.000000
  2
_U
 70
     0
 71
     1
 91
     1
 92
    18
 72
     1
 73
     0
 93
     9
 10
-77.500018
 20
130.250059
 42
0.000000
 10
2.499982
 20
130.250059
 42
0.000000
 10
2.499982
 20
0.250059
 42
0.000000
 10
-17.514215
 20
0.250059
 42
0.000000
 10
-17.514215
 20
-59.749941
 42
0.000000
 10
2.499982
 20
-59.749941
 42
0.000000
 10
2.499982
 20
-196.249941
 42
0.000000
 10
-77.500018
 20
-196.249941
 42
0.000000
 10
-77.500018
 20
130.250059
 42
0.000000
 97
     0
 75
     0
 76
     0
 52
0.000000
 41
1.000000
 77
     0
 78
     1
 53
90.000000
 43
-0.000000
 44
0.000000
 45
-13.750000
 46
0.000000
 79
     0
 98
     0
  0
ENDBLK
  5
215
100
AcDbEntity
  8
0
100
AcDbBlockEnd
  0
BLOCK
  5
216
100
AcDbEntity
  8
SCHRAFF
100
AcDbBlockBegin
  2
B-5
 70
    66
 10
0.000000
 20
0.000000
 30
0.000000
  0
HATCH
  5
217
100
AcDbEntity
  8
SCHRAFF
 62
    51
440
     0
100
AcDbHatch
 10
0.000000
 20
0.000000
 30
0.000000
210
0.000000
220
0.000000
230
1.000000
  2
SOLID
 70
     1
 71
     1
 91
     1
 92
    18
 72
     1
 73
     0
 93
     5
 10
-17.514215
 20
-59.749941
 42
0.000000
 10
2.499982
 20
-59.749941
 42
0.000000
 10
2.499982
 20
0.250059
 42
0.000000
 10
-17.514215
 20
0.250059
 42
0.000000
 10
-17.514215
 20
-59.749941
 42
0.000000
 97
     0
 75
     0
 76
     1
 98
     0
  0
HATCH
  5
218
100
AcDbEntity
  8
SCHRAFF
  6
CONTINUOUS
 62
     9
100
AcDbHatch
 10
0.000000
 20
0.000000
 30
0.000000
210
0.000000
220
0.000000
230
1.000000
  2
_U
 70
     0
 71
     1
 91
     1
 92
    18
 72
     1
 73
     0
 93
     5
 10
-17.514215
 20
-59.749941
 42
0.000000
 10
2.499982
 20
-59.749941
 42
0.000000
 10
2.499982
 20
0.250059
 42
0.000000
 10
-17.514215
 20
0.250059
 42
0.000000
 10
-17.514215
 20
-59.749941
 42
0.000000
 97
     0
 75
     0
 76
     0
 52
0.000000
 41
1.000000
 77
     0
 78
     1
 53
90.000000
 43
-0.000000
 44
0.000000
 45
-6.875000
 46
0.000000
 79
     0
 98
     0
  0
ENDBLK
  5
219
100
AcDbEntity
  8
0
100
AcDbBlockEnd
  0
BLOCK
  5
21A
100
AcDbEntity
  8
SCHRAFF
100
AcDbBlockBegin
  2
B-6
 70
    66
 10
0.000000
 20
0.000000
 30
0.000000
  0
HATCH
  5
21B
100
AcDbEntity
  8
SCHRAFF
 62
    51
440
     0
100
AcDbHatch
 10
0.000000
 20
0.000000
 30
0.000000
210
0.000000
220
0.000000
230
1.000000
  2
SOLID
 70
     1
 71
     1
 91
     1
 92
    18
 72
     1
 73
     0
 93
     5
 10
-132.500018
 20
110.235862
 42
0.000000
 10
-132.500018
 20
130.250059
 42
0.000000
 10
-192.500018
 20
130.250059
 42
0.000000
 10
-192.500018
 20
110.235862
 42
0.000000
 10
-132.500018
 20
110.235862
 42
0.000000
 97
     0
 75
     0
 76
     1
 98
     0
  0
HATCH
  5
21C
100
AcDbEntity
  8
SCHRAFF
 62
    51
440
     0
100
AcDbHatch
 10
0.000000
 20
0.000000
 30
0.000000
210
0.000000
220
0.000000
230
1.000000
  2
SOLID
 70
     1
 71
     1
 91
     1
 92
    18
 72
     1
 73
     0
 93
     9
 10
-212.500018
 20
50.250059
 42
0.000000
 10
-79.500018
 20
50.250059
 42
0.000000
 10
-79.500018
 20
130.250059
 42
0.000000
 10
-132.500018
 20
130.250059
 42
0.000000
 10
-132.500018
 20
110.235862
 42
0.000000
 10
-192.500018
 20
110.235862
 42
0.000000
 10
-192.500018
 20
130.250059
 42
0.000000
 10
-212.500018
 20
130.250059
 42
0.000000
 10
-212.500018
 20
50.250059
 42
0.000000
 97
     0
 75
     0
 76
     1
 98
     0
  0
HATCH
  5
21D
100
AcDbEntity
  8
SCHRAFF
  6
CONTINUOUS
 62
     9
100
AcDbHatch
 10
0.000000
 20
0.000000
 30
0.000000
210
0.000000
220
0.000000
230
1.000000
  2
_U
 70
     0
 71
     1
 91
     1
 92
    18
 72
     1
 73
     0
 93
     5
 10
-132.500018
 20
110.235862
 42
0.000000
 10
-132.500018
 20
130.250059
 42
0.000000
 10
-192.500018
 20
130.250059
 42
0.000000
 10
-192.500018
 20
110.235862
 42
0.000000
 10
-132.500018
 20
110.235862
 42
0.000000
 97
     0
 75
     0
 76
     0
 52
0.000000
 41
1.000000
 77
     0
 78
     1
 53
90.000000
 43
-0.000000
 44
0.000000
 45
-6.875000
 46
0.000000
 79
     0
 98
     0
  0
HATCH
  5
21E
100
AcDbEntity
  8
SCHRAFF
  6
CONTINUOUS
 62
     9
100
AcDbHatch
 10
0.000000
 20
0.000000
 30
0.000000
210
0.000000
220
0.000000
230
1.000000
  2
_U
 70
     0
 71
     1
 91
     1
 92
    18
 72
     1
 73
     0
 93
     9
 10
-79.500018
 20
50.250059
 42
0.000000
 10
-79.500018
 20
130.250059
 42
0.000000
 10
-132.500018
 20
130.250059
 42
0.000000
 10
-132.500018
 20
110.235862
 42
0.000000
 10
-192.500018
 20
110.235862
 42
0.000000
 10
-192.500018
 20
130.250059
 42
0.000000
 10
-212.500018
 20
130.250059
 42
0.000000
 10
-212.500018
 20
50.250059
 42
0.000000
 10
-79.500018
 20
50.250059
 42
0.000000
 97
     0
 75
     0
 76
     0
 52
0.000000
 41
1.000000
 77
     0
 78
     1
 53
90.000000
 43
-0.000000
 44
0.000000
 45
-13.750000
 46
0.000000
 79
     0
 98
     0
  0
ENDBLK
  5
21F
100
AcDbEntity
  8
0
100
AcDbBlockEnd
  0
BLOCK
  5
220
100
AcDbEntity
  8
SCHRAFF
100
AcDbBlockBegin
  2
B-7
 70
    66
 10
0.000000
 20
0.000000
 30
0.000000
  0
IMAGE
  5
221
100
AcDbEntity
  8
SCHRAFF
100
AcDbRasterImage
 10
140.969928
 20
-349.249941
 30
0.000000
 11
0.204938
 21
-0.000000
 31
0.000000
 12
-0.000000
 22
0.204938
 32
-0.000000
 13
395.000000
 23
405.000000
340
222
 70
     7
280
     0
281
    50
282
    50
283
     0
360
223
 71
     1
 91
     2
 14
-0.500000
 24
-0.500000
 14
394.500000
 24
404.500000
  0
ENDBLK
  5
224
100
AcDbEntity
  8
0
100
AcDbBlockEnd
  0
BLOCK
  5
225
100
AcDbEntity
  8
SCHRAFF
100
AcDbBlockBegin
  2
B-8
 70
    66
 10
0.000000
 20
0.000000
 30
0.000000
  0
HATCH
  5
226
100
AcDbEntity
  8
SCHRAFF
 62
   254
440
     0
100
AcDbHatch
 10
0.000000
 20
0.000000
 30
0.000000
210
0.000000
220
0.000000
230
1.000000
  2
SOLID
 70
     1
 71
     1
 91
     1
 92
    18
 72
     1
 73
     0
 93
     5
 10
-77.500018
 20
50.250059
 42
0.000000
 10
-77.500018
 20
130.250059
 42
0.000000
 10
-79.500018
 20
130.250059
 42
0.000000
 10
-79.500018
 20
50.250059
 42
0.000000
 10
-77.500018
 20
50.250059
 42
0.000000
 97
     0
 75
     0
 76
     1
 98
     0
  0
ENDBLK
  5
227
100
AcDbEntity
  8
0
100
AcDbBlockEnd
  0
BLOCK
  5
228
100
AcDbEntity
  8
SCHRAFF
100
AcDbBlockBegin
  2
B-9
 70
    66
 10
0.000000
 20
0.000000
 30
0.000000
  0
HATCH
  5
229
100
AcDbEntity
  8
SCHRAFF
 62
   254
440
     0
100
AcDbHatch
 10
0.000000
 20
0.000000
 30
0.000000
210
0.000000
220
0.000000
230
1.000000
  2
SOLID
 70
     1
 71
     1
 91
     1
 92
    18
 72
     1
 73
     0
 93
     7
 10
-212.500018
 20
50.250059
 42
0.000000
 10
-77.500018
 20
50.250059
 42
0.000000
 10
-77.500018
 20
-196.249941
 42
0.000000
 10
-82.500018
 20
-196.249941
 42
0.000000
 10
-82.500018
 20
45.250059
 42
0.000000
 10
-212.500018
 20
45.250059
 42
0.000000
 10
-212.500018
 20
50.250059
 42
0.000000
 97
     0
 75
     0
 76
     1
 98
     0
  0
ENDBLK
  5
22A
100
AcDbEntity
  8
0
100
AcDbBlockEnd
  0
BLOCK
  5
22B
100
AcDbEntity
  8
Detail
100
AcDbBlockBegin
  2
B-10
 70
    66
 10
0.000000
 20
0.000000
 30
0.000000
  0
LWPOLYLINE
  5
22C
100
AcDbEntity
  8
Detail
  6
CONTINUOUS
 62
     6
100
AcDbPolyline
 90
     4
 10
-82.500018
 20
-196.249941
 42
0.000000
 10
-82.500018
 20
45.250059
 42
0.000000
 10
-212.500018
 20
45.250059
 42
0.000000
 10
-127.500018
 20
45.250059
 42
0.000000
  0
LWPOLYLINE
  5
231
100
AcDbEntity
  8
Detail
  6
CONTINUOUS
 62
     6
100
AcDbPolyline
 90
     3
 10
-212.500018
 20
50.250059
 42
0.000000
 10
-77.500018
 20
50.250059
 42
0.000000
 10
-77.500018
 20
-196.249941
 42
0.000000
  0
ENDBLK
  5
235
100
AcDbEntity
  8
0
100
AcDbBlockEnd
  0
BLOCK
  5
236
100
AcDbEntity
  8
SCHRAFF
100
AcDbBlockBegin
  2
B-11
 70
    66
 10
0.000000
 20
0.000000
 30
0.000000
  0
HATCH
  5
237
100
AcDbEntity
  8
SCHRAFF
  6
CONTINUOUS
 62
     9
100
AcDbHatch
 10
0.000000
 20
0.000000
 30
0.000000
210
0.000000
220
0.000000
230
1.000000
  2
_U
 70
     0
 71
     1
 91
     1
 92
    18
 72
     1
 73
     0
 93
     7
 10
-212.500018
 20
45.250059
 42
0.000000
 10
-82.500018
 20
45.250059
 42
0.000000
 10
-82.500018
 20
-196.249941
 42
0.000000
 10
-202.500018
 20
-196.249941
 42
0.000000
 10
-202.500018
 20
-74.749941
 42
0.000000
 10
-212.500018
 20
-74.749941
 42
0.000000
 10
-212.500018
 20
45.250059
 42
0.000000
 97
     0
 75
     0
 76
     0
 52
0.000000
 41
1.000000
 77
     0
 78
     1
 53
45.000000
 43
-0.000000
 44
0.000000
 45
-17.677669
 46
17.677670
 79
     0
 98
     0
  0
ENDBLK
  5
238
100
AcDbEntity
  8
0
100
AcDbBlockEnd
  0
BLOCK
  5
239
100
AcDbEntity
  8
Detail
100
AcDbBlockBegin
  2
B-12
 70
    66
 10
0.000000
 20
0.000000
 30
0.000000
  0
LWPOLYLINE
  5
23A
100
AcDbEntity
  8
Detail
  6
CONTINUOUS
 62
     2
100
AcDbPolyline
 90
     3
 10
-82.500018
 20
-196.249941
 42
0.000000
 10
-82.500018
 20
45.250059
 42
0.000000
 10
-212.500018
 20
45.250059
 42
0.000000
  0
ENDBLK
  5
23E
100
AcDbEntity
  8
0
100
AcDbBlockEnd
  0
BLOCK
  5
23F
100
AcDbEntity
  8
Detail
100
AcDbBlockBegin
  2
B-13
 70
    66
 10
0.000000
 20
0.000000
 30
0.000000
  0
LWPOLYLINE
  5
240
100
AcDbEntity
  8
Detail
  6
HIDDEN
 62
     9
100
AcDbPolyline
 90
     2
 10
3.499982
 20
80.750059
 42
0.000000
 10
3.499982
 20
32.000059
 42
0.000000
  0
ENDBLK
  5
243
100
AcDbEntity
  8
0
100
AcDbBlockEnd
  0
BLOCK
  5
244
100
AcDbEntity
  8
SCHRAFF
100
AcDbBlockBegin
  2
B-14
 70
    66
 10
0.000000
 20
0.000000
 30
0.000000
  0
HATCH
  5
245
100
AcDbEntity
  8
SCHRAFF
 62
     7
440
     0
100
AcDbHatch
 10
0.000000
 20
0.000000
 30
0.000000
210
0.000000
220
0.000000
230
1.000000
  2
SOLID
 70
     1
 71
     1
 91
     1
 92
    18
 72
     1
 73
     0
 93
     3
 10
-15.514215
 20
-29.749941
 42
1.000000
 10
-16.514215
 20
-29.749941
 42
1.000000
 10
-15.514215
 20
-29.749941
 42
0.000000
 97
     0
 75
     0
 76
     1
 98
     0
  0
LWPOLYLINE
  5
246
100
AcDbEntity
  8
Detail
  6
CONTINUOUS
 62
     7
100
AcDbPolyline
 90
     3
 10
78.500023
 20
-29.749941
 42
0.000000
 10
79.096262
 20
-29.749941
 42
0.000000
 10
-16.014215
 20
-29.749941
 42
0.000000
  0
CIRCLE
  5
24A
100
AcDbEntity
  8
Detail
  6
CONTINUOUS
 62
     7
100
AcDbCircle
 10
-16.014215
 20
-29.749941
 40
0.500000
  0
ENDBLK
  5
24B
100
AcDbEntity
  8
0
100
AcDbBlockEnd
  0
BLOCK
  5
24C
100
AcDbEntity
  8
Detail
100
AcDbBlockBegin
  2
B-15
 70
    66
 10
0.000000
 20
0.000000
 30
0.000000
  0
MTEXT
  5
24E
100
AcDbEntity
  8
Detail
 62
     7
100
AcDbMText
 10
79.375023
 20
97.749961
 30
0.000000
 40
4.999992
 41
84.262365
 71
     1
 72
     5
  1
Gewebe-Eckschutz "Plus"
  7
Arial
 50
0.000000
  0
ENDBLK
  5
24F
100
AcDbEntity
  8
0
100
AcDbBlockEnd
  0
BLOCK
  5
250
100
AcDbEntity
  8
SCHRAFF
100
AcDbBlockBegin
  2
B-16
 70
    66
 10
0.000000
 20
0.000000
 30
0.000000
  0
HATCH
  5
251
100
AcDbEntity
  8
SCHRAFF
 62
     7
440
     0
100
AcDbHatch
 10
0.000000
 20
0.000000
 30
0.000000
210
0.000000
220
0.000000
230
1.000000
  2
SOLID
 70
     1
 71
     1
 91
     1
 92
    18
 72
     1
 73
     0
 93
     3
 10
-79.500018
 20
-4.749941
 42
1.000000
 10
-80.500018
 20
-4.749941
 42
1.000000
 10
-79.500018
 20
-4.749941
 42
0.000000
 97
     0
 75
     0
 76
     1
 98
     0
  0
CIRCLE
  5
252
100
AcDbEntity
  8
Detail
  6
CONTINUOUS
 62
     7
100
AcDbCircle
 10
-80.000018
 20
-4.749941
 40
0.500000
  0
LWPOLYLINE
  5
253
100
AcDbEntity
  8
Detail
  6
CONTINUOUS
 62
     7
100
AcDbPolyline
 90
     2
 10
77.500023
 20
-4.749941
 42
0.000000
 10
-80.000018
 20
-4.749941
 42
0.000000
  0
ENDBLK
  5
256
100
AcDbEntity
  8
0
100
AcDbBlockEnd
  0
BLOCK
  5
257
100
AcDbEntity
  8
Detail
100
AcDbBlockBegin
  2
B-17
 70
    66
 10
0.000000
 20
0.000000
 30
0.000000
  0
MTEXT
  5
258
100
AcDbEntity
  8
Detail
 62
     7
100
AcDbMText
 10
79.375023
 20
72.749961
 30
0.000000
 40
4.999992
 41
44.257429
 71
     1
 72
     5
  1
Edelkratzputz
  7
Arial
 50
0.000000
  0
ENDBLK
  5
259
100
AcDbEntity
  8
0
100
AcDbBlockEnd
  0
BLOCK
  5
25A
100
AcDbEntity
  8
SCHRAFF
100
AcDbBlockBegin
  2
B-18
 70
    66
 10
0.000000
 20
0.000000
 30
0.000000
  0
HATCH
  5
25B
100
AcDbEntity
  8
SCHRAFF
 62
     7
440
     0
100
AcDbHatch
 10
0.000000
 20
0.000000
 30
0.000000
210
0.000000
220
0.000000
230
1.000000
  2
SOLID
 70
     1
 71
     1
 91
     1
 92
    18
 72
     1
 73
     0
 93
     3
 10
-37.000018
 20
20.250059
 42
1.000000
 10
-38.000018
 20
20.250059
 42
1.000000
 10
-37.000018
 20
20.250059
 42
0.000000
 97
     0
 75
     0
 76
     1
 98
     0
  0
CIRCLE
  5
25C
100
AcDbEntity
  8
Detail
  6
CONTINUOUS
 62
     7
100
AcDbCircle
 10
-37.500018
 20
20.250059
 40
0.500000
  0
LWPOLYLINE
  5
25D
100
AcDbEntity
  8
Detail
  6
CONTINUOUS
 62
     7
100
AcDbPolyline
 90
     2
 10
77.500023
 20
20.250059
 42
0.000000
 10
-37.500018
 20
20.250059
 42
0.000000
  0
ENDBLK
  5
260
100
AcDbEntity
  8
0
100
AcDbBlockEnd
  0
BLOCK
  5
261
100
AcDbEntity
  8
SCHRAFF
100
AcDbBlockBegin
  2
B-19
 70
    66
 10
0.000000
 20
0.000000
 30
0.000000
  0
HATCH
  5
262
100
AcDbEntity
  8
SCHRAFF
 62
     7
440
     0
100
AcDbHatch
 10
0.000000
 20
0.000000
 30
0.000000
210
0.000000
220
0.000000
230
1.000000
  2
SOLID
 70
     1
 71
     1
 91
     1
 92
    18
 72
     1
 73
     0
 93
     3
 10
17.999982
 20
70.250059
 42
1.000000
 10
16.999982
 20
70.250059
 42
1.000000
 10
17.999982
 20
70.250059
 42
0.000000
 97
     0
 75
     0
 76
     1
 98
     0
  0
CIRCLE
  5
263
100
AcDbEntity
  8
Detail
  6
CONTINUOUS
 62
     7
100
AcDbCircle
 10
17.499982
 20
70.250059
 40
0.500000
  0
LWPOLYLINE
  5
264
100
AcDbEntity
  8
Detail
  6
CONTINUOUS
 62
     7
100
AcDbPolyline
 90
     2
 10
77.500023
 20
70.250059
 42
0.000000
 10
17.499982
 20
70.250059
 42
0.000000
  0
ENDBLK
  5
267
100
AcDbEntity
  8
0
100
AcDbBlockEnd
  0
BLOCK
  5
268
100
AcDbEntity
  8
Detail
100
AcDbBlockBegin
  2
B-20
 70
    66
 10
0.000000
 20
0.000000
 30
0.000000
  0
MTEXT
  5
269
100
AcDbEntity
  8
Detail
 62
     7
100
AcDbMText
 10
79.375023
 20
42.749965
 30
0.000000
 40
4.999995
 41
134.662365
 71
     7
 72
     5
  1
Armierungsschicht mit Glasfasergewebe, 
  7
Arial
 50
0.000000
  0
MTEXT
  5
26A
100
AcDbEntity
  8
Detail
 62
     7
100
AcDbMText
 10
79.375023
 20
35.249973
 30
0.000000
 40
4.999995
 41
68.984931
 71
     7
 72
     5
  1
aufgerauht, ca. 8 mm
  7
Arial
 50
0.000000
  0
ENDBLK
  5
26B
100
AcDbEntity
  8
0
100
AcDbBlockEnd
  0
BLOCK
  5
26C
100
AcDbEntity
  8
Detail
100
AcDbBlockBegin
  2
B-21
 70
    66
 10
0.000000
 20
0.000000
 30
0.000000
  0
MTEXT
  5
26D
100
AcDbEntity
  8
Detail
 62
     7
100
AcDbMText
 10
79.375023
 20
22.749962
 30
0.000000
 40
4.999990
 41
59.482357
 71
     1
 72
     5
  1
WDVS-Dämmstoff
  7
Arial
 50
0.000000
  0
ENDBLK
  5
26E
100
AcDbEntity
  8
0
100
AcDbBlockEnd
  0
BLOCK
  5
26F
100
AcDbEntity
  8
Detail
100
AcDbBlockBegin
  2
B-22
 70
    66
 10
0.000000
 20
0.000000
 30
0.000000
  0
LWPOLYLINE
  5
270
100
AcDbEntity
  8
Detail
  6
HIDDEN
 62
     9
100
AcDbPolyline
 90
     2
 10
-46.982590
 20
131.250059
 42
0.000000
 10
-95.750018
 20
131.250059
 42
0.000000
  0
ENDBLK
  5
273
100
AcDbEntity
  8
0
100
AcDbBlockEnd
  0
BLOCK
  5
274
100
AcDbEntity
  8
Detail
100
AcDbBlockBegin
  2
B-23
 70
    66
 10
0.000000
 20
0.000000
 30
0.000000
  0
MTEXT
  5
275
100
AcDbEntity
  8
Detail
 62
     7
100
AcDbMText
 10
79.375023
 20
-2.250040
 30
0.000000
 40
4.999995
 41
38.902461
 71
     1
 72
     5
  1
Klebemörtel
  7
Arial
 50
0.000000
  0
ENDBLK
  5
276
100
AcDbEntity
  8
0
100
AcDbBlockEnd
  0
BLOCK
  5
277
100
AcDbEntity
  8
Detail
100
AcDbBlockBegin
  2
B-24
 70
    66
 10
0.000000
 20
0.000000
 30
0.000000
  0
LWPOLYLINE
  5
278
100
AcDbEntity
  8
Detail
  6
CONTINUOUS
 62
     2
100
AcDbPolyline
 90
     3
 10
-212.500018
 20
-74.749941
 42
0.000000
 10
-202.500018
 20
-74.749941
 42
0.000000
 10
-202.500018
 20
-196.249941
 42
0.000000
  0
ENDBLK
  5
27C
100
AcDbEntity
  8
0
100
AcDbBlockEnd
  0
BLOCK
  5
27D
100
AcDbEntity
  8
Detail
100
AcDbBlockBegin
  2
B-25
 70
    66
 10
0.000000
 20
0.000000
 30
0.000000
  0
MTEXT
  5
27E
100
AcDbEntity
  8
Detail
 62
     7
100
AcDbMText
 10
79.375021
 20
-32.250033
 30
0.000000
 40
4.999992
 41
82.372368
 71
     7
 72
     5
  1
Verdübelung versenkt mit
  7
Arial
 50
0.000000
  0
MTEXT
  5
27F
100
AcDbEntity
  8
Detail
 62
     7
100
AcDbMText
 10
79.375021
 20
-39.750022
 30
0.000000
 40
4.999992
 41
82.634868
 71
     7
 72
     5
  1
Thermorondell abgedeckt
  7
Arial
 50
0.000000
  0
ENDBLK
  5
280
100
AcDbEntity
  8
0
100
AcDbBlockEnd
  0
BLOCK
  5
281
100
AcDbEntity
  8
Detail
100
AcDbBlockBegin
  2
B-26
 70
    66
 10
0.000000
 20
0.000000
 30
0.000000
  0
MTEXT
  5
282
100
AcDbEntity
  8
Detail
 62
     7
100
AcDbMText
 10
-211.093768
 20
-225.937528
 30
0.000000
 40
3.749990
 41
353.428963
 71
     7
 72
     5
  1
Capatect Details sind allgemeine planerische Vorschläge. Sie stellen schematisch die Ausführung dar. Ihnen zugrunde liegen die entsprechenden 
  7
Arial
 50
0.000000
  0
MTEXT
  5
283
100
AcDbEntity
  8
Detail
 62
     7
100
AcDbMText
 10
-211.093768
 20
-231.562513
 30
0.000000
 40
3.749990
 41
392.764473
 71
     7
 72
     5
  1
Produktdatenblätter sowie Systemzulassungen. Die Möglichkeit der Detailanwendung sowie deren Vollständigkeit sind im speziellen Anwendungsfall vom Planer / 
  7
Arial
 50
0.000000
  0
MTEXT
  5
284
100
AcDbEntity
  8
Detail
 62
     7
100
AcDbMText
 10
-211.093768
 20
-237.187498
 30
0.000000
 40
3.749990
 41
107.887184
 71
     7
 72
     5
  1
Unternehmer eigenverantwortlich zu prüfen. 
  7
Arial
 50
0.000000
  0
ENDBLK
  5
285
100
AcDbEntity
  8
0
100
AcDbBlockEnd
  0
BLOCK
  5
286
100
AcDbEntity
  8
Detail
100
AcDbBlockBegin
  2
B-27
 70
    66
 10
0.000000
 20
0.000000
 30
0.000000
  0
LWPOLYLINE
  5
287
100
AcDbEntity
  8
Detail
  6
CONTINUOUS
 62
     6
100
AcDbPolyline
 90
     2
 10
237.500023
 20
-246.249941
 42
0.000000
 10
-237.500018
 20
-246.249941
 42
0.000000
  0
ENDBLK
  5
28A
100
AcDbEntity
  8
0
100
AcDbBlockEnd
  0
BLOCK
  5
28B
100
AcDbEntity
  8
Detail
100
AcDbBlockBegin
  2
B-28
 70
    66
 10
0.000000
 20
0.000000
 30
0.000000
  0
MTEXT
  5
28C
100
AcDbEntity
  8
Detail
 62
     7
100
AcDbMText
 10
-210.625002
 20
-252.656291
 30
0.000000
 40
5.625000
 41
137.261250
 71
     1
 72
     5
  1
System:	WDVS mit Edelkratzputz
  7
Arial
 50
0.000000
  0
ENDBLK
  5
28D
100
AcDbEntity
  8
0
100
AcDbBlockEnd
  0
BLOCK
  5
28E
100
AcDbEntity
  8
Detail
100
AcDbBlockBegin
  2
B-29
 70
    66
 10
0.000000
 20
0.000000
 30
0.000000
  0
MTEXT
  5
28F
100
AcDbEntity
  8
Detail
 62
     7
100
AcDbMText
 10
-210.625002
 20
-290.156291
 30
0.000000
 40
5.625000
 41
67.921875
 71
     1
 72
     5
  1
Detail:	Aussenecke
  7
Arial
 50
0.000000
  0
ENDBLK
  5
290
100
AcDbEntity
  8
0
100
AcDbBlockEnd
  0
BLOCK
  5
291
100
AcDbEntity
  8
Detail
100
AcDbBlockBegin
  2
B-30
 70
    66
 10
0.000000
 20
0.000000
 30
0.000000
  0
MTEXT
  5
292
100
AcDbEntity
  8
Detail
 62
     7
100
AcDbMText
 10
6.314834
 20
-252.500041
 30
0.000000
 40
5.000000
 41
93.712500
 71
     1
 72
     5
  1
Plannummer:	130-0310
  7
Arial
 50
0.000000
  0
ENDBLK
  5
293
100
AcDbEntity
  8
0
100
AcDbBlockEnd
  0
BLOCK
  5
294
100
AcDbEntity
  8
Detail
100
AcDbBlockBegin
  2
B-31
 70
    66
 10
0.000000
 20
0.000000
 30
0.000000
  0
MTEXT
  5
295
100
AcDbEntity
  8
Detail
 62
     7
100
AcDbMText
 10
6.314834
 20
-277.500041
 30
0.000000
 40
5.000000
 41
91.035000
 71
     1
 72
     5
  1
Massstab:		ca. 1:2,5
  7
Arial
 50
0.000000
  0
ENDBLK
  5
296
100
AcDbEntity
  8
0
100
AcDbBlockEnd
  0
BLOCK
  5
297
100
AcDbEntity
  8
Detail
100
AcDbBlockBegin
  2
B-32
 70
    66
 10
0.000000
 20
0.000000
 30
0.000000
  0
MTEXT
  5
298
100
AcDbEntity
  8
Detail
 62
     7
100
AcDbMText
 10
6.314834
 20
-302.500041
 30
0.000000
 40
5.000000
 41
99.435000
 71
     1
 72
     5
  1
Aktualisierung:	14.07.2016
  7
Arial
 50
0.000000
  0
ENDBLK
  5
299
100
AcDbEntity
  8
0
100
AcDbBlockEnd
  0
BLOCK
  5
29A
100
AcDbEntity
  8
Detail
100
AcDbBlockBegin
  2
B-33
 70
    66
 10
0.000000
 20
0.000000
 30
0.000000
  0
LWPOLYLINE
  5
29B
100
AcDbEntity
  8
Detail
  6
CONTINUOUS
 62
     6
100
AcDbPolyline
 90
     2
 10
-20.560166
 20
-321.249941
 42
0.000000
 10
-20.560166
 20
-246.249941
 42
0.000000
  0
LWPOLYLINE
  5
29E
100
AcDbEntity
  8
Detail
  6
CONTINUOUS
 62
     6
100
AcDbPolyline
 90
     2
 10
-237.500018
 20
-321.249941
 42
0.000000
 10
120.969928
 20
-321.249941
 42
0.000000
  0
LWPOLYLINE
  5
2A1
100
AcDbEntity
  8
Detail
  6
CONTINUOUS
 62
     6
100
AcDbPolyline
 90
     2
 10
-20.560166
 20
-271.249941
 42
0.000000
 10
120.969928
 20
-271.249941
 42
0.000000
  0
LWPOLYLINE
  5
2A4
100
AcDbEntity
  8
Detail
  6
CONTINUOUS
 62
     6
100
AcDbPolyline
 90
     2
 10
-20.560166
 20
-296.249941
 42
0.000000
 10
120.969928
 20
-296.249941
 42
0.000000
  0
ENDBLK
  5
2A7
100
AcDbEntity
  8
0
100
AcDbBlockEnd
  0
BLOCK
  5
2A8
100
AcDbEntity
  8
Detail
100
AcDbBlockBegin
  2
B-34
 70
    66
 10
0.000000
 20
0.000000
 30
0.000000
  0
MTEXT
  5
2A9
100
AcDbEntity
  8
Detail
 62
     7
100
AcDbMText
 10
-210.625009
 20
-332.500016
 30
0.000000
 40
4.999980
 41
58.117268
 71
     7
 72
     5
  1
DAW Schweiz AG
  7
Arial
 50
0.000000
  0
MTEXT
  5
2AA
100
AcDbEntity
  8
Detail
 62
     7
100
AcDbMText
 10
-210.625009
 20
-339.999986
 30
0.000000
 40
4.999980
 41
108.149567
 71
     7
 72
     5
  1
Gewerbestrasse 6, 8606 Nänikon
  7
Arial
 50
0.000000
  0
ENDBLK
  5
2AB
100
AcDbEntity
  8
0
100
AcDbBlockEnd
  0
BLOCK
  5
2AC
100
AcDbEntity
  8
Detail
100
AcDbBlockBegin
  2
B-35
 70
    66
 10
0.000000
 20
0.000000
 30
0.000000
  0
LWPOLYLINE
  5
2AD
100
AcDbEntity
  8
Detail
  6
CONTINUOUS
 62
     6
100
AcDbPolyline
 90
     2
 10
-20.560166
 20
-283.749941
 42
0.000000
 10
-237.500018
 20
-283.749941
 42
0.000000
  0
ENDBLK
  5
2B0
100
AcDbEntity
  8
0
100
AcDbBlockEnd
  0
BLOCK
  5
2B1
100
AcDbEntity
  8
Detail
100
AcDbBlockBegin
  2
B-36
 70
    66
 10
0.000000
 20
0.000000
 30
0.000000
  0
MTEXT
  5
2B2
100
AcDbEntity
  8
Detail
 62
     7
100
AcDbMText
 10
-85.625025
 20
-332.500016
 30
0.000000
 40
4.999980
 41
72.134711
 71
     7
 72
     5
  1
Telefon 043 399 42 22
  7
Arial
 50
0.000000
  0
MTEXT
  5
2B3
100
AcDbEntity
  8
Detail
 62
     7
100
AcDbMText
 10
-85.625025
 20
-339.999986
 30
0.000000
 40
4.999980
 41
71.767213
 71
     7
 72
     5
  1
Telefax 043 399 42 23
  7
Arial
 50
0.000000
  0
ENDBLK
  5
2B4
100
AcDbEntity
  8
0
100
AcDbBlockEnd
  0
BLOCK
  5
2B5
100
AcDbEntity
  8
Detail
100
AcDbBlockBegin
  2
B-37
 70
    66
 10
0.000000
 20
0.000000
 30
0.000000
  0
MTEXT
  5
2B6
100
AcDbEntity
  8
Detail
 62
     7
100
AcDbMText
 10
39.374975
 20
-332.500019
 30
0.000000
 40
4.999982
 41
51.922313
 71
     7
 72
     5
  1
info@daw.swiss
  7
Arial
 50
0.000000
  0
MTEXT
  5
2B7
100
AcDbEntity
  8
Detail
 62
     7
100
AcDbMText
 10
39.374975
 20
-339.999993
 30
0.000000
 40
4.999982
 41
54.599803
 71
     7
 72
     5
  1
www.capatect.ch
  7
Arial
 50
0.000000
  0
ENDBLK
  5
2B8
100
AcDbEntity
  8
0
100
AcDbBlockEnd
  0
BLOCK
  5
2B9
100
AcDbEntity
  8
Detail
100
AcDbBlockBegin
  2
B-38
 70
    66
 10
0.000000
 20
0.000000
 30
0.000000
  0
LWPOLYLINE
  5
2BA
100
AcDbEntity
  8
Detail
  6
CONTINUOUS
 62
     6
100
AcDbPolyline
 90
     2
 10
120.969928
 20
-346.249941
 42
0.000000
 10
120.969928
 20
-246.249941
 42
0.000000
  0
ENDBLK
  5
2BD
100
AcDbEntity
  8
0
100
AcDbBlockEnd
  0
BLOCK
  5
2BE
100
AcDbEntity
  8
Detail
100
AcDbBlockBegin
  2
B-39
 70
    66
 10
0.000000
 20
0.000000
 30
0.000000
  0
LWPOLYLINE
  5
2BF
100
AcDbEntity
  8
Detail
  6
CONTINUOUS
 62
     6
100
AcDbPolyline
 90
     5
 10
-237.500018
 20
-346.249941
 42
0.000000
 10
237.500023
 20
-346.249941
 42
0.000000
 10
237.500023
 20
346.250078
 42
0.000000
 10
-237.500018
 20
346.250078
 42
0.000000
 10
-237.500018
 20
-346.249941
 42
0.000000
  0
ENDBLK
  5
2C5
100
AcDbEntity
  8
0
100
AcDbBlockEnd
  0
BLOCK
  5
2C6
100
AcDbEntity
  8
Detail
100
AcDbBlockBegin
  2
B-40
 70
    66
 10
0.000000
 20
0.000000
 30
0.000000
  0
ENDBLK
  5
2C7
100
AcDbEntity
  8
0
100
AcDbBlockEnd
  0
BLOCK
  5
2C8
100
AcDbEntity
  8
Detail
100
AcDbBlockBegin
  2
B-41
 70
    66
 10
0.000000
 20
0.000000
 30
0.000000
  0
LWPOLYLINE
  5
2C9
100
AcDbEntity
  8
Detail
  6
CONTINUOUS
 62
     3
100
AcDbPolyline
 90
     8
 10
-212.500018
 20
50.250059
 42
0.000000
 10
-79.500018
 20
50.250059
 42
0.000000
 10
-79.500018
 20
130.250059
 42
0.000000
 10
-132.500018
 20
130.250059
 42
0.000000
 10
-132.500018
 20
110.235862
 42
0.000000
 10
-192.500018
 20
110.235862
 42
0.000000
 10
-192.500018
 20
130.250059
 42
0.000000
 10
-212.500018
 20
130.250059
 42
0.000000
  0
ENDBLK
  5
2D2
100
AcDbEntity
  8
0
100
AcDbBlockEnd
  0
BLOCK
  5
2D3
100
AcDbEntity
  8
Detail
100
AcDbBlockBegin
  2
B-42
 70
    66
 10
0.000000
 20
0.000000
 30
0.000000
  0
LWPOLYLINE
  5
2D4
100
AcDbEntity
  8
Detail
  6
CONTINUOUS
 62
     3
100
AcDbPolyline
 90
     8
 10
-77.500018
 20
-196.249941
 42
0.000000
 10
-77.500018
 20
130.250059
 42
0.000000
 10
2.499982
 20
130.250059
 42
0.000000
 10
2.499982
 20
0.250059
 42
0.000000
 10
-17.514215
 20
0.250059
 42
0.000000
 10
-17.514215
 20
-59.749941
 42
0.000000
 10
2.499982
 20
-59.749941
 42
0.000000
 10
2.499982
 20
-196.249941
 42
0.000000
  0
ENDBLK
  5
2DD
100
AcDbEntity
  8
0
100
AcDbBlockEnd
  0
BLOCK
  5
2DE
100
AcDbEntity
  8
Detail
100
AcDbBlockBegin
  2
B-43
 70
    66
 10
0.000000
 20
0.000000
 30
0.000000
  0
LWPOLYLINE
  5
2DF
100
AcDbEntity
  8
Detail
  6
CONTINUOUS
 62
     9
100
AcDbPolyline
 90
     2
 10
-169.500018
 20
81.735862
 42
0.000000
 10
-155.520605
 20
81.735862
 42
0.000000
  0
LWPOLYLINE
  5
2E2
100
AcDbEntity
  8
Detail
  6
CONTINUOUS
 62
     9
100
AcDbPolyline
 90
   203
 10
-162.500018
 20
-8.264138
 42
0.000000
 10
-163.375283
 20
-6.151062
 42
0.000000
 10
-164.244036
 20
-5.649487
 42
0.000000
 10
-163.744036
 20
-5.260812
 42
0.000000
 10
-164.191527
 20
-4.180475
 42
0.000000
 10
-165.060281
 20
-3.678900
 42
0.000000
 10
-164.560281
 20
-3.290225
 42
0.000000
 10
-164.800018
 20
-2.711448
 42
0.000000
 10
-164.800018
 20
-2.110409
 42
0.000000
 10
-165.300018
 20
-1.821734
 42
0.000000
 10
-164.800018
 20
-1.433059
 42
0.000000
 10
-164.800018
 20
-0.300409
 42
0.000000
 10
-165.300018
 20
-0.011734
 42
0.000000
 10
-164.800018
 20
0.376941
 42
0.000000
 10
-164.800018
 20
1.509591
 42
0.000000
 10
-165.300018
 20
1.798266
 42
0.000000
 10
-164.800018
 20
2.186941
 42
0.000000
 10
-164.800018
 20
3.319591
 42
0.000000
 10
-165.300018
 20
3.608266
 42
0.000000
 10
-164.800018
 20
3.996941
 42
0.000000
 10
-164.800018
 20
5.129591
 42
0.000000
 10
-165.300018
 20
5.418266
 42
0.000000
 10
-164.800018
 20
5.806941
 42
0.000000
 10
-164.800018
 20
6.939591
 42
0.000000
 10
-165.300018
 20
7.228266
 42
0.000000
 10
-164.800018
 20
7.616941
 42
0.000000
 10
-164.800018
 20
8.749591
 42
0.000000
 10
-165.300018
 20
9.038266
 42
0.000000
 10
-164.800018
 20
9.426941
 42
0.000000
 10
-164.800018
 20
10.559591
 42
0.000000
 10
-165.300018
 20
10.848266
 42
0.000000
 10
-164.800018
 20
11.236941
 42
0.000000
 10
-164.800018
 20
12.369591
 42
0.000000
 10
-165.300018
 20
12.658266
 42
0.000000
 10
-164.800018
 20
13.046941
 42
0.000000
 10
-164.800018
 20
14.179591
 42
0.000000
 10
-165.300018
 20
14.468266
 42
0.000000
 10
-164.800018
 20
14.856941
 42
0.000000
 10
-164.800018
 20
15.989591
 42
0.000000
 10
-165.300018
 20
16.278266
 42
0.000000
 10
-164.800018
 20
16.666941
 42
0.000000
 10
-164.800018
 20
17.799591
 42
0.000000
 10
-165.300018
 20
18.088266
 42
0.000000
 10
-164.800018
 20
18.476941
 42
0.000000
 10
-164.800018
 20
19.609591
 42
0.000000
 10
-165.300018
 20
19.898266
 42
0.000000
 10
-164.800018
 20
20.286941
 42
0.000000
 10
-164.800018
 20
21.419591
 42
0.000000
 10
-165.300018
 20
21.708266
 42
0.000000
 10
-164.800018
 20
22.096941
 42
0.000000
 10
-164.800018
 20
23.229591
 42
0.000000
 10
-165.300018
 20
23.518266
 42
0.000000
 10
-164.800018
 20
23.906941
 42
0.000000
 10
-164.800018
 20
25.039591
 42
0.000000
 10
-165.300018
 20
25.328266
 42
0.000000
 10
-164.800018
 20
25.716941
 42
0.000000
 10
-164.800018
 20
26.849591
 42
0.000000
 10
-165.300018
 20
27.138266
 42
0.000000
 10
-164.800018
 20
27.549455
 42
0.000000
 10
-164.800018
 20
28.659591
 42
0.000000
 10
-165.300018
 20
28.948266
 42
0.000000
 10
-164.800018
 20
29.336941
 42
0.000000
 10
-164.800018
 20
30.469591
 42
0.000000
 10
-165.300018
 20
30.758266
 42
0.000000
 10
-164.800018
 20
31.146941
 42
0.000000
 10
-164.800018
 20
32.279591
 42
0.000000
 10
-165.300018
 20
32.568266
 42
0.000000
 10
-164.800018
 20
32.956941
 42
0.000000
 10
-164.800018
 20
34.089591
 42
0.000000
 10
-165.300018
 20
34.378266
 42
0.000000
 10
-164.800018
 20
34.766941
 42
0.000000
 10
-164.800018
 20
35.899591
 42
0.000000
 10
-165.300018
 20
36.188266
 42
0.000000
 10
-164.800018
 20
36.576941
 42
0.000000
 10
-164.800018
 20
37.709591
 42
0.000000
 10
-165.300018
 20
37.998266
 42
0.000000
 10
-164.800018
 20
38.386941
 42
0.000000
 10
-164.800018
 20
39.519591
 42
0.000000
 10
-165.300018
 20
39.808266
 42
0.000000
 10
-164.800018
 20
40.196941
 42
0.000000
 10
-164.800018
 20
41.329591
 42
0.000000
 10
-165.300018
 20
41.618266
 42
0.000000
 10
-164.800018
 20
42.006941
 42
0.000000
 10
-164.800018
 20
43.139591
 42
0.000000
 10
-165.300018
 20
43.428266
 42
0.000000
 10
-164.800018
 20
43.816941
 42
0.000000
 10
-164.800018
 20
44.949591
 42
0.000000
 10
-165.300018
 20
45.238266
 42
0.000000
 10
-164.800018
 20
45.626941
 42
0.000000
 10
-164.800018
 20
46.759591
 42
0.000000
 10
-165.300018
 20
47.048266
 42
0.000000
 10
-164.800018
 20
47.436941
 42
0.000000
 10
-164.800018
 20
48.569591
 42
0.000000
 10
-165.300018
 20
48.858266
 42
0.000000
 10
-164.800018
 20
49.246941
 42
0.000000
 10
-164.800018
 20
50.379591
 42
0.000000
 10
-165.300018
 20
50.668266
 42
0.000000
 10
-164.800018
 20
51.056941
 42
0.000000
 10
-164.800018
 20
51.735862
 42
0.000000
 10
-164.900018
 20
51.909067
 42
0.000000
 10
-167.000018
 20
75.735862
 42
0.000000
 10
-158.000018
 20
75.735862
 42
0.000000
 10
-160.100018
 20
51.909067
 42
0.000000
 10
-160.200018
 20
51.735862
 42
0.000000
 10
-159.700018
 20
51.573266
 42
0.000000
 10
-160.200018
 20
51.284591
 42
0.000000
 10
-160.200018
 20
50.151941
 42
0.000000
 10
-159.700018
 20
49.763266
 42
0.000000
 10
-160.200018
 20
49.474591
 42
0.000000
 10
-160.200018
 20
48.341941
 42
0.000000
 10
-159.700018
 20
47.953266
 42
0.000000
 10
-160.200018
 20
47.664591
 42
0.000000
 10
-160.200018
 20
46.531941
 42
0.000000
 10
-159.700018
 20
46.143266
 42
0.000000
 10
-160.200018
 20
45.854591
 42
0.000000
 10
-160.200018
 20
44.721941
 42
0.000000
 10
-159.700018
 20
44.333266
 42
0.000000
 10
-160.200018
 20
44.044591
 42
0.000000
 10
-160.200018
 20
42.911941
 42
0.000000
 10
-159.700018
 20
42.523266
 42
0.000000
 10
-160.200018
 20
42.234591
 42
0.000000
 10
-160.200018
 20
41.101941
 42
0.000000
 10
-159.700018
 20
40.713266
 42
0.000000
 10
-160.200018
 20
40.424591
 42
0.000000
 10
-160.200018
 20
39.291941
 42
0.000000
 10
-159.700018
 20
38.903266
 42
0.000000
 10
-160.200018
 20
38.614591
 42
0.000000
 10
-160.200018
 20
37.481941
 42
0.000000
 10
-159.700018
 20
37.093266
 42
0.000000
 10
-160.200018
 20
36.804591
 42
0.000000
 10
-160.200018
 20
35.671941
 42
0.000000
 10
-159.700018
 20
35.283266
 42
0.000000
 10
-160.200018
 20
34.994591
 42
0.000000
 10
-160.200018
 20
33.861941
 42
0.000000
 10
-159.700018
 20
33.473266
 42
0.000000
 10
-160.200018
 20
33.184591
 42
0.000000
 10
-160.200018
 20
32.051941
 42
0.000000
 10
-159.700018
 20
31.663266
 42
0.000000
 10
-160.200018
 20
31.374591
 42
0.000000
 10
-160.200018
 20
30.241941
 42
0.000000
 10
-159.700018
 20
29.853266
 42
0.000000
 10
-160.200018
 20
29.564591
 42
0.000000
 10
-160.200018
 20
28.431941
 42
0.000000
 10
-159.700018
 20
28.043266
 42
0.000000
 10
-160.200018
 20
27.754591
 42
0.000000
 10
-160.200018
 20
26.621941
 42
0.000000
 10
-159.700018
 20
26.233266
 42
0.000000
 10
-160.200018
 20
25.944591
 42
0.000000
 10
-160.200018
 20
24.811941
 42
0.000000
 10
-159.700018
 20
24.423266
 42
0.000000
 10
-160.200018
 20
24.134591
 42
0.000000
 10
-160.200018
 20
23.001941
 42
0.000000
 10
-159.700018
 20
22.613266
 42
0.000000
 10
-160.200018
 20
22.324591
 42
0.000000
 10
-160.200018
 20
21.191941
 42
0.000000
 10
-159.700018
 20
20.803266
 42
0.000000
 10
-160.200018
 20
20.514591
 42
0.000000
 10
-160.200018
 20
19.381941
 42
0.000000
 10
-159.700018
 20
18.993266
 42
0.000000
 10
-160.200018
 20
18.704591
 42
0.000000
 10
-160.200018
 20
17.571941
 42
0.000000
 10
-159.700018
 20
17.183266
 42
0.000000
 10
-160.200018
 20
16.894591
 42
0.000000
 10
-160.200018
 20
15.761941
 42
0.000000
 10
-159.700018
 20
15.373266
 42
0.000000
 10
-160.200018
 20
15.084591
 42
0.000000
 10
-160.200018
 20
13.951941
 42
0.000000
 10
-159.700018
 20
13.563266
 42
0.000000
 10
-160.200018
 20
13.274591
 42
0.000000
 10
-160.200018
 20
12.141941
 42
0.000000
 10
-159.700018
 20
11.753266
 42
0.000000
 10
-160.200018
 20
11.464591
 42
0.000000
 10
-160.200018
 20
10.331941
 42
0.000000
 10
-159.700018
 20
9.943266
 42
0.000000
 10
-160.200018
 20
9.654591
 42
0.000000
 10
-160.200018
 20
8.521941
 42
0.000000
 10
-159.700018
 20
8.133266
 42
0.000000
 10
-160.200018
 20
7.844591
 42
0.000000
 10
-160.200018
 20
6.711941
 42
0.000000
 10
-159.700018
 20
6.323266
 42
0.000000
 10
-160.200018
 20
6.034591
 42
0.000000
 10
-160.200018
 20
4.901941
 42
0.000000
 10
-159.700018
 20
4.513266
 42
0.000000
 10
-160.200018
 20
4.224591
 42
0.000000
 10
-160.200018
 20
3.091941
 42
0.000000
 10
-159.700018
 20
2.703266
 42
0.000000
 10
-160.200018
 20
2.414591
 42
0.000000
 10
-160.200018
 20
1.281941
 42
0.000000
 10
-159.700018
 20
0.893266
 42
0.000000
 10
-160.200018
 20
0.604591
 42
0.000000
 10
-160.200018
 20
-0.528059
 42
0.000000
 10
-159.700018
 20
-0.916734
 42
0.000000
 10
-160.200018
 20
-1.205409
 42
0.000000
 10
-160.200018
 20
-2.338059
 42
0.000000
 10
-159.700018
 20
-2.726734
 42
0.000000
 10
-160.365497
 20
-3.110949
 42
0.000000
 10
-160.750243
 20
-4.039808
 42
0.000000
 10
-160.250243
 20
-4.428483
 42
0.000000
 10
-161.118997
 20
-4.930058
 42
0.000000
 10
-161.443477
 20
-5.713422
 42
0.000000
 10
-160.943477
 20
-6.102097
 42
0.000000
 10
-161.812231
 20
-6.603672
 42
0.000000
 10
-162.500018
 20
-8.264138
 42
0.000000
  0
LWPOLYLINE
  5
3AE
100
AcDbEntity
  8
Detail
  6
CONTINUOUS
 62
     9
100
AcDbPolyline
 90
    83
 10
-132.500018
 20
110.235862
 42
0.000000
 10
-132.500018
 20
110.735862
 42
0.000000
 10
-137.500018
 20
111.735862
 42
0.000000
 10
-187.500018
 20
111.735862
 42
0.000000
 10
-192.500018
 20
110.735862
 42
0.000000
 10
-192.500018
 20
110.235862
 42
0.000000
 10
-175.500018
 20
110.235862
 42
0.000000
 10
-171.750018
 20
108.985862
 42
0.000000
 10
-170.500018
 20
105.235862
 42
0.000000
 10
-169.500018
 20
81.735862
 42
0.000000
 10
-167.000018
 20
75.735862
 42
0.000000
 10
-166.460018
 20
33.273665
 42
0.000000
 10
-166.213009
 20
31.907723
 42
0.000000
 10
-166.460018
 20
31.831969
 42
0.000000
 10
-166.460018
 20
29.049665
 42
0.000000
 10
-166.213009
 20
27.683723
 42
0.000000
 10
-166.460018
 20
27.607969
 42
0.000000
 10
-166.460018
 20
24.825665
 42
0.000000
 10
-166.213009
 20
23.459723
 42
0.000000
 10
-166.455218
 20
23.384053
 42
0.000000
 10
-166.460018
 20
20.601665
 42
0.000000
 10
-166.213009
 20
19.235723
 42
0.000000
 10
-166.460018
 20
19.159969
 42
0.000000
 10
-166.460018
 20
16.377665
 42
0.000000
 10
-166.213009
 20
15.011723
 42
0.000000
 10
-166.460018
 20
14.935969
 42
0.000000
 10
-166.460018
 20
12.153665
 42
0.000000
 10
-166.213009
 20
10.787723
 42
0.000000
 10
-166.460018
 20
10.711969
 42
0.000000
 10
-166.460018
 20
7.929665
 42
0.000000
 10
-166.213009
 20
6.563723
 42
0.000000
 10
-166.460018
 20
6.487969
 42
0.000000
 10
-166.460018
 20
3.705665
 42
0.000000
 10
-166.213009
 20
2.339723
 42
0.000000
 10
-166.460018
 20
2.263969
 42
0.000000
 10
-166.460018
 20
-0.518335
 42
0.000000
 10
-166.177586
 20
-1.722491
 42
0.000000
 10
-166.340017
 20
-2.181474
 42
0.000000
 10
-165.905762
 20
-3.158335
 42
0.000000
 10
-165.380018
 20
-3.398335
 42
0.000000
 10
-165.380018
 20
-4.166335
 42
0.000000
 10
-164.839050
 20
-5.684228
 42
0.000000
 10
-163.460018
 20
-6.517845
 42
0.000000
 10
-162.500018
 20
-8.264138
 42
0.000000
 10
-161.540018
 20
-6.517845
 42
0.000000
 10
-160.160986
 20
-5.684228
 42
0.000000
 10
-159.633625
 20
-4.421534
 42
0.000000
 10
-159.620018
 20
-3.398335
 42
0.000000
 10
-159.094274
 20
-3.158335
 42
0.000000
 10
-158.660018
 20
-2.406179
 42
0.000000
 10
-158.660018
 20
-1.956766
 42
0.000000
 10
-158.822450
 20
-1.722491
 42
0.000000
 10
-158.540018
 20
-0.518335
 42
0.000000
 10
-158.540018
 20
2.263969
 42
0.000000
 10
-158.787027
 20
2.339723
 42
0.000000
 10
-158.540018
 20
3.705665
 42
0.000000
 10
-158.540018
 20
6.487969
 42
0.000000
 10
-158.787027
 20
6.563723
 42
0.000000
 10
-158.540018
 20
7.929665
 42
0.000000
 10
-158.540018
 20
10.711969
 42
0.000000
 10
-158.787027
 20
10.787723
 42
0.000000
 10
-158.540018
 20
12.153665
 42
0.000000
 10
-158.540018
 20
14.935969
 42
0.000000
 10
-158.787027
 20
15.011723
 42
0.000000
 10
-158.540018
 20
16.377665
 42
0.000000
 10
-158.540018
 20
19.159969
 42
0.000000
 10
-158.787027
 20
19.235723
 42
0.000000
 10
-158.540018
 20
20.601665
 42
0.000000
 10
-158.544818
 20
23.384053
 42
0.000000
 10
-158.787027
 20
23.459723
 42
0.000000
 10
-158.540018
 20
24.825665
 42
0.000000
 10
-158.540018
 20
27.607969
 42
0.000000
 10
-158.787027
 20
27.683723
 42
0.000000
 10
-158.540018
 20
29.049665
 42
0.000000
 10
-158.540018
 20
31.831969
 42
0.000000
 10
-158.787027
 20
31.907723
 42
0.000000
 10
-158.540018
 20
33.273665
 42
0.000000
 10
-158.000018
 20
75.735862
 42
0.000000
 10
-155.500018
 20
81.735862
 42
0.000000
 10
-154.500018
 20
105.235862
 42
0.000000
 10
-153.250018
 20
108.985862
 42
0.000000
 10
-149.500018
 20
110.235862
 42
0.000000
 10
-132.500018
 20
110.235862
 42
0.000000
  0
ENDBLK
  5
402
100
AcDbEntity
  8
0
100
AcDbBlockEnd
  0
BLOCK
  5
403
100
AcDbEntity
  8
Detail
100
AcDbBlockBegin
  2
B-45
 70
    66
 10
0.000000
 20
0.000000
 30
0.000000
  0
LWPOLYLINE
  5
404
100
AcDbEntity
  8
Detail
  6
CONTINUOUS
 62
     3
100
AcDbPolyline
 90
     5
 10
-192.500018
 20
130.250059
 42
0.000000
 10
-192.500018
 20
110.235862
 42
0.000000
 10
-132.500018
 20
110.235862
 42
0.000000
 10
-132.500018
 20
130.250059
 42
0.000000
 10
-192.500018
 20
130.250059
 42
0.000000
  0
ENDBLK
  5
40A
100
AcDbEntity
  8
0
100
AcDbBlockEnd
  0
BLOCK
  5
40B
100
AcDbEntity
  8
Detail
100
AcDbBlockBegin
  2
B-46
 70
    66
 10
0.000000
 20
0.000000
 30
0.000000
  0
LWPOLYLINE
  5
40C
100
AcDbEntity
  8
Detail
  6
CONTINUOUS
 62
     9
100
AcDbPolyline
 90
     2
 10
-46.014215
 20
-22.749941
 42
0.000000
 10
-46.014215
 20
-36.729354
 42
0.000000
  0
LWPOLYLINE
  5
40F
100
AcDbEntity
  8
Detail
  6
CONTINUOUS
 62
     9
100
AcDbPolyline
 90
   203
 10
-136.014215
 20
-29.749941
 42
0.000000
 10
-133.901139
 20
-28.874676
 42
0.000000
 10
-133.399564
 20
-28.005923
 42
0.000000
 10
-133.010889
 20
-28.505923
 42
0.000000
 10
-131.930552
 20
-28.058432
 42
0.000000
 10
-131.428977
 20
-27.189679
 42
0.000000
 10
-131.040302
 20
-27.689679
 42
0.000000
 10
-130.461525
 20
-27.449941
 42
0.000000
 10
-129.860486
 20
-27.449941
 42
0.000000
 10
-129.571811
 20
-26.949941
 42
0.000000
 10
-129.183136
 20
-27.449941
 42
0.000000
 10
-128.050486
 20
-27.449941
 42
0.000000
 10
-127.761811
 20
-26.949941
 42
0.000000
 10
-127.373136
 20
-27.449941
 42
0.000000
 10
-126.240486
 20
-27.449941
 42
0.000000
 10
-125.951811
 20
-26.949941
 42
0.000000
 10
-125.563136
 20
-27.449941
 42
0.000000
 10
-124.430486
 20
-27.449941
 42
0.000000
 10
-124.141811
 20
-26.949941
 42
0.000000
 10
-123.753136
 20
-27.449941
 42
0.000000
 10
-122.620486
 20
-27.449941
 42
0.000000
 10
-122.331811
 20
-26.949941
 42
0.000000
 10
-121.943136
 20
-27.449941
 42
0.000000
 10
-120.810486
 20
-27.449941
 42
0.000000
 10
-120.521811
 20
-26.949941
 42
0.000000
 10
-120.133136
 20
-27.449941
 42
0.000000
 10
-119.000486
 20
-27.449941
 42
0.000000
 10
-118.711811
 20
-26.949941
 42
0.000000
 10
-118.323136
 20
-27.449941
 42
0.000000
 10
-117.190486
 20
-27.449941
 42
0.000000
 10
-116.901811
 20
-26.949941
 42
0.000000
 10
-116.513136
 20
-27.449941
 42
0.000000
 10
-115.380486
 20
-27.449941
 42
0.000000
 10
-115.091811
 20
-26.949941
 42
0.000000
 10
-114.703136
 20
-27.449941
 42
0.000000
 10
-113.570486
 20
-27.449941
 42
0.000000
 10
-113.281811
 20
-26.949941
 42
0.000000
 10
-112.893136
 20
-27.449941
 42
0.000000
 10
-111.760486
 20
-27.449941
 42
0.000000
 10
-111.471811
 20
-26.949941
 42
0.000000
 10
-111.083136
 20
-27.449941
 42
0.000000
 10
-109.950486
 20
-27.449941
 42
0.000000
 10
-109.661811
 20
-26.949941
 42
0.000000
 10
-109.273136
 20
-27.449941
 42
0.000000
 10
-108.140486
 20
-27.449941
 42
0.000000
 10
-107.851811
 20
-26.949941
 42
0.000000
 10
-107.463136
 20
-27.449941
 42
0.000000
 10
-106.330486
 20
-27.449941
 42
0.000000
 10
-106.041811
 20
-26.949941
 42
0.000000
 10
-105.653136
 20
-27.449941
 42
0.000000
 10
-104.520486
 20
-27.449941
 42
0.000000
 10
-104.231811
 20
-26.949941
 42
0.000000
 10
-103.843136
 20
-27.449941
 42
0.000000
 10
-102.710486
 20
-27.449941
 42
0.000000
 10
-102.421811
 20
-26.949941
 42
0.000000
 10
-102.033136
 20
-27.449941
 42
0.000000
 10
-100.900486
 20
-27.449941
 42
0.000000
 10
-100.611811
 20
-26.949941
 42
0.000000
 10
-100.200622
 20
-27.449941
 42
0.000000
 10
-99.090486
 20
-27.449941
 42
0.000000
 10
-98.801811
 20
-26.949941
 42
0.000000
 10
-98.413136
 20
-27.449941
 42
0.000000
 10
-97.280486
 20
-27.449941
 42
0.000000
 10
-96.991811
 20
-26.949941
 42
0.000000
 10
-96.603136
 20
-27.449941
 42
0.000000
 10
-95.470486
 20
-27.449941
 42
0.000000
 10
-95.181811
 20
-26.949941
 42
0.000000
 10
-94.793136
 20
-27.449941
 42
0.000000
 10
-93.660486
 20
-27.449941
 42
0.000000
 10
-93.371811
 20
-26.949941
 42
0.000000
 10
-92.983136
 20
-27.449941
 42
0.000000
 10
-91.850486
 20
-27.449941
 42
0.000000
 10
-91.561811
 20
-26.949941
 42
0.000000
 10
-91.173136
 20
-27.449941
 42
0.000000
 10
-90.040486
 20
-27.449941
 42
0.000000
 10
-89.751811
 20
-26.949941
 42
0.000000
 10
-89.363136
 20
-27.449941
 42
0.000000
 10
-88.230486
 20
-27.449941
 42
0.000000
 10
-87.941811
 20
-26.949941
 42
0.000000
 10
-87.553136
 20
-27.449941
 42
0.000000
 10
-86.420486
 20
-27.449941
 42
0.000000
 10
-86.131811
 20
-26.949941
 42
0.000000
 10
-85.743136
 20
-27.449941
 42
0.000000
 10
-84.610486
 20
-27.449941
 42
0.000000
 10
-84.321811
 20
-26.949941
 42
0.000000
 10
-83.933136
 20
-27.449941
 42
0.000000
 10
-82.800486
 20
-27.449941
 42
0.000000
 10
-82.511811
 20
-26.949941
 42
0.000000
 10
-82.123136
 20
-27.449941
 42
0.000000
 10
-80.990486
 20
-27.449941
 42
0.000000
 10
-80.701811
 20
-26.949941
 42
0.000000
 10
-80.313136
 20
-27.449941
 42
0.000000
 10
-79.180486
 20
-27.449941
 42
0.000000
 10
-78.891811
 20
-26.949941
 42
0.000000
 10
-78.503136
 20
-27.449941
 42
0.000000
 10
-77.370486
 20
-27.449941
 42
0.000000
 10
-77.081811
 20
-26.949941
 42
0.000000
 10
-76.693136
 20
-27.449941
 42
0.000000
 10
-76.014215
 20
-27.449941
 42
0.000000
 10
-75.841010
 20
-27.349941
 42
0.000000
 10
-52.014215
 20
-25.249941
 42
0.000000
 10
-52.014215
 20
-34.249941
 42
0.000000
 10
-75.841010
 20
-32.149941
 42
0.000000
 10
-76.014215
 20
-32.049941
 42
0.000000
 10
-76.176811
 20
-32.549941
 42
0.000000
 10
-76.465486
 20
-32.049941
 42
0.000000
 10
-77.598136
 20
-32.049941
 42
0.000000
 10
-77.986811
 20
-32.549941
 42
0.000000
 10
-78.275486
 20
-32.049941
 42
0.000000
 10
-79.408136
 20
-32.049941
 42
0.000000
 10
-79.796811
 20
-32.549941
 42
0.000000
 10
-80.085486
 20
-32.049941
 42
0.000000
 10
-81.218136
 20
-32.049941
 42
0.000000
 10
-81.606811
 20
-32.549941
 42
0.000000
 10
-81.895486
 20
-32.049941
 42
0.000000
 10
-83.028136
 20
-32.049941
 42
0.000000
 10
-83.416811
 20
-32.549941
 42
0.000000
 10
-83.705486
 20
-32.049941
 42
0.000000
 10
-84.838136
 20
-32.049941
 42
0.000000
 10
-85.226811
 20
-32.549941
 42
0.000000
 10
-85.515486
 20
-32.049941
 42
0.000000
 10
-86.648136
 20
-32.049941
 42
0.000000
 10
-87.036811
 20
-32.549941
 42
0.000000
 10
-87.325486
 20
-32.049941
 42
0.000000
 10
-88.458136
 20
-32.049941
 42
0.000000
 10
-88.846811
 20
-32.549941
 42
0.000000
 10
-89.135486
 20
-32.049941
 42
0.000000
 10
-90.268136
 20
-32.049941
 42
0.000000
 10
-90.656811
 20
-32.549941
 42
0.000000
 10
-90.945486
 20
-32.049941
 42
0.000000
 10
-92.078136
 20
-32.049941
 42
0.000000
 10
-92.466811
 20
-32.549941
 42
0.000000
 10
-92.755486
 20
-32.049941
 42
0.000000
 10
-93.888136
 20
-32.049941
 42
0.000000
 10
-94.276811
 20
-32.549941
 42
0.000000
 10
-94.565486
 20
-32.049941
 42
0.000000
 10
-95.698136
 20
-32.049941
 42
0.000000
 10
-96.086811
 20
-32.549941
 42
0.000000
 10
-96.375486
 20
-32.049941
 42
0.000000
 10
-97.508136
 20
-32.049941
 42
0.000000
 10
-97.896811
 20
-32.549941
 42
0.000000
 10
-98.185486
 20
-32.049941
 42
0.000000
 10
-99.318136
 20
-32.049941
 42
0.000000
 10
-99.706811
 20
-32.549941
 42
0.000000
 10
-99.995486
 20
-32.049941
 42
0.000000
 10
-101.128136
 20
-32.049941
 42
0.000000
 10
-101.516811
 20
-32.549941
 42
0.000000
 10
-101.805486
 20
-32.049941
 42
0.000000
 10
-102.938136
 20
-32.049941
 42
0.000000
 10
-103.326811
 20
-32.549941
 42
0.000000
 10
-103.615486
 20
-32.049941
 42
0.000000
 10
-104.748136
 20
-32.049941
 42
0.000000
 10
-105.136811
 20
-32.549941
 42
0.000000
 10
-105.425486
 20
-32.049941
 42
0.000000
 10
-106.558136
 20
-32.049941
 42
0.000000
 10
-106.946811
 20
-32.549941
 42
0.000000
 10
-107.235486
 20
-32.049941
 42
0.000000
 10
-108.368136
 20
-32.049941
 42
0.000000
 10
-108.756811
 20
-32.549941
 42
0.000000
 10
-109.045486
 20
-32.049941
 42
0.000000
 10
-110.178136
 20
-32.049941
 42
0.000000
 10
-110.566811
 20
-32.549941
 42
0.000000
 10
-110.855486
 20
-32.049941
 42
0.000000
 10
-111.988136
 20
-32.049941
 42
0.000000
 10
-112.376811
 20
-32.549941
 42
0.000000
 10
-112.665486
 20
-32.049941
 42
0.000000
 10
-113.798136
 20
-32.049941
 42
0.000000
 10
-114.186811
 20
-32.549941
 42
0.000000
 10
-114.475486
 20
-32.049941
 42
0.000000
 10
-115.608136
 20
-32.049941
 42
0.000000
 10
-115.996811
 20
-32.549941
 42
0.000000
 10
-116.285486
 20
-32.049941
 42
0.000000
 10
-117.418136
 20
-32.049941
 42
0.000000
 10
-117.806811
 20
-32.549941
 42
0.000000
 10
-118.095486
 20
-32.049941
 42
0.000000
 10
-119.228136
 20
-32.049941
 42
0.000000
 10
-119.616811
 20
-32.549941
 42
0.000000
 10
-119.905486
 20
-32.049941
 42
0.000000
 10
-121.038136
 20
-32.049941
 42
0.000000
 10
-121.426811
 20
-32.549941
 42
0.000000
 10
-121.715486
 20
-32.049941
 42
0.000000
 10
-122.848136
 20
-32.049941
 42
0.000000
 10
-123.236811
 20
-32.549941
 42
0.000000
 10
-123.525486
 20
-32.049941
 42
0.000000
 10
-124.658136
 20
-32.049941
 42
0.000000
 10
-125.046811
 20
-32.549941
 42
0.000000
 10
-125.335486
 20
-32.049941
 42
0.000000
 10
-126.468136
 20
-32.049941
 42
0.000000
 10
-126.856811
 20
-32.549941
 42
0.000000
 10
-127.145486
 20
-32.049941
 42
0.000000
 10
-128.278136
 20
-32.049941
 42
0.000000
 10
-128.666811
 20
-32.549941
 42
0.000000
 10
-128.955486
 20
-32.049941
 42
0.000000
 10
-130.088136
 20
-32.049941
 42
0.000000
 10
-130.476811
 20
-32.549941
 42
0.000000
 10
-130.861026
 20
-31.884462
 42
0.000000
 10
-131.789885
 20
-31.499716
 42
0.000000
 10
-132.178560
 20
-31.999716
 42
0.000000
 10
-132.680135
 20
-31.130962
 42
0.000000
 10
-133.463499
 20
-30.806482
 42
0.000000
 10
-133.852174
 20
-31.306482
 42
0.000000
 10
-134.353749
 20
-30.437729
 42
0.000000
 10
-136.014215
 20
-29.749941
 42
0.000000
  0
LWPOLYLINE
  5
4DB
100
AcDbEntity
  8
Detail
  6
CONTINUOUS
 62
     9
100
AcDbPolyline
 90
    83
 10
-17.514215
 20
-59.749941
 42
0.000000
 10
-17.014215
 20
-59.749941
 42
0.000000
 10
-16.014215
 20
-54.749941
 42
0.000000
 10
-16.014215
 20
-4.749941
 42
0.000000
 10
-17.014215
 20
0.250059
 42
0.000000
 10
-17.514215
 20
0.250059
 42
0.000000
 10
-17.514215
 20
-16.749941
 42
0.000000
 10
-18.764215
 20
-20.499941
 42
0.000000
 10
-22.514215
 20
-21.749941
 42
0.000000
 10
-46.014215
 20
-22.749941
 42
0.000000
 10
-52.014215
 20
-25.249941
 42
0.000000
 10
-94.476412
 20
-25.789941
 42
0.000000
 10
-95.842355
 20
-26.036951
 42
0.000000
 10
-95.918108
 20
-25.789941
 42
0.000000
 10
-98.700412
 20
-25.789941
 42
0.000000
 10
-100.066355
 20
-26.036951
 42
0.000000
 10
-100.142108
 20
-25.789941
 42
0.000000
 10
-102.924412
 20
-25.789941
 42
0.000000
 10
-104.290355
 20
-26.036951
 42
0.000000
 10
-104.366024
 20
-25.794741
 42
0.000000
 10
-107.148412
 20
-25.789941
 42
0.000000
 10
-108.514355
 20
-26.036951
 42
0.000000
 10
-108.590108
 20
-25.789941
 42
0.000000
 10
-111.372412
 20
-25.789941
 42
0.000000
 10
-112.738355
 20
-26.036951
 42
0.000000
 10
-112.814108
 20
-25.789941
 42
0.000000
 10
-115.596412
 20
-25.789941
 42
0.000000
 10
-116.962355
 20
-26.036951
 42
0.000000
 10
-117.038108
 20
-25.789941
 42
0.000000
 10
-119.820412
 20
-25.789941
 42
0.000000
 10
-121.186355
 20
-26.036951
 42
0.000000
 10
-121.262108
 20
-25.789941
 42
0.000000
 10
-124.044412
 20
-25.789941
 42
0.000000
 10
-125.410355
 20
-26.036951
 42
0.000000
 10
-125.486108
 20
-25.789941
 42
0.000000
 10
-128.268412
 20
-25.789941
 42
0.000000
 10
-129.472568
 20
-26.072374
 42
0.000000
 10
-129.931551
 20
-25.909942
 42
0.000000
 10
-130.908412
 20
-26.344197
 42
0.000000
 10
-131.148412
 20
-26.869941
 42
0.000000
 10
-131.916412
 20
-26.869941
 42
0.000000
 10
-133.434305
 20
-27.410909
 42
0.000000
 10
-134.267922
 20
-28.789941
 42
0.000000
 10
-136.014215
 20
-29.749941
 42
0.000000
 10
-134.267922
 20
-30.709941
 42
0.000000
 10
-133.434305
 20
-32.088973
 42
0.000000
 10
-132.171611
 20
-32.616335
 42
0.000000
 10
-131.148412
 20
-32.629941
 42
0.000000
 10
-130.908412
 20
-33.155685
 42
0.000000
 10
-130.156256
 20
-33.589941
 42
0.000000
 10
-129.706843
 20
-33.589941
 42
0.000000
 10
-129.472568
 20
-33.427509
 42
0.000000
 10
-128.268412
 20
-33.709941
 42
0.000000
 10
-125.486108
 20
-33.709941
 42
0.000000
 10
-125.410355
 20
-33.462932
 42
0.000000
 10
-124.044412
 20
-33.709941
 42
0.000000
 10
-121.262108
 20
-33.709941
 42
0.000000
 10
-121.186355
 20
-33.462932
 42
0.000000
 10
-119.820412
 20
-33.709941
 42
0.000000
 10
-117.038108
 20
-33.709941
 42
0.000000
 10
-116.962355
 20
-33.462932
 42
0.000000
 10
-115.596412
 20
-33.709941
 42
0.000000
 10
-112.814108
 20
-33.709941
 42
0.000000
 10
-112.738355
 20
-33.462932
 42
0.000000
 10
-111.372412
 20
-33.709941
 42
0.000000
 10
-108.590108
 20
-33.709941
 42
0.000000
 10
-108.514355
 20
-33.462932
 42
0.000000
 10
-107.148412
 20
-33.709941
 42
0.000000
 10
-104.366024
 20
-33.705141
 42
0.000000
 10
-104.290355
 20
-33.462932
 42
0.000000
 10
-102.924412
 20
-33.709941
 42
0.000000
 10
-100.142108
 20
-33.709941
 42
0.000000
 10
-100.066355
 20
-33.462932
 42
0.000000
 10
-98.700412
 20
-33.709941
 42
0.000000
 10
-95.918108
 20
-33.709941
 42
0.000000
 10
-95.842355
 20
-33.462932
 42
0.000000
 10
-94.476412
 20
-33.709941
 42
0.000000
 10
-52.014215
 20
-34.249941
 42
0.000000
 10
-46.014215
 20
-36.749941
 42
0.000000
 10
-22.514215
 20
-37.749941
 42
0.000000
 10
-18.764215
 20
-38.999941
 42
0.000000
 10
-17.514215
 20
-42.749941
 42
0.000000
 10
-17.514215
 20
-59.749941
 42
0.000000
  0
ENDBLK
  5
52F
100
AcDbEntity
  8
0
100
AcDbBlockEnd
  0
BLOCK
  5
530
100
AcDbEntity
  8
Detail
100
AcDbBlockBegin
  2
B-48
 70
    66
 10
0.000000
 20
0.000000
 30
0.000000
  0
LWPOLYLINE
  5
531
100
AcDbEntity
  8
Detail
  6
CONTINUOUS
 62
     3
100
AcDbPolyline
 90
     5
 10
2.499982
 20
0.250059
 42
0.000000
 10
-17.514215
 20
0.250059
 42
0.000000
 10
-17.514215
 20
-59.749941
 42
0.000000
 10
2.499982
 20
-59.749941
 42
0.000000
 10
2.499982
 20
0.250059
 42
0.000000
  0
ENDBLK
  5
537
100
AcDbEntity
  8
0
100
AcDbBlockEnd
  0
BLOCK
  5
538
100
AcDbEntity
  8
Detail
100
AcDbBlockBegin
  2
B-49
 70
    66
 10
0.000000
 20
0.000000
 30
0.000000
  0
LWPOLYLINE
  5
539
100
AcDbEntity
  8
Detail
  6
HIDDEN
 62
     9
100
AcDbPolyline
 90
     3
 10
-212.500018
 20
139.250059
 42
0.000000
 10
11.499982
 20
139.250059
 42
0.000000
 10
11.499982
 20
-196.249941
 42
0.000000
  0
ENDBLK
  5
53D
100
AcDbEntity
  8
0
100
AcDbBlockEnd
  0
BLOCK
  5
53E
100
AcDbEntity
  8
Detail
100
AcDbBlockBegin
  2
B-50
 70
    66
 10
0.000000
 20
0.000000
 30
0.000000
  0
LWPOLYLINE
  5
53F
100
AcDbEntity
  8
Detail
  6
CONTINUOUS
 62
     6
100
AcDbPolyline
 90
     3
 10
2.499982
 20
-196.249941
 42
0.000000
 10
2.499982
 20
130.250059
 42
0.000000
 10
-212.500018
 20
130.250059
 42
0.000000
  0
LWPOLYLINE
  5
543
100
AcDbEntity
  8
Detail
  6
CONTINUOUS
 62
     6
100
AcDbPolyline
 90
     3
 10
-212.500018
 20
140.250059
 42
0.000000
 10
12.499982
 20
140.250059
 42
0.000000
 10
12.499982
 20
-196.249941
 42
0.000000
  0
ENDBLK
  5
547
100
AcDbEntity
  8
0
100
AcDbBlockEnd
  0
BLOCK
  5
548
100
AcDbEntity
  8
Detail
100
AcDbBlockBegin
  2
B-51
 70
    66
 10
0.000000
 20
0.000000
 30
0.000000
  0
LWPOLYLINE
  5
549
100
AcDbEntity
  8
Detail
  6
CONTINUOUS
 62
     6
100
AcDbPolyline
 90
   236
 10
-212.500018
 20
150.250059
 42
0.000000
 10
-211.500018
 20
150.250059
 42
0.000000
 10
-210.500018
 20
149.750059
 42
0.000000
 10
-209.500018
 20
150.250059
 42
0.000000
 10
-208.500018
 20
150.250059
 42
0.000000
 10
-207.500018
 20
150.750059
 42
0.000000
 10
-206.500018
 20
150.250059
 42
0.000000
 10
-205.500018
 20
150.250059
 42
0.000000
 10
-204.500018
 20
149.750059
 42
0.000000
 10
-203.500018
 20
150.250059
 42
0.000000
 10
-202.500018
 20
150.250059
 42
0.000000
 10
-201.500018
 20
150.750059
 42
0.000000
 10
-200.481656
 20
150.250059
 42
0.000000
 10
-199.500018
 20
150.250059
 42
0.000000
 10
-198.500018
 20
149.750059
 42
0.000000
 10
-197.500018
 20
150.250059
 42
0.000000
 10
-196.500018
 20
150.250059
 42
0.000000
 10
-195.483640
 20
150.741870
 42
0.000000
 10
-194.500018
 20
150.250059
 42
0.000000
 10
-193.500018
 20
150.250059
 42
0.000000
 10
-192.500018
 20
149.750059
 42
0.000000
 10
-191.500018
 20
150.250059
 42
0.000000
 10
-190.500018
 20
150.250059
 42
0.000000
 10
-189.500018
 20
150.750059
 42
0.000000
 10
-188.500018
 20
150.250059
 42
0.000000
 10
-187.500018
 20
150.250059
 42
0.000000
 10
-186.500018
 20
149.750059
 42
0.000000
 10
-185.500018
 20
150.250059
 42
0.000000
 10
-184.500018
 20
150.250059
 42
0.000000
 10
-183.500018
 20
150.750059
 42
0.000000
 10
-182.500018
 20
150.250059
 42
0.000000
 10
-181.500018
 20
150.250059
 42
0.000000
 10
-180.500018
 20
149.750059
 42
0.000000
 10
-179.500018
 20
150.250059
 42
0.000000
 10
-178.500018
 20
150.250059
 42
0.000000
 10
-177.500018
 20
150.750059
 42
0.000000
 10
-176.500018
 20
150.250059
 42
0.000000
 10
-175.500018
 20
150.250059
 42
0.000000
 10
-174.500018
 20
149.750059
 42
0.000000
 10
-173.500018
 20
150.250059
 42
0.000000
 10
-172.500018
 20
150.250059
 42
0.000000
 10
-171.500018
 20
150.750059
 42
0.000000
 10
-170.500018
 20
150.250059
 42
0.000000
 10
-169.500018
 20
150.250059
 42
0.000000
 10
-168.500018
 20
149.750059
 42
0.000000
 10
-167.500018
 20
150.250059
 42
0.000000
 10
-166.500018
 20
150.250059
 42
0.000000
 10
-165.500018
 20
150.750059
 42
0.000000
 10
-164.500018
 20
150.250059
 42
0.000000
 10
-163.500018
 20
150.250059
 42
0.000000
 10
-162.500018
 20
149.750059
 42
0.000000
 10
-161.500018
 20
150.250059
 42
0.000000
 10
-160.500018
 20
150.250059
 42
0.000000
 10
-159.500018
 20
150.750059
 42
0.000000
 10
-158.500018
 20
150.250059
 42
0.000000
 10
-157.500018
 20
150.250059
 42
0.000000
 10
-156.500018
 20
149.750059
 42
0.000000
 10
-155.500018
 20
150.250059
 42
0.000000
 10
-154.500018
 20
150.250059
 42
0.000000
 10
-153.500018
 20
150.750059
 42
0.000000
 10
-152.500018
 20
150.250059
 42
0.000000
 10
-151.500018
 20
150.250059
 42
0.000000
 10
-150.500018
 20
149.750059
 42
0.000000
 10
-149.500018
 20
150.250059
 42
0.000000
 10
-148.500018
 20
150.250059
 42
0.000000
 10
-147.500018
 20
150.750059
 42
0.000000
 10
-146.500018
 20
150.250059
 42
0.000000
 10
-145.500018
 20
150.250059
 42
0.000000
 10
-144.500018
 20
149.750059
 42
0.000000
 10
-143.500018
 20
150.250059
 42
0.000000
 10
-142.500018
 20
150.250059
 42
0.000000
 10
-141.500018
 20
150.750059
 42
0.000000
 10
-140.500018
 20
150.250059
 42
0.000000
 10
-139.500018
 20
150.250059
 42
0.000000
 10
-138.500018
 20
149.750059
 42
0.000000
 10
-137.500018
 20
150.250059
 42
0.000000
 10
-136.500018
 20
150.250059
 42
0.000000
 10
-135.500018
 20
150.750059
 42
0.000000
 10
-134.500018
 20
150.250059
 42
0.000000
 10
-133.500018
 20
150.250059
 42
0.000000
 10
-132.500018
 20
149.750059
 42
0.000000
 10
-131.500018
 20
150.250059
 42
0.000000
 10
-130.500018
 20
150.250059
 42
0.000000
 10
-129.500018
 20
150.750059
 42
0.000000
 10
-128.500018
 20
150.250059
 42
0.000000
 10
-127.495608
 20
150.247854
 42
0.000000
 10
-126.500018
 20
149.750059
 42
0.000000
 10
-125.500018
 20
150.250059
 42
0.000000
 10
-124.500018
 20
150.250059
 42
0.000000
 10
-123.500018
 20
150.750059
 42
0.000000
 10
-122.500018
 20
150.250059
 42
0.000000
 10
-121.500018
 20
150.250059
 42
0.000000
 10
-120.500018
 20
149.750059
 42
0.000000
 10
-119.500018
 20
150.250059
 42
0.000000
 10
-118.500018
 20
150.250059
 42
0.000000
 10
-117.500018
 20
150.750059
 42
0.000000
 10
-116.500018
 20
150.250059
 42
0.000000
 10
-115.500018
 20
150.250059
 42
0.000000
 10
-114.500018
 20
149.750059
 42
0.000000
 10
-113.500018
 20
150.250059
 42
0.000000
 10
-112.500018
 20
150.250059
 42
0.000000
 10
-111.500018
 20
150.750059
 42
0.000000
 10
-110.500018
 20
150.250059
 42
0.000000
 10
-109.500018
 20
150.250059
 42
0.000000
 10
-108.500018
 20
149.750059
 42
0.000000
 10
-107.500018
 20
150.250059
 42
0.000000
 10
-106.500018
 20
150.250059
 42
0.000000
 10
-105.500018
 20
150.750059
 42
0.000000
 10
-104.492351
 20
150.250059
 42
0.000000
 10
-103.500018
 20
150.250059
 42
0.000000
 10
-102.500018
 20
149.750059
 42
0.000000
 10
-101.500018
 20
150.250059
 42
0.000000
 10
-100.500018
 20
150.250059
 42
0.000000
 10
-99.500018
 20
150.750059
 42
0.000000
 10
-98.500018
 20
150.250059
 42
0.000000
 10
-97.500018
 20
150.250059
 42
0.000000
 10
-96.500018
 20
149.750059
 42
0.000000
 10
-95.500018
 20
150.250059
 42
0.000000
 10
-94.500018
 20
150.250059
 42
0.000000
 10
-93.500018
 20
150.750059
 42
0.000000
 10
-92.500018
 20
150.250059
 42
0.000000
 10
-91.500018
 20
150.250059
 42
0.000000
 10
-90.500018
 20
149.750059
 42
0.000000
 10
-89.500018
 20
150.250059
 42
0.000000
 10
-88.500018
 20
150.250059
 42
0.000000
 10
-87.500018
 20
150.750059
 42
0.000000
 10
-86.500018
 20
150.250059
 42
0.000000
 10
-85.500018
 20
150.250059
 42
0.000000
 10
-84.500018
 20
149.750059
 42
0.000000
 10
-83.500018
 20
150.250059
 42
0.000000
 10
-82.500018
 20
150.250059
 42
0.000000
 10
-81.500018
 20
150.750059
 42
0.000000
 10
-80.500018
 20
150.250059
 42
0.000000
 10
-79.500018
 20
150.250059
 42
0.000000
 10
-78.500018
 20
149.750059
 42
0.000000
 10
-77.500018
 20
150.250059
 42
0.000000
 10
-76.500018
 20
150.250059
 42
0.000000
 10
-75.500018
 20
150.750059
 42
0.000000
 10
-74.500018
 20
150.250059
 42
0.000000
 10
-73.500018
 20
150.250059
 42
0.000000
 10
-72.500018
 20
149.750059
 42
0.000000
 10
-71.500018
 20
150.250059
 42
0.000000
 10
-70.500018
 20
150.250059
 42
0.000000
 10
-69.500018
 20
150.750059
 42
0.000000
 10
-68.500018
 20
150.250059
 42
0.000000
 10
-67.500018
 20
150.250059
 42
0.000000
 10
-66.500018
 20
149.750059
 42
0.000000
 10
-65.500018
 20
150.250059
 42
0.000000
 10
-64.500018
 20
150.250059
 42
0.000000
 10
-63.500018
 20
150.750059
 42
0.000000
 10
-62.500018
 20
150.250059
 42
0.000000
 10
-61.500018
 20
150.250059
 42
0.000000
 10
-60.500018
 20
149.750059
 42
0.000000
 10
-59.500018
 20
150.250059
 42
0.000000
 10
-58.500018
 20
150.250059
 42
0.000000
 10
-57.500018
 20
150.750059
 42
0.000000
 10
-56.500018
 20
150.250059
 42
0.000000
 10
-55.500018
 20
150.250059
 42
0.000000
 10
-54.500018
 20
149.750059
 42
0.000000
 10
-53.500018
 20
150.250059
 42
0.000000
 10
-52.500018
 20
150.250059
 42
0.000000
 10
-51.500018
 20
150.750059
 42
0.000000
 10
-50.500018
 20
150.250059
 42
0.000000
 10
-49.500018
 20
150.250059
 42
0.000000
 10
-48.500018
 20
149.750059
 42
0.000000
 10
-47.500018
 20
150.250059
 42
0.000000
 10
-46.500018
 20
150.250059
 42
0.000000
 10
-45.500018
 20
150.750059
 42
0.000000
 10
-44.500018
 20
150.250059
 42
0.000000
 10
-43.500018
 20
150.250059
 42
0.000000
 10
-42.500018
 20
149.750059
 42
0.000000
 10
-41.500018
 20
150.250059
 42
0.000000
 10
-40.500018
 20
150.250059
 42
0.000000
 10
-39.500018
 20
150.750059
 42
0.000000
 10
-38.500018
 20
150.250059
 42
0.000000
 10
-37.500018
 20
150.250059
 42
0.000000
 10
-36.500018
 20
149.750059
 42
0.000000
 10
-35.500018
 20
150.250059
 42
0.000000
 10
-34.500018
 20
150.250059
 42
0.000000
 10
-33.500018
 20
150.750059
 42
0.000000
 10
-32.500018
 20
150.250059
 42
0.000000
 10
-31.500018
 20
150.250059
 42
0.000000
 10
-30.500018
 20
149.750059
 42
0.000000
 10
-29.500018
 20
150.250059
 42
0.000000
 10
-28.500018
 20
150.250059
 42
0.000000
 10
-27.500018
 20
150.750059
 42
0.000000
 10
-26.500018
 20
150.250059
 42
0.000000
 10
-25.500018
 20
150.250059
 42
0.000000
 10
-24.500018
 20
149.750059
 42
0.000000
 10
-23.500018
 20
150.250059
 42
0.000000
 10
-22.500018
 20
150.250059
 42
0.000000
 10
-21.500018
 20
150.750059
 42
0.000000
 10
-20.500018
 20
150.250059
 42
0.000000
 10
-19.500018
 20
150.250059
 42
0.000000
 10
-18.500018
 20
149.750059
 42
0.000000
 10
-17.500018
 20
150.250059
 42
0.000000
 10
-16.500018
 20
150.250059
 42
0.000000
 10
-15.500018
 20
150.750059
 42
0.000000
 10
-14.500018
 20
150.250059
 42
0.000000
 10
-13.500018
 20
150.250059
 42
0.000000
 10
-12.500018
 20
149.750059
 42
0.000000
 10
-11.500018
 20
150.250059
 42
0.000000
 10
-10.500018
 20
150.250059
 42
0.000000
 10
-9.500018
 20
150.750059
 42
0.000000
 10
-8.492351
 20
150.250059
 42
0.000000
 10
-7.500018
 20
150.250059
 42
0.000000
 10
-6.500018
 20
149.750059
 42
0.000000
 10
-5.500018
 20
150.250059
 42
0.000000
 10
-4.500018
 20
150.250059
 42
0.000000
 10
-3.500018
 20
150.750059
 42
0.000000
 10
-2.500018
 20
150.250059
 42
0.000000
 10
-1.500018
 20
150.250059
 42
0.000000
 10
-0.500018
 20
149.750059
 42
0.000000
 10
0.499982
 20
150.250059
 42
0.000000
 10
1.499982
 20
150.250059
 42
0.000000
 10
2.499982
 20
150.750059
 42
0.000000
 10
3.499982
 20
150.250059
 42
0.000000
 10
4.499982
 20
150.250059
 42
0.000000
 10
5.499982
 20
149.750059
 42
0.000000
 10
6.499982
 20
150.250059
 42
0.000000
 10
7.499982
 20
150.250059
 42
0.000000
 10
8.499982
 20
150.750059
 42
0.000000
 10
9.499982
 20
150.250059
 42
0.000000
 10
10.499982
 20
150.250059
 42
0.000000
 10
11.499982
 20
149.750059
 42
0.000000
 10
12.499982
 20
150.250059
 42
0.000000
 10
13.499982
 20
150.250059
 42
0.000000
 10
14.499982
 20
150.750059
 42
0.000000
 10
15.499982
 20
150.250059
 42
0.000000
 10
16.499982
 20
150.250059
 42
0.000000
 10
17.499982
 20
149.750059
 42
0.000000
 10
18.499982
 20
150.250059
 42
0.000000
 10
19.499982
 20
150.250059
 42
0.000000
 10
20.499982
 20
150.750059
 42
0.000000
 10
21.499982
 20
150.250059
 42
0.000000
 10
22.499982
 20
150.250059
 42
0.000000
  0
LWPOLYLINE
  5
636
100
AcDbEntity
  8
Detail
  6
CONTINUOUS
 62
     6
100
AcDbPolyline
 90
   347
 10
22.499982
 20
-196.249941
 42
0.000000
 10
22.499982
 20
-195.749941
 42
0.000000
 10
22.999982
 20
-194.749941
 42
0.000000
 10
22.499982
 20
-193.749941
 42
0.000000
 10
22.499982
 20
-192.749941
 42
0.000000
 10
21.999982
 20
-191.749941
 42
0.000000
 10
22.499982
 20
-190.749941
 42
0.000000
 10
22.499982
 20
-189.749941
 42
0.000000
 10
22.999982
 20
-188.749941
 42
0.000000
 10
22.499982
 20
-187.749941
 42
0.000000
 10
22.499982
 20
-186.749941
 42
0.000000
 10
21.999982
 20
-185.749941
 42
0.000000
 10
22.499982
 20
-184.749941
 42
0.000000
 10
22.499982
 20
-183.749941
 42
0.000000
 10
22.999982
 20
-182.749941
 42
0.000000
 10
22.499982
 20
-181.742274
 42
0.000000
 10
22.499982
 20
-180.749941
 42
0.000000
 10
21.999982
 20
-179.749941
 42
0.000000
 10
22.499982
 20
-178.735934
 42
0.000000
 10
22.499982
 20
-177.749941
 42
0.000000
 10
22.999982
 20
-176.749941
 42
0.000000
 10
22.499982
 20
-175.749941
 42
0.000000
 10
22.499982
 20
-174.749941
 42
0.000000
 10
21.999982
 20
-173.749941
 42
0.000000
 10
22.499982
 20
-172.749941
 42
0.000000
 10
22.499982
 20
-171.749941
 42
0.000000
 10
22.999982
 20
-170.749941
 42
0.000000
 10
22.499982
 20
-169.749941
 42
0.000000
 10
22.499982
 20
-168.749941
 42
0.000000
 10
21.999982
 20
-167.749941
 42
0.000000
 10
22.499982
 20
-166.749941
 42
0.000000
 10
22.499982
 20
-165.749941
 42
0.000000
 10
22.999982
 20
-164.749841
 42
0.000000
 10
22.499982
 20
-163.749841
 42
0.000000
 10
22.499982
 20
-162.749941
 42
0.000000
 10
21.999982
 20
-161.749941
 42
0.000000
 10
22.499982
 20
-160.749941
 42
0.000000
 10
22.499982
 20
-159.749941
 42
0.000000
 10
22.999982
 20
-158.749941
 42
0.000000
 10
22.499982
 20
-157.749941
 42
0.000000
 10
22.499982
 20
-156.749941
 42
0.000000
 10
21.999982
 20
-155.749941
 42
0.000000
 10
22.499982
 20
-154.749941
 42
0.000000
 10
22.499982
 20
-153.749941
 42
0.000000
 10
22.999982
 20
-152.749941
 42
0.000000
 10
22.499982
 20
-151.742274
 42
0.000000
 10
22.499982
 20
-150.749941
 42
0.000000
 10
21.999982
 20
-149.749941
 42
0.000000
 10
22.499982
 20
-148.749941
 42
0.000000
 10
22.499982
 20
-147.749941
 42
0.000000
 10
22.999982
 20
-146.749941
 42
0.000000
 10
22.499982
 20
-145.749941
 42
0.000000
 10
22.499982
 20
-144.749941
 42
0.000000
 10
21.999982
 20
-143.749941
 42
0.000000
 10
22.499982
 20
-142.749941
 42
0.000000
 10
22.499982
 20
-141.749941
 42
0.000000
 10
22.999982
 20
-140.749941
 42
0.000000
 10
22.499982
 20
-139.749941
 42
0.000000
 10
22.499982
 20
-138.749941
 42
0.000000
 10
21.999982
 20
-137.749941
 42
0.000000
 10
22.499982
 20
-136.749941
 42
0.000000
 10
22.499982
 20
-135.749941
 42
0.000000
 10
22.999982
 20
-134.749941
 42
0.000000
 10
22.499982
 20
-133.749941
 42
0.000000
 10
22.499982
 20
-132.749941
 42
0.000000
 10
21.999982
 20
-131.749941
 42
0.000000
 10
22.499982
 20
-130.749941
 42
0.000000
 10
22.499982
 20
-129.749941
 42
0.000000
 10
22.999982
 20
-128.749941
 42
0.000000
 10
22.499982
 20
-127.749941
 42
0.000000
 10
22.499982
 20
-126.749941
 42
0.000000
 10
21.999982
 20
-125.749941
 42
0.000000
 10
22.499982
 20
-124.749941
 42
0.000000
 10
22.499982
 20
-123.749941
 42
0.000000
 10
22.999982
 20
-122.749941
 42
0.000000
 10
22.499982
 20
-121.749941
 42
0.000000
 10
22.499982
 20
-120.749941
 42
0.000000
 10
21.999982
 20
-119.749941
 42
0.000000
 10
22.499982
 20
-118.749941
 42
0.000000
 10
22.499982
 20
-117.749941
 42
0.000000
 10
22.999982
 20
-116.749941
 42
0.000000
 10
22.499982
 20
-115.742274
 42
0.000000
 10
22.499982
 20
-114.749941
 42
0.000000
 10
21.999982
 20
-113.749941
 42
0.000000
 10
22.499982
 20
-112.749941
 42
0.000000
 10
22.499982
 20
-111.749941
 42
0.000000
 10
22.999982
 20
-110.749941
 42
0.000000
 10
22.499982
 20
-109.749941
 42
0.000000
 10
22.499982
 20
-108.749941
 42
0.000000
 10
21.999982
 20
-107.749941
 42
0.000000
 10
22.499982
 20
-106.749941
 42
0.000000
 10
22.499982
 20
-105.749941
 42
0.000000
 10
22.999982
 20
-104.749941
 42
0.000000
 10
22.499982
 20
-103.749941
 42
0.000000
 10
22.499982
 20
-102.749941
 42
0.000000
 10
21.999982
 20
-101.749941
 42
0.000000
 10
22.499982
 20
-100.749941
 42
0.000000
 10
22.499982
 20
-99.749941
 42
0.000000
 10
22.999982
 20
-98.749941
 42
0.000000
 10
22.499982
 20
-97.749941
 42
0.000000
 10
22.499982
 20
-96.749941
 42
0.000000
 10
21.999982
 20
-95.749941
 42
0.000000
 10
22.499982
 20
-94.749941
 42
0.000000
 10
22.499982
 20
-93.749941
 42
0.000000
 10
22.999982
 20
-92.749941
 42
0.000000
 10
22.499982
 20
-91.749941
 42
0.000000
 10
22.499982
 20
-90.749941
 42
0.000000
 10
21.999982
 20
-89.749941
 42
0.000000
 10
22.499982
 20
-88.749941
 42
0.000000
 10
22.499982
 20
-87.749941
 42
0.000000
 10
22.999982
 20
-86.749941
 42
0.000000
 10
22.499982
 20
-85.749941
 42
0.000000
 10
22.499982
 20
-84.749941
 42
0.000000
 10
21.999982
 20
-83.749941
 42
0.000000
 10
22.499982
 20
-82.749941
 42
0.000000
 10
22.499982
 20
-81.749941
 42
0.000000
 10
22.999982
 20
-80.749941
 42
0.000000
 10
22.499982
 20
-79.749941
 42
0.000000
 10
22.499982
 20
-78.749941
 42
0.000000
 10
21.999982
 20
-77.749941
 42
0.000000
 10
22.499982
 20
-76.749941
 42
0.000000
 10
22.499982
 20
-75.749941
 42
0.000000
 10
22.999982
 20
-74.749941
 42
0.000000
 10
22.499982
 20
-73.749941
 42
0.000000
 10
22.499982
 20
-72.749941
 42
0.000000
 10
21.999982
 20
-71.749941
 42
0.000000
 10
22.499982
 20
-70.749941
 42
0.000000
 10
22.499982
 20
-69.749941
 42
0.000000
 10
22.999982
 20
-68.749941
 42
0.000000
 10
22.499982
 20
-67.749941
 42
0.000000
 10
22.499982
 20
-66.749941
 42
0.000000
 10
21.999982
 20
-65.749941
 42
0.000000
 10
22.499982
 20
-64.749941
 42
0.000000
 10
22.499982
 20
-63.749941
 42
0.000000
 10
22.999982
 20
-62.749941
 42
0.000000
 10
22.499982
 20
-61.749941
 42
0.000000
 10
22.499982
 20
-60.749941
 42
0.000000
 10
21.999982
 20
-59.749941
 42
0.000000
 10
22.499982
 20
-58.749941
 42
0.000000
 10
22.499982
 20
-57.749941
 42
0.000000
 10
22.999982
 20
-56.749941
 42
0.000000
 10
22.499982
 20
-55.749941
 42
0.000000
 10
22.499982
 20
-54.749941
 42
0.000000
 10
21.999982
 20
-53.749941
 42
0.000000
 10
22.499982
 20
-52.749941
 42
0.000000
 10
22.499982
 20
-51.749941
 42
0.000000
 10
22.999982
 20
-50.749941
 42
0.000000
 10
22.499982
 20
-49.749941
 42
0.000000
 10
22.499982
 20
-48.749941
 42
0.000000
 10
21.999982
 20
-47.749941
 42
0.000000
 10
22.499982
 20
-46.749941
 42
0.000000
 10
22.499982
 20
-45.749941
 42
0.000000
 10
22.999982
 20
-44.749941
 42
0.000000
 10
22.499982
 20
-43.749941
 42
0.000000
 10
22.499982
 20
-42.749941
 42
0.000000
 10
21.999982
 20
-41.749941
 42
0.000000
 10
22.499982
 20
-40.749941
 42
0.000000
 10
22.504380
 20
-39.741145
 42
0.000000
 10
22.999982
 20
-38.749941
 42
0.000000
 10
22.499982
 20
-37.749941
 42
0.000000
 10
22.499982
 20
-36.749941
 42
0.000000
 10
21.999982
 20
-35.749941
 42
0.000000
 10
22.499982
 20
-34.749941
 42
0.000000
 10
22.499982
 20
-33.749941
 42
0.000000
 10
22.999982
 20
-32.749941
 42
0.000000
 10
22.499982
 20
-31.749941
 42
0.000000
 10
22.499982
 20
-30.749941
 42
0.000000
 10
21.999982
 20
-29.749941
 42
0.000000
 10
22.499982
 20
-28.749941
 42
0.000000
 10
22.499982
 20
-27.749941
 42
0.000000
 10
22.999982
 20
-26.749941
 42
0.000000
 10
22.499982
 20
-25.749941
 42
0.000000
 10
22.499982
 20
-24.749941
 42
0.000000
 10
21.999982
 20
-23.749941
 42
0.000000
 10
22.499982
 20
-22.749941
 42
0.000000
 10
22.499982
 20
-21.749941
 42
0.000000
 10
22.999982
 20
-20.749941
 42
0.000000
 10
22.499982
 20
-19.749941
 42
0.000000
 10
22.499982
 20
-18.749941
 42
0.000000
 10
21.999982
 20
-17.749941
 42
0.000000
 10
22.499982
 20
-16.749941
 42
0.000000
 10
22.499982
 20
-15.749941
 42
0.000000
 10
22.999982
 20
-14.749941
 42
0.000000
 10
22.499982
 20
-13.749941
 42
0.000000
 10
22.499982
 20
-12.749941
 42
0.000000
 10
21.999982
 20
-11.749941
 42
0.000000
 10
22.499982
 20
-10.749941
 42
0.000000
 10
22.499982
 20
-9.749941
 42
0.000000
 10
22.999982
 20
-8.749941
 42
0.000000
 10
22.499982
 20
-7.742274
 42
0.000000
 10
22.499982
 20
-6.749941
 42
0.000000
 10
21.999982
 20
-5.749941
 42
0.000000
 10
22.499982
 20
-4.749941
 42
0.000000
 10
22.499982
 20
-3.749941
 42
0.000000
 10
22.999982
 20
-2.749941
 42
0.000000
 10
22.499982
 20
-1.749941
 42
0.000000
 10
22.499982
 20
-0.749941
 42
0.000000
 10
21.999982
 20
0.250059
 42
0.000000
 10
22.499982
 20
1.250059
 42
0.000000
 10
22.499982
 20
2.250059
 42
0.000000
 10
22.999982
 20
3.250059
 42
0.000000
 10
22.499982
 20
4.250059
 42
0.000000
 10
22.499982
 20
5.250059
 42
0.000000
 10
21.999982
 20
6.250059
 42
0.000000
 10
22.499982
 20
7.250059
 42
0.000000
 10
22.499982
 20
8.250059
 42
0.000000
 10
22.999982
 20
9.250059
 42
0.000000
 10
22.499982
 20
10.250059
 42
0.000000
 10
22.499982
 20
11.250059
 42
0.000000
 10
21.999982
 20
12.250059
 42
0.000000
 10
22.499982
 20
13.250059
 42
0.000000
 10
22.499982
 20
14.250059
 42
0.000000
 10
22.999982
 20
15.250059
 42
0.000000
 10
22.499982
 20
16.250059
 42
0.000000
 10
22.499982
 20
17.250059
 42
0.000000
 10
21.999982
 20
18.250059
 42
0.000000
 10
22.499982
 20
19.250059
 42
0.000000
 10
22.499982
 20
20.250059
 42
0.000000
 10
22.999982
 20
21.250059
 42
0.000000
 10
22.499982
 20
22.250059
 42
0.000000
 10
22.499982
 20
23.250059
 42
0.000000
 10
21.999982
 20
24.250059
 42
0.000000
 10
22.499982
 20
25.250059
 42
0.000000
 10
22.499982
 20
26.250059
 42
0.000000
 10
22.999982
 20
27.250059
 42
0.000000
 10
22.499982
 20
28.250059
 42
0.000000
 10
22.499982
 20
29.250059
 42
0.000000
 10
21.999982
 20
30.250059
 42
0.000000
 10
22.499982
 20
31.250059
 42
0.000000
 10
22.499982
 20
32.250059
 42
0.000000
 10
22.999982
 20
33.250059
 42
0.000000
 10
22.499982
 20
34.250059
 42
0.000000
 10
22.499982
 20
35.250059
 42
0.000000
 10
21.999982
 20
36.250059
 42
0.000000
 10
22.499982
 20
37.250059
 42
0.000000
 10
22.499982
 20
38.250059
 42
0.000000
 10
22.999982
 20
39.250059
 42
0.000000
 10
22.499982
 20
40.250059
 42
0.000000
 10
22.499982
 20
41.250059
 42
0.000000
 10
21.999982
 20
42.250059
 42
0.000000
 10
22.499982
 20
43.250059
 42
0.000000
 10
22.499982
 20
44.250059
 42
0.000000
 10
22.999982
 20
45.250059
 42
0.000000
 10
22.499982
 20
46.250059
 42
0.000000
 10
22.499982
 20
47.250059
 42
0.000000
 10
21.999982
 20
48.250059
 42
0.000000
 10
22.499982
 20
49.250059
 42
0.000000
 10
22.499982
 20
50.250059
 42
0.000000
 10
22.999982
 20
51.250059
 42
0.000000
 10
22.499982
 20
52.250059
 42
0.000000
 10
22.499982
 20
53.250059
 42
0.000000
 10
21.999982
 20
54.250059
 42
0.000000
 10
22.499982
 20
55.250059
 42
0.000000
 10
22.499982
 20
56.250059
 42
0.000000
 10
22.999982
 20
57.250059
 42
0.000000
 10
22.499982
 20
58.250059
 42
0.000000
 10
22.499982
 20
59.250059
 42
0.000000
 10
21.999982
 20
60.250059
 42
0.000000
 10
22.499982
 20
61.250059
 42
0.000000
 10
22.499982
 20
62.250059
 42
0.000000
 10
22.999982
 20
63.250059
 42
0.000000
 10
22.499982
 20
64.250059
 42
0.000000
 10
22.499982
 20
65.250059
 42
0.000000
 10
21.999982
 20
66.250059
 42
0.000000
 10
22.499982
 20
67.250059
 42
0.000000
 10
22.499982
 20
68.250059
 42
0.000000
 10
22.999982
 20
69.250059
 42
0.000000
 10
22.499982
 20
70.250059
 42
0.000000
 10
22.499982
 20
71.250059
 42
0.000000
 10
21.999982
 20
72.250059
 42
0.000000
 10
22.499982
 20
73.250059
 42
0.000000
 10
22.499982
 20
74.250059
 42
0.000000
 10
22.999982
 20
75.250059
 42
0.000000
 10
22.499982
 20
76.250059
 42
0.000000
 10
22.499982
 20
77.250059
 42
0.000000
 10
21.999982
 20
78.250059
 42
0.000000
 10
22.499982
 20
79.250059
 42
0.000000
 10
22.499982
 20
80.250059
 42
0.000000
 10
22.999982
 20
81.250059
 42
0.000000
 10
22.499982
 20
82.250059
 42
0.000000
 10
22.499982
 20
83.250059
 42
0.000000
 10
21.999982
 20
84.250059
 42
0.000000
 10
22.499982
 20
85.250059
 42
0.000000
 10
22.499982
 20
86.250059
 42
0.000000
 10
22.999982
 20
87.250059
 42
0.000000
 10
22.499982
 20
88.250059
 42
0.000000
 10
22.499982
 20
89.250059
 42
0.000000
 10
21.999982
 20
90.250059
 42
0.000000
 10
22.499982
 20
91.250059
 42
0.000000
 10
22.499982
 20
92.250059
 42
0.000000
 10
22.999982
 20
93.250059
 42
0.000000
 10
22.499982
 20
94.250059
 42
0.000000
 10
22.499982
 20
95.250059
 42
0.000000
 10
21.999982
 20
96.250059
 42
0.000000
 10
22.499982
 20
97.250059
 42
0.000000
 10
22.499982
 20
98.250059
 42
0.000000
 10
22.999982
 20
99.250059
 42
0.000000
 10
22.499982
 20
100.250059
 42
0.000000
 10
22.499982
 20
101.250059
 42
0.000000
 10
21.999982
 20
102.250059
 42
0.000000
 10
22.499982
 20
103.250059
 42
0.000000
 10
22.499982
 20
104.250059
 42
0.000000
 10
22.999982
 20
105.250059
 42
0.000000
 10
22.499982
 20
106.250059
 42
0.000000
 10
22.499982
 20
107.250059
 42
0.000000
 10
21.999982
 20
108.250059
 42
0.000000
 10
22.499982
 20
109.250059
 42
0.000000
 10
22.499982
 20
110.250059
 42
0.000000
 10
22.999982
 20
111.250059
 42
0.000000
 10
22.499982
 20
112.250059
 42
0.000000
 10
22.499982
 20
113.250059
 42
0.000000
 10
21.999982
 20
114.250059
 42
0.000000
 10
22.499982
 20
115.250059
 42
0.000000
 10
22.499982
 20
116.250059
 42
0.000000
 10
22.999982
 20
117.250059
 42
0.000000
 10
22.499982
 20
118.250059
 42
0.000000
 10
22.499982
 20
119.250059
 42
0.000000
 10
21.999982
 20
120.250059
 42
0.000000
 10
22.499982
 20
121.250059
 42
0.000000
 10
22.499982
 20
122.250059
 42
0.000000
 10
22.999982
 20
123.250059
 42
0.000000
 10
22.499982
 20
124.250059
 42
0.000000
 10
22.499982
 20
125.250059
 42
0.000000
 10
21.999982
 20
126.250059
 42
0.000000
 10
22.499982
 20
127.250059
 42
0.000000
 10
22.499982
 20
128.250059
 42
0.000000
 10
22.999982
 20
129.250059
 42
0.000000
 10
22.499982
 20
130.257726
 42
0.000000
 10
22.499982
 20
131.250059
 42
0.000000
 10
21.999982
 20
132.250059
 42
0.000000
 10
22.499982
 20
133.250059
 42
0.000000
 10
22.499982
 20
134.250059
 42
0.000000
 10
22.999982
 20
135.250059
 42
0.000000
 10
22.499982
 20
136.250059
 42
0.000000
 10
22.499982
 20
137.250059
 42
0.000000
 10
21.999982
 20
138.250059
 42
0.000000
 10
22.499982
 20
139.250059
 42
0.000000
 10
22.499982
 20
140.250059
 42
0.000000
 10
22.999982
 20
141.250059
 42
0.000000
 10
22.499982
 20
142.257726
 42
0.000000
 10
22.499982
 20
143.250059
 42
0.000000
 10
21.999982
 20
144.250059
 42
0.000000
 10
22.499982
 20
145.250059
 42
0.000000
 10
22.499982
 20
146.250059
 42
0.000000
 10
22.999982
 20
147.250059
 42
0.000000
 10
22.499982
 20
148.250059
 42
0.000000
 10
22.499982
 20
150.250059
 42
0.000000
  0
ENDBLK
  5
792
100
AcDbEntity
  8
0
100
AcDbBlockEnd
  0
BLOCK
  5
793
100
AcDbEntity
  8
SCHRAFF
100
AcDbBlockBegin
  2
B-52
 70
    66
 10
0.000000
 20
0.000000
 30
0.000000
  0
HATCH
  5
794
100
AcDbEntity
  8
SCHRAFF
 62
   250
440
     0
100
AcDbHatch
 10
0.000000
 20
0.000000
 30
0.000000
210
0.000000
220
0.000000
230
1.000000
  2
SOLID
 70
     1
 71
     1
 91
     1
 92
    18
 72
     1
 73
     0
 93
    12
 10
2.999982
 20
130.750059
 42
0.000000
 10
2.999982
 20
80.750059
 42
0.000000
 10
4.249982
 20
80.750059
 42
0.000000
 10
4.249982
 20
131.116176
 42
0.000000
 10
22.499982
 20
149.366176
 42
0.000000
 10
22.499982
 20
150.250059
 42
0.000000
 10
21.616099
 20
150.250059
 42
0.000000
 10
3.366099
 20
132.000059
 42
0.000000
 10
-47.000018
 20
132.000059
 42
0.000000
 10
-47.000018
 20
130.750059
 42
0.000000
 10
2.976118
 20
130.750059
 42
0.000000
 10
2.999982
 20
130.750059
 42
0.000000
 97
     0
 75
     0
 76
     1
 98
     0
  0
ENDBLK
  5
795
100
AcDbEntity
  8
0
100
AcDbBlockEnd
  0
BLOCK
  5
796
100
AcDbEntity
  8
Detail
100
AcDbBlockBegin
  2
B-53
 70
    66
 10
0.000000
 20
0.000000
 30
0.000000
  0
LWPOLYLINE
  5
797
100
AcDbEntity
  8
Detail
  6
CONTINUOUS
 62
     6
100
AcDbPolyline
 90
   236
 10
-212.500018
 20
150.250059
 42
0.000000
 10
-211.500018
 20
150.250059
 42
0.000000
 10
-210.500018
 20
149.750059
 42
0.000000
 10
-209.500018
 20
150.250059
 42
0.000000
 10
-208.500018
 20
150.250059
 42
0.000000
 10
-207.500018
 20
150.750059
 42
0.000000
 10
-206.500018
 20
150.250059
 42
0.000000
 10
-205.500018
 20
150.250059
 42
0.000000
 10
-204.500018
 20
149.750059
 42
0.000000
 10
-203.500018
 20
150.250059
 42
0.000000
 10
-202.500018
 20
150.250059
 42
0.000000
 10
-201.500018
 20
150.750059
 42
0.000000
 10
-200.481656
 20
150.250059
 42
0.000000
 10
-199.500018
 20
150.250059
 42
0.000000
 10
-198.500018
 20
149.750059
 42
0.000000
 10
-197.500018
 20
150.250059
 42
0.000000
 10
-196.500018
 20
150.250059
 42
0.000000
 10
-195.483640
 20
150.741870
 42
0.000000
 10
-194.500018
 20
150.250059
 42
0.000000
 10
-193.500018
 20
150.250059
 42
0.000000
 10
-192.500018
 20
149.750059
 42
0.000000
 10
-191.500018
 20
150.250059
 42
0.000000
 10
-190.500018
 20
150.250059
 42
0.000000
 10
-189.500018
 20
150.750059
 42
0.000000
 10
-188.500018
 20
150.250059
 42
0.000000
 10
-187.500018
 20
150.250059
 42
0.000000
 10
-186.500018
 20
149.750059
 42
0.000000
 10
-185.500018
 20
150.250059
 42
0.000000
 10
-184.500018
 20
150.250059
 42
0.000000
 10
-183.500018
 20
150.750059
 42
0.000000
 10
-182.500018
 20
150.250059
 42
0.000000
 10
-181.500018
 20
150.250059
 42
0.000000
 10
-180.500018
 20
149.750059
 42
0.000000
 10
-179.500018
 20
150.250059
 42
0.000000
 10
-178.500018
 20
150.250059
 42
0.000000
 10
-177.500018
 20
150.750059
 42
0.000000
 10
-176.500018
 20
150.250059
 42
0.000000
 10
-175.500018
 20
150.250059
 42
0.000000
 10
-174.500018
 20
149.750059
 42
0.000000
 10
-173.500018
 20
150.250059
 42
0.000000
 10
-172.500018
 20
150.250059
 42
0.000000
 10
-171.500018
 20
150.750059
 42
0.000000
 10
-170.500018
 20
150.250059
 42
0.000000
 10
-169.500018
 20
150.250059
 42
0.000000
 10
-168.500018
 20
149.750059
 42
0.000000
 10
-167.500018
 20
150.250059
 42
0.000000
 10
-166.500018
 20
150.250059
 42
0.000000
 10
-165.500018
 20
150.750059
 42
0.000000
 10
-164.500018
 20
150.250059
 42
0.000000
 10
-163.500018
 20
150.250059
 42
0.000000
 10
-162.500018
 20
149.750059
 42
0.000000
 10
-161.500018
 20
150.250059
 42
0.000000
 10
-160.500018
 20
150.250059
 42
0.000000
 10
-159.500018
 20
150.750059
 42
0.000000
 10
-158.500018
 20
150.250059
 42
0.000000
 10
-157.500018
 20
150.250059
 42
0.000000
 10
-156.500018
 20
149.750059
 42
0.000000
 10
-155.500018
 20
150.250059
 42
0.000000
 10
-154.500018
 20
150.250059
 42
0.000000
 10
-153.500018
 20
150.750059
 42
0.000000
 10
-152.500018
 20
150.250059
 42
0.000000
 10
-151.500018
 20
150.250059
 42
0.000000
 10
-150.500018
 20
149.750059
 42
0.000000
 10
-149.500018
 20
150.250059
 42
0.000000
 10
-148.500018
 20
150.250059
 42
0.000000
 10
-147.500018
 20
150.750059
 42
0.000000
 10
-146.500018
 20
150.250059
 42
0.000000
 10
-145.500018
 20
150.250059
 42
0.000000
 10
-144.500018
 20
149.750059
 42
0.000000
 10
-143.500018
 20
150.250059
 42
0.000000
 10
-142.500018
 20
150.250059
 42
0.000000
 10
-141.500018
 20
150.750059
 42
0.000000
 10
-140.500018
 20
150.250059
 42
0.000000
 10
-139.500018
 20
150.250059
 42
0.000000
 10
-138.500018
 20
149.750059
 42
0.000000
 10
-137.500018
 20
150.250059
 42
0.000000
 10
-136.500018
 20
150.250059
 42
0.000000
 10
-135.500018
 20
150.750059
 42
0.000000
 10
-134.500018
 20
150.250059
 42
0.000000
 10
-133.500018
 20
150.250059
 42
0.000000
 10
-132.500018
 20
149.750059
 42
0.000000
 10
-131.500018
 20
150.250059
 42
0.000000
 10
-130.500018
 20
150.250059
 42
0.000000
 10
-129.500018
 20
150.750059
 42
0.000000
 10
-128.500018
 20
150.250059
 42
0.000000
 10
-127.495608
 20
150.247854
 42
0.000000
 10
-126.500018
 20
149.750059
 42
0.000000
 10
-125.500018
 20
150.250059
 42
0.000000
 10
-124.500018
 20
150.250059
 42
0.000000
 10
-123.500018
 20
150.750059
 42
0.000000
 10
-122.500018
 20
150.250059
 42
0.000000
 10
-121.500018
 20
150.250059
 42
0.000000
 10
-120.500018
 20
149.750059
 42
0.000000
 10
-119.500018
 20
150.250059
 42
0.000000
 10
-118.500018
 20
150.250059
 42
0.000000
 10
-117.500018
 20
150.750059
 42
0.000000
 10
-116.500018
 20
150.250059
 42
0.000000
 10
-115.500018
 20
150.250059
 42
0.000000
 10
-114.500018
 20
149.750059
 42
0.000000
 10
-113.500018
 20
150.250059
 42
0.000000
 10
-112.500018
 20
150.250059
 42
0.000000
 10
-111.500018
 20
150.750059
 42
0.000000
 10
-110.500018
 20
150.250059
 42
0.000000
 10
-109.500018
 20
150.250059
 42
0.000000
 10
-108.500018
 20
149.750059
 42
0.000000
 10
-107.500018
 20
150.250059
 42
0.000000
 10
-106.500018
 20
150.250059
 42
0.000000
 10
-105.500018
 20
150.750059
 42
0.000000
 10
-104.492351
 20
150.250059
 42
0.000000
 10
-103.500018
 20
150.250059
 42
0.000000
 10
-102.500018
 20
149.750059
 42
0.000000
 10
-101.500018
 20
150.250059
 42
0.000000
 10
-100.500018
 20
150.250059
 42
0.000000
 10
-99.500018
 20
150.750059
 42
0.000000
 10
-98.500018
 20
150.250059
 42
0.000000
 10
-97.500018
 20
150.250059
 42
0.000000
 10
-96.500018
 20
149.750059
 42
0.000000
 10
-95.500018
 20
150.250059
 42
0.000000
 10
-94.500018
 20
150.250059
 42
0.000000
 10
-93.500018
 20
150.750059
 42
0.000000
 10
-92.500018
 20
150.250059
 42
0.000000
 10
-91.500018
 20
150.250059
 42
0.000000
 10
-90.500018
 20
149.750059
 42
0.000000
 10
-89.500018
 20
150.250059
 42
0.000000
 10
-88.500018
 20
150.250059
 42
0.000000
 10
-87.500018
 20
150.750059
 42
0.000000
 10
-86.500018
 20
150.250059
 42
0.000000
 10
-85.500018
 20
150.250059
 42
0.000000
 10
-84.500018
 20
149.750059
 42
0.000000
 10
-83.500018
 20
150.250059
 42
0.000000
 10
-82.500018
 20
150.250059
 42
0.000000
 10
-81.500018
 20
150.750059
 42
0.000000
 10
-80.500018
 20
150.250059
 42
0.000000
 10
-79.500018
 20
150.250059
 42
0.000000
 10
-78.500018
 20
149.750059
 42
0.000000
 10
-77.500018
 20
150.250059
 42
0.000000
 10
-76.500018
 20
150.250059
 42
0.000000
 10
-75.500018
 20
150.750059
 42
0.000000
 10
-74.500018
 20
150.250059
 42
0.000000
 10
-73.500018
 20
150.250059
 42
0.000000
 10
-72.500018
 20
149.750059
 42
0.000000
 10
-71.500018
 20
150.250059
 42
0.000000
 10
-70.500018
 20
150.250059
 42
0.000000
 10
-69.500018
 20
150.750059
 42
0.000000
 10
-68.500018
 20
150.250059
 42
0.000000
 10
-67.500018
 20
150.250059
 42
0.000000
 10
-66.500018
 20
149.750059
 42
0.000000
 10
-65.500018
 20
150.250059
 42
0.000000
 10
-64.500018
 20
150.250059
 42
0.000000
 10
-63.500018
 20
150.750059
 42
0.000000
 10
-62.500018
 20
150.250059
 42
0.000000
 10
-61.500018
 20
150.250059
 42
0.000000
 10
-60.500018
 20
149.750059
 42
0.000000
 10
-59.500018
 20
150.250059
 42
0.000000
 10
-58.500018
 20
150.250059
 42
0.000000
 10
-57.500018
 20
150.750059
 42
0.000000
 10
-56.500018
 20
150.250059
 42
0.000000
 10
-55.500018
 20
150.250059
 42
0.000000
 10
-54.500018
 20
149.750059
 42
0.000000
 10
-53.500018
 20
150.250059
 42
0.000000
 10
-52.500018
 20
150.250059
 42
0.000000
 10
-51.500018
 20
150.750059
 42
0.000000
 10
-50.500018
 20
150.250059
 42
0.000000
 10
-49.500018
 20
150.250059
 42
0.000000
 10
-48.500018
 20
149.750059
 42
0.000000
 10
-47.500018
 20
150.250059
 42
0.000000
 10
-46.500018
 20
150.250059
 42
0.000000
 10
-45.500018
 20
150.750059
 42
0.000000
 10
-44.500018
 20
150.250059
 42
0.000000
 10
-43.500018
 20
150.250059
 42
0.000000
 10
-42.500018
 20
149.750059
 42
0.000000
 10
-41.500018
 20
150.250059
 42
0.000000
 10
-40.500018
 20
150.250059
 42
0.000000
 10
-39.500018
 20
150.750059
 42
0.000000
 10
-38.500018
 20
150.250059
 42
0.000000
 10
-37.500018
 20
150.250059
 42
0.000000
 10
-36.500018
 20
149.750059
 42
0.000000
 10
-35.500018
 20
150.250059
 42
0.000000
 10
-34.500018
 20
150.250059
 42
0.000000
 10
-33.500018
 20
150.750059
 42
0.000000
 10
-32.500018
 20
150.250059
 42
0.000000
 10
-31.500018
 20
150.250059
 42
0.000000
 10
-30.500018
 20
149.750059
 42
0.000000
 10
-29.500018
 20
150.250059
 42
0.000000
 10
-28.500018
 20
150.250059
 42
0.000000
 10
-27.500018
 20
150.750059
 42
0.000000
 10
-26.500018
 20
150.250059
 42
0.000000
 10
-25.500018
 20
150.250059
 42
0.000000
 10
-24.500018
 20
149.750059
 42
0.000000
 10
-23.500018
 20
150.250059
 42
0.000000
 10
-22.500018
 20
150.250059
 42
0.000000
 10
-21.500018
 20
150.750059
 42
0.000000
 10
-20.500018
 20
150.250059
 42
0.000000
 10
-19.500018
 20
150.250059
 42
0.000000
 10
-18.500018
 20
149.750059
 42
0.000000
 10
-17.500018
 20
150.250059
 42
0.000000
 10
-16.500018
 20
150.250059
 42
0.000000
 10
-15.500018
 20
150.750059
 42
0.000000
 10
-14.500018
 20
150.250059
 42
0.000000
 10
-13.500018
 20
150.250059
 42
0.000000
 10
-12.500018
 20
149.750059
 42
0.000000
 10
-11.500018
 20
150.250059
 42
0.000000
 10
-10.500018
 20
150.250059
 42
0.000000
 10
-9.500018
 20
150.750059
 42
0.000000
 10
-8.492351
 20
150.250059
 42
0.000000
 10
-7.500018
 20
150.250059
 42
0.000000
 10
-6.500018
 20
149.750059
 42
0.000000
 10
-5.500018
 20
150.250059
 42
0.000000
 10
-4.500018
 20
150.250059
 42
0.000000
 10
-3.500018
 20
150.750059
 42
0.000000
 10
-2.500018
 20
150.250059
 42
0.000000
 10
-1.500018
 20
150.250059
 42
0.000000
 10
-0.500018
 20
149.750059
 42
0.000000
 10
0.499982
 20
150.250059
 42
0.000000
 10
1.499982
 20
150.250059
 42
0.000000
 10
2.499982
 20
150.750059
 42
0.000000
 10
3.499982
 20
150.250059
 42
0.000000
 10
4.499982
 20
150.250059
 42
0.000000
 10
5.499982
 20
149.750059
 42
0.000000
 10
6.499982
 20
150.250059
 42
0.000000
 10
7.499982
 20
150.250059
 42
0.000000
 10
8.499982
 20
150.750059
 42
0.000000
 10
9.499982
 20
150.250059
 42
0.000000
 10
10.499982
 20
150.250059
 42
0.000000
 10
11.499982
 20
149.750059
 42
0.000000
 10
12.499982
 20
150.250059
 42
0.000000
 10
13.499982
 20
150.250059
 42
0.000000
 10
14.499982
 20
150.750059
 42
0.000000
 10
15.499982
 20
150.250059
 42
0.000000
 10
16.499982
 20
150.250059
 42
0.000000
 10
17.499982
 20
149.750059
 42
0.000000
 10
18.499982
 20
150.250059
 42
0.000000
 10
19.499982
 20
150.250059
 42
0.000000
 10
20.499982
 20
150.750059
 42
0.000000
 10
21.499982
 20
150.250059
 42
0.000000
 10
22.499982
 20
150.250059
 42
0.000000
  0
ENDBLK
  5
884
100
AcDbEntity
  8
0
100
AcDbBlockEnd
  0
BLOCK
  5
885
100
AcDbEntity
  8
SCHRAFF
100
AcDbBlockBegin
  2
B-54
 70
    66
 10
0.000000
 20
0.000000
 30
0.000000
  0
HATCH
  5
886
100
AcDbEntity
  8
SCHRAFF
 62
     7
440
     0
100
AcDbHatch
 10
0.000000
 20
0.000000
 30
0.000000
210
0.000000
220
0.000000
230
1.000000
  2
SOLID
 70
     1
 71
     1
 91
     1
 92
    18
 72
     1
 73
     0
 93
     3
 10
4.124982
 20
95.250059
 42
1.000000
 10
3.124982
 20
95.250059
 42
1.000000
 10
4.124982
 20
95.250059
 42
0.000000
 97
     0
 75
     0
 76
     1
 98
     0
  0
ENDBLK
  5
887
100
AcDbEntity
  8
0
100
AcDbBlockEnd
  0
BLOCK
  5
888
100
AcDbEntity
  8
Detail
100
AcDbBlockBegin
  2
B-55
 70
    66
 10
0.000000
 20
0.000000
 30
0.000000
  0
CIRCLE
  5
889
100
AcDbEntity
  8
Detail
  6
CONTINUOUS
 62
     7
100
AcDbCircle
 10
3.624982
 20
95.250059
 40
0.500000
  0
ENDBLK
  5
88A
100
AcDbEntity
  8
0
100
AcDbBlockEnd
  0
BLOCK
  5
88B
100
AcDbEntity
  8
Detail
100
AcDbBlockBegin
  2
B-56
 70
    66
 10
0.000000
 20
0.000000
 30
0.000000
  0
LWPOLYLINE
  5
88C
100
AcDbEntity
  8
Detail
  6
CONTINUOUS
 62
     7
100
AcDbPolyline
 90
     2
 10
77.500023
 20
95.250059
 42
0.000000
 10
3.624982
 20
95.250059
 42
0.000000
  0
ENDBLK
  5
88F
100
AcDbEntity
  8
0
100
AcDbBlockEnd
  0
BLOCK
  5
890
100
AcDbEntity
  8
Detail
100
AcDbBlockBegin
  2
B-57
 70
    66
 10
0.000000
 20
0.000000
 30
0.000000
  0
LWPOLYLINE
  5
891
100
AcDbEntity
  8
Detail
  6
CONTINUOUS
 62
     4
100
AcDbPolyline
 90
    11
 10
2.999982
 20
80.750059
 42
0.000000
 10
4.249982
 20
80.750059
 42
0.000000
 10
4.249982
 20
131.116176
 42
0.000000
 10
22.499982
 20
149.366176
 42
0.000000
 10
22.499982
 20
150.250059
 42
0.000000
 10
21.616099
 20
150.250059
 42
0.000000
 10
3.366099
 20
132.000059
 42
0.000000
 10
-47.000018
 20
132.000059
 42
0.000000
 10
-46.970971
 20
130.750059
 42
0.000000
 10
2.999982
 20
130.750059
 42
0.000000
 10
2.999982
 20
80.750059
 42
0.000000
  0
ENDBLK
  5
89D
100
AcDbEntity
  8
0
100
AcDbBlockEnd
  0
BLOCK
  5
89E
100
AcDbEntity
  8
SCHRAFF
100
AcDbBlockBegin
  2
B-58
 70
    66
 10
0.000000
 20
0.000000
 30
0.000000
  0
HATCH
  5
89F
100
AcDbEntity
  8
SCHRAFF
 62
     7
440
     0
100
AcDbHatch
 10
0.000000
 20
0.000000
 30
0.000000
210
0.000000
220
0.000000
230
1.000000
  2
SOLID
 70
     1
 71
     1
 91
     1
 92
    18
 72
     1
 73
     0
 93
     3
 10
7.999982
 20
45.250059
 42
1.000000
 10
6.999982
 20
45.250059
 42
1.000000
 10
7.999982
 20
45.250059
 42
0.000000
 97
     0
 75
     0
 76
     1
 98
     0
  0
CIRCLE
  5
8A0
100
AcDbEntity
  8
Detail
  6
CONTINUOUS
 62
     7
100
AcDbCircle
 10
7.499982
 20
45.250059
 40
0.500000
  0
LWPOLYLINE
  5
8A1
100
AcDbEntity
  8
Detail
  6
CONTINUOUS
 62
     7
100
AcDbPolyline
 90
     2
 10
77.500023
 20
45.250059
 42
0.000000
 10
7.499982
 20
45.250059
 42
0.000000
  0
ENDBLK
  5
8A4
100
AcDbEntity
  8
0
100
AcDbBlockEnd
  0
ENDSEC
  0
SECTION
  2
ENTITIES
  0
INSERT
  5
8A5
100
AcDbEntity
  8
0
100
AcDbBlockReference
  2
B
 10
0.000000
 20
0.000000
 30
0.000000
 41
1.000000
 42
1.000000
 43
1.000000
 50
0.000000
  0
INSERT
  5
8A6
100
AcDbEntity
  8
0
100
AcDbBlockReference
  2
B-2
 10
0.000000
 20
0.000000
 30
0.000000
 41
1.000000
 42
1.000000
 43
1.000000
 50
0.000000
  0
INSERT
  5
8A7
100
AcDbEntity
  8
0
100
AcDbBlockReference
  2
B-3
 10
0.000000
 20
0.000000
 30
0.000000
 41
1.000000
 42
1.000000
 43
1.000000
 50
0.000000
  0
INSERT
  5
8A8
100
AcDbEntity
  8
0
100
AcDbBlockReference
  2
B-4
 10
0.000000
 20
0.000000
 30
0.000000
 41
1.000000
 42
1.000000
 43
1.000000
 50
0.000000
  0
INSERT
  5
8A9
100
AcDbEntity
  8
0
100
AcDbBlockReference
  2
B-5
 10
0.000000
 20
0.000000
 30
0.000000
 41
1.000000
 42
1.000000
 43
1.000000
 50
0.000000
  0
INSERT
  5
8AA
100
AcDbEntity
  8
0
100
AcDbBlockReference
  2
B-6
 10
0.000000
 20
0.000000
 30
0.000000
 41
1.000000
 42
1.000000
 43
1.000000
 50
0.000000
  0
INSERT
  5
8AB
100
AcDbEntity
  8
0
100
AcDbBlockReference
  2
B-7
 10
0.000000
 20
0.000000
 30
0.000000
 41
1.000000
 42
1.000000
 43
1.000000
 50
0.000000
  0
INSERT
  5
8AC
100
AcDbEntity
  8
0
100
AcDbBlockReference
  2
B-8
 10
0.000000
 20
0.000000
 30
0.000000
 41
1.000000
 42
1.000000
 43
1.000000
 50
0.000000
  0
INSERT
  5
8AD
100
AcDbEntity
  8
0
100
AcDbBlockReference
  2
B-9
 10
0.000000
 20
0.000000
 30
0.000000
 41
1.000000
 42
1.000000
 43
1.000000
 50
0.000000
  0
INSERT
  5
8AE
100
AcDbEntity
  8
Detail
100
AcDbBlockReference
  2
B-10
 10
0.000000
 20
0.000000
 30
0.000000
 41
1.000000
 42
1.000000
 43
1.000000
 50
0.000000
  0
INSERT
  5
8AF
100
AcDbEntity
  8
0
100
AcDbBlockReference
  2
B-11
 10
0.000000
 20
0.000000
 30
0.000000
 41
1.000000
 42
1.000000
 43
1.000000
 50
0.000000
  0
INSERT
  5
8B0
100
AcDbEntity
  8
Detail
100
AcDbBlockReference
  2
B-12
 10
0.000000
 20
0.000000
 30
0.000000
 41
1.000000
 42
1.000000
 43
1.000000
 50
0.000000
  0
INSERT
  5
8B1
100
AcDbEntity
  8
Detail
100
AcDbBlockReference
  2
B-13
 10
0.000000
 20
0.000000
 30
0.000000
 41
1.000000
 42
1.000000
 43
1.000000
 50
0.000000
  0
INSERT
  5
8B2
100
AcDbEntity
  8
0
100
AcDbBlockReference
  2
B-14
 10
0.000000
 20
0.000000
 30
0.000000
 41
1.000000
 42
1.000000
 43
1.000000
 50
0.000000
  0
INSERT
  5
8B3
100
AcDbEntity
  8
Detail
100
AcDbBlockReference
  2
B-15
 10
0.000000
 20
0.000000
 30
0.000000
 41
1.000000
 42
1.000000
 43
1.000000
 50
0.000000
  0
INSERT
  5
8B4
100
AcDbEntity
  8
0
100
AcDbBlockReference
  2
B-16
 10
0.000000
 20
0.000000
 30
0.000000
 41
1.000000
 42
1.000000
 43
1.000000
 50
0.000000
  0
INSERT
  5
8B5
100
AcDbEntity
  8
Detail
100
AcDbBlockReference
  2
B-17
 10
0.000000
 20
0.000000
 30
0.000000
 41
1.000000
 42
1.000000
 43
1.000000
 50
0.000000
  0
INSERT
  5
8B6
100
AcDbEntity
  8
0
100
AcDbBlockReference
  2
B-18
 10
0.000000
 20
0.000000
 30
0.000000
 41
1.000000
 42
1.000000
 43
1.000000
 50
0.000000
  0
INSERT
  5
8B7
100
AcDbEntity
  8
0
100
AcDbBlockReference
  2
B-19
 10
0.000000
 20
0.000000
 30
0.000000
 41
1.000000
 42
1.000000
 43
1.000000
 50
0.000000
  0
INSERT
  5
8B8
100
AcDbEntity
  8
Detail
100
AcDbBlockReference
  2
B-20
 10
0.000000
 20
0.000000
 30
0.000000
 41
1.000000
 42
1.000000
 43
1.000000
 50
0.000000
  0
INSERT
  5
8B9
100
AcDbEntity
  8
Detail
100
AcDbBlockReference
  2
B-21
 10
0.000000
 20
0.000000
 30
0.000000
 41
1.000000
 42
1.000000
 43
1.000000
 50
0.000000
  0
INSERT
  5
8BA
100
AcDbEntity
  8
Detail
100
AcDbBlockReference
  2
B-22
 10
0.000000
 20
0.000000
 30
0.000000
 41
1.000000
 42
1.000000
 43
1.000000
 50
0.000000
  0
INSERT
  5
8BB
100
AcDbEntity
  8
Detail
100
AcDbBlockReference
  2
B-23
 10
0.000000
 20
0.000000
 30
0.000000
 41
1.000000
 42
1.000000
 43
1.000000
 50
0.000000
  0
INSERT
  5
8BC
100
AcDbEntity
  8
Detail
100
AcDbBlockReference
  2
B-24
 10
0.000000
 20
0.000000
 30
0.000000
 41
1.000000
 42
1.000000
 43
1.000000
 50
0.000000
  0
INSERT
  5
8BD
100
AcDbEntity
  8
Detail
100
AcDbBlockReference
  2
B-25
 10
0.000000
 20
0.000000
 30
0.000000
 41
1.000000
 42
1.000000
 43
1.000000
 50
0.000000
  0
INSERT
  5
8BE
100
AcDbEntity
  8
Detail
100
AcDbBlockReference
  2
B-26
 10
0.000000
 20
0.000000
 30
0.000000
 41
1.000000
 42
1.000000
 43
1.000000
 50
0.000000
  0
INSERT
  5
8BF
100
AcDbEntity
  8
Detail
100
AcDbBlockReference
  2
B-27
 10
0.000000
 20
0.000000
 30
0.000000
 41
1.000000
 42
1.000000
 43
1.000000
 50
0.000000
  0
INSERT
  5
8C0
100
AcDbEntity
  8
Detail
100
AcDbBlockReference
  2
B-28
 10
0.000000
 20
0.000000
 30
0.000000
 41
1.000000
 42
1.000000
 43
1.000000
 50
0.000000
  0
INSERT
  5
8C1
100
AcDbEntity
  8
Detail
100
AcDbBlockReference
  2
B-29
 10
0.000000
 20
0.000000
 30
0.000000
 41
1.000000
 42
1.000000
 43
1.000000
 50
0.000000
  0
INSERT
  5
8C2
100
AcDbEntity
  8
Detail
100
AcDbBlockReference
  2
B-30
 10
0.000000
 20
0.000000
 30
0.000000
 41
1.000000
 42
1.000000
 43
1.000000
 50
0.000000
  0
INSERT
  5
8C3
100
AcDbEntity
  8
Detail
100
AcDbBlockReference
  2
B-31
 10
0.000000
 20
0.000000
 30
0.000000
 41
1.000000
 42
1.000000
 43
1.000000
 50
0.000000
  0
INSERT
  5
8C4
100
AcDbEntity
  8
Detail
100
AcDbBlockReference
  2
B-32
 10
0.000000
 20
0.000000
 30
0.000000
 41
1.000000
 42
1.000000
 43
1.000000
 50
0.000000
  0
INSERT
  5
8C5
100
AcDbEntity
  8
Detail
100
AcDbBlockReference
  2
B-33
 10
0.000000
 20
0.000000
 30
0.000000
 41
1.000000
 42
1.000000
 43
1.000000
 50
0.000000
  0
INSERT
  5
8C6
100
AcDbEntity
  8
Detail
100
AcDbBlockReference
  2
B-34
 10
0.000000
 20
0.000000
 30
0.000000
 41
1.000000
 42
1.000000
 43
1.000000
 50
0.000000
  0
INSERT
  5
8C7
100
AcDbEntity
  8
Detail
100
AcDbBlockReference
  2
B-35
 10
0.000000
 20
0.000000
 30
0.000000
 41
1.000000
 42
1.000000
 43
1.000000
 50
0.000000
  0
INSERT
  5
8C8
100
AcDbEntity
  8
Detail
100
AcDbBlockReference
  2
B-36
 10
0.000000
 20
0.000000
 30
0.000000
 41
1.000000
 42
1.000000
 43
1.000000
 50
0.000000
  0
INSERT
  5
8C9
100
AcDbEntity
  8
Detail
100
AcDbBlockReference
  2
B-37
 10
0.000000
 20
0.000000
 30
0.000000
 41
1.000000
 42
1.000000
 43
1.000000
 50
0.000000
  0
INSERT
  5
8CA
100
AcDbEntity
  8
Detail
100
AcDbBlockReference
  2
B-38
 10
0.000000
 20
0.000000
 30
0.000000
 41
1.000000
 42
1.000000
 43
1.000000
 50
0.000000
  0
INSERT
  5
8CB
100
AcDbEntity
  8
Detail
100
AcDbBlockReference
  2
B-39
 10
0.000000
 20
0.000000
 30
0.000000
 41
1.000000
 42
1.000000
 43
1.000000
 50
0.000000
  0
INSERT
  5
8CC
100
AcDbEntity
  8
Detail
100
AcDbBlockReference
  2
B-40
 10
0.000000
 20
0.000000
 30
0.000000
 41
1.000000
 42
1.000000
 43
1.000000
 50
0.000000
  0
INSERT
  5
8CD
100
AcDbEntity
  8
Detail
100
AcDbBlockReference
  2
B-41
 10
0.000000
 20
0.000000
 30
0.000000
 41
1.000000
 42
1.000000
 43
1.000000
 50
0.000000
  0
INSERT
  5
8CE
100
AcDbEntity
  8
Detail
100
AcDbBlockReference
  2
B-42
 10
0.000000
 20
0.000000
 30
0.000000
 41
1.000000
 42
1.000000
 43
1.000000
 50
0.000000
  0
INSERT
  5
8CF
100
AcDbEntity
  8
Detail
100
AcDbBlockReference
  2
B-43
 10
0.000000
 20
0.000000
 30
0.000000
 41
1.000000
 42
1.000000
 43
1.000000
 50
0.000000
  0
INSERT
  5
8D0
100
AcDbEntity
  8
Detail
100
AcDbBlockReference
  2
B-45
 10
0.000000
 20
0.000000
 30
0.000000
 41
1.000000
 42
1.000000
 43
1.000000
 50
0.000000
  0
INSERT
  5
8D1
100
AcDbEntity
  8
Detail
100
AcDbBlockReference
  2
B-46
 10
0.000000
 20
0.000000
 30
0.000000
 41
1.000000
 42
1.000000
 43
1.000000
 50
0.000000
  0
INSERT
  5
8D2
100
AcDbEntity
  8
Detail
100
AcDbBlockReference
  2
B-48
 10
0.000000
 20
0.000000
 30
0.000000
 41
1.000000
 42
1.000000
 43
1.000000
 50
0.000000
  0
INSERT
  5
8D3
100
AcDbEntity
  8
Detail
100
AcDbBlockReference
  2
B-49
 10
0.000000
 20
0.000000
 30
0.000000
 41
1.000000
 42
1.000000
 43
1.000000
 50
0.000000
  0
INSERT
  5
8D4
100
AcDbEntity
  8
Detail
100
AcDbBlockReference
  2
B-50
 10
0.000000
 20
0.000000
 30
0.000000
 41
1.000000
 42
1.000000
 43
1.000000
 50
0.000000
  0
INSERT
  5
8D5
100
AcDbEntity
  8
Detail
100
AcDbBlockReference
  2
B-51
 10
0.000000
 20
0.000000
 30
0.000000
 41
1.000000
 42
1.000000
 43
1.000000
 50
0.000000
  0
INSERT
  5
8D6
100
AcDbEntity
  8
0
100
AcDbBlockReference
  2
B-52
 10
0.000000
 20
0.000000
 30
0.000000
 41
1.000000
 42
1.000000
 43
1.000000
 50
0.000000
  0
INSERT
  5
8D7
100
AcDbEntity
  8
Detail
100
AcDbBlockReference
  2
B-53
 10
0.000000
 20
0.000000
 30
0.000000
 41
1.000000
 42
1.000000
 43
1.000000
 50
0.000000
  0
INSERT
  5
8D8
100
AcDbEntity
  8
0
100
AcDbBlockReference
  2
B-54
 10
0.000000
 20
0.000000
 30
0.000000
 41
1.000000
 42
1.000000
 43
1.000000
 50
0.000000
  0
INSERT
  5
8D9
100
AcDbEntity
  8
Detail
100
AcDbBlockReference
  2
B-55
 10
0.000000
 20
0.000000
 30
0.000000
 41
1.000000
 42
1.000000
 43
1.000000
 50
0.000000
  0
INSERT
  5
8DA
100
AcDbEntity
  8
Detail
100
AcDbBlockReference
  2
B-56
 10
0.000000
 20
0.000000
 30
0.000000
 41
1.000000
 42
1.000000
 43
1.000000
 50
0.000000
  0
INSERT
  5
8DB
100
AcDbEntity
  8
Detail
100
AcDbBlockReference
  2
B-57
 10
0.000000
 20
0.000000
 30
0.000000
 41
1.000000
 42
1.000000
 43
1.000000
 50
0.000000
  0
INSERT
  5
8DC
100
AcDbEntity
  8
0
100
AcDbBlockReference
  2
B-58
 10
0.000000
 20
0.000000
 30
0.000000
 41
1.000000
 42
1.000000
 43
1.000000
 50
0.000000
  0
ENDSEC
  0
SECTION
  2
OBJECTS
  0
DICTIONARY
  5
C
330
0
100
AcDbDictionary
281
     1
  3
ACAD_COLOR
350
6B
  3
ACAD_GROUP
350
D
  3
ACAD_IMAGE_DICT
350
1E2
  3
ACAD_IMAGE_VARS
350
1E3
  3
ACAD_MATERIAL
350
6A
  3
ACAD_MLINESTYLE
350
17
  3
ACAD_PLOTSETTINGS
350
19
  3
ACAD_PLOTSTYLENAME
350
E
  3
ACAD_SCALELIST
350
10C
  3
ACAD_TABLESTYLE
350
7E
  3
ACAD_VISUALSTYLE
350
EF
  3
ACDB_RECOMPOSE_DATA
350
15D
  3
AcDbVariableDictionary
350
5E
  0
DICTIONARY
  5
13C
330
10
100
AcDbDictionary
280
     1
281
     1
  0
DICTIONARY
  5
203
330
202
100
AcDbDictionary
280
     1
281
     1
  0
DICTIONARY
  5
6B
102
{ACAD_REACTORS
330
C
102
}
330
C
100
AcDbDictionary
281
     1
  0
DICTIONARY
  5
D
102
{ACAD_REACTORS
330
C
102
}
330
C
100
AcDbDictionary
281
     1
  0
DICTIONARY
  5
1E2
102
{ACAD_REACTORS
330
C
102
}
330
C
100
AcDbDictionary
281
     1
  3
WDVS mit Edelkratzputz_Aussenecke_9_1.tif
350
222
  0
RASTERVARIABLES
  5
1E3
102
{ACAD_REACTORS
330
C
102
}
330
C
100
AcDbRasterVariables
 90
        0
 70
     1
 71
     1
 72
     1
  0
DICTIONARY
  5
6A
102
{ACAD_REACTORS
330
C
102
}
330
C
100
AcDbDictionary
281
     1
  3
ByBlock
350
ED
  3
ByLayer
350
EC
  3
Global
350
EE
  0
DICTIONARY
  5
12D
102
{ACAD_REACTORS
330
C
102
}
330
C
100
AcDbDictionary
281
     1
  3
Annotative
350
13B
  3
Standard
350
12E
  0
DICTIONARY
  5
17
102
{ACAD_REACTORS
330
C
102
}
330
C
100
AcDbDictionary
281
     1
  3
Standard
350
18
  0
DICTIONARY
  5
19
102
{ACAD_REACTORS
330
C
102
}
330
C
100
AcDbDictionary
281
     1
  0
ACDBDICTIONARYWDFLT
  5
E
102
{ACAD_REACTORS
330
C
102
}
330
C
100
AcDbDictionary
281
     1
  3
Normal
350
F
100
AcDbDictionaryWithDefault
340
F
  0
DICTIONARY
  5
10C
102
{ACAD_REACTORS
330
C
102
}
330
C
100
AcDbDictionary
281
     1
  3
A0
350
10D
  3
A1
350
1BE
  3
A2
350
1BF
  3
A3
350
1C0
  3
A4
350
1C1
  3
A5
350
1C2
  3
A6
350
1C3
  3
A7
350
1C4
  3
A8
350
1C5
  3
A9
350
1C6
  3
B0
350
1C7
  3
B1
350
1C8
  3
B2
350
1C9
  3
B3
350
1CA
  3
B4
350
1CB
  3
B5
350
1CC
  3
B6
350
1CD
  0
DICTIONARY
  5
7E
102
{ACAD_REACTORS
330
C
102
}
330
C
100
AcDbDictionary
281
     1
  3
Standard
350
7F
  0
DICTIONARY
  5
EF
102
{ACAD_REACTORS
330
C
102
}
330
C
100
AcDbDictionary
281
     1
  3
2dWireframe
350
F5
  3
3D Hidden
350
F7
  3
3dWireframe
350
F6
  3
Basic
350
F4
  3
Brighten
350
FB
  3
ColorChange
350
FF
  3
Conceptual
350
F8
  3
Dim
350
FA
  3
Facepattern
350
FE
  3
Flat
350
F0
  3
FlatWithEdges
350
F1
  3
Gouraud
350
F2
  3
GouraudWithEdges
350
F3
  3
Linepattern
350
FD
  3
Realistic
350
F9
  3
Thicken
350
FC
  0
XRECORD
  5
15D
102
{ACAD_REACTORS
330
C
102
}
330
C
100
AcDbXrecord
280
     1
 90
        1
330
7F
  0
DICTIONARY
  5
5E
102
{ACAD_REACTORS
330
C
102
}
330
C
100
AcDbDictionary
281
     1
  3
CANNOSCALE
350
146
  3
CMLEADERSTYLE
350
145
  3
CTABLESTYLE
350
84
  3
DIMASSOC
350
5F
  3
HIDETEXT
350
63
  3
LAYEREVAL
350
1AE
  3
LAYERNOTIFY
350
1AF
  0
MATERIAL
  5
ED
102
{ACAD_REACTORS
330
6A
102
}
330
6A
100
AcDbMaterial
  1
ByBlock
 94
       63
  0
MATERIAL
  5
EC
102
{ACAD_REACTORS
330
6A
102
}
330
6A
100
AcDbMaterial
  1
ByLayer
 94
       63
  0
MATERIAL
  5
EE
102
{ACAD_XDICTIONARY
360
173
102
}
102
{ACAD_REACTORS
330
6A
102
}
330
6A
100
AcDbMaterial
  1
Global
 43
0.0007999999797903
 43
0.0
 43
0.0
 43
0.0
 43
0.0
 43
0.0007999999797903
 43
0.0
 43
0.0
 43
0.0
 43
0.0
 43
1.0
 43
0.0
 43
0.0
 43
0.0
 43
0.0
 43
1.0
 49
0.0007999999797903
 49
0.0
 49
0.0
 49
0.0
 49
0.0
 49
0.0007999999797903
 49
0.0
 49
0.0
 49
0.0
 49
0.0
 49
1.0
 49
0.0
 49
0.0
 49
0.0
 49
0.0
 49
1.0
142
0.0007999999797903
142
0.0
142
0.0
142
0.0
142
0.0
142
0.0007999999797903
142
0.0
142
0.0
142
0.0
142
0.0
142
1.0
142
0.0
142
0.0
142
0.0
142
0.0
142
1.0
144
0.0007999999797903
144
0.0
144
0.0
144
0.0
144
0.0
144
0.0007999999797903
144
0.0
144
0.0
144
0.0
144
0.0
144
1.0
144
0.0
144
0.0
144
0.0
144
0.0
144
1.0
 94
       63
1001
ACAD
1070
    -1
1070
     3
1070
     0
1000

1071
        0
1070
     0
  0
MLINESTYLE
  5
18
102
{ACAD_REACTORS
330
17
102
}
330
17
100
AcDbMlineStyle
  2
STANDARD
 70
     0
  3

 62
   256
 51
90.0
 52
90.0
 71
     2
 49
0.5
 62
   256
  6
BYLAYER
 49
-0.5
 62
   256
  6
BYLAYER
  0
ACDBPLACEHOLDER
  5
F
102
{ACAD_REACTORS
330
E
102
}
330
E
  0
SCALE
  5
10D
102
{ACAD_REACTORS
330
10C
102
}
330
10C
100
AcDbScale
 70
     0
300
1:1
140
1.0
141
1.0
290
     1
  0
SCALE
  5
1BE
102
{ACAD_REACTORS
330
10C
102
}
330
10C
100
AcDbScale
 70
     0
300
1:2
140
1.0
141
2.0
290
     0
  0
SCALE
  5
1BF
102
{ACAD_REACTORS
330
10C
102
}
330
10C
100
AcDbScale
 70
     0
300
1:4
140
1.0
141
4.0
290
     0
  0
SCALE
  5
1C0
102
{ACAD_REACTORS
330
10C
102
}
330
10C
100
AcDbScale
 70
     0
300
1:5
140
1.0
141
5.0
290
     0
  0
SCALE
  5
1C1
102
{ACAD_REACTORS
330
10C
102
}
330
10C
100
AcDbScale
 70
     0
300
1:8
140
1.0
141
8.0
290
     0
  0
SCALE
  5
1C2
102
{ACAD_REACTORS
330
10C
102
}
330
10C
100
AcDbScale
 70
     0
300
1:10
140
1.0
141
10.0
290
     0
  0
SCALE
  5
1C3
102
{ACAD_REACTORS
330
10C
102
}
330
10C
100
AcDbScale
 70
     0
300
1:16
140
1.0
141
16.0
290
     0
  0
SCALE
  5
1C4
102
{ACAD_REACTORS
330
10C
102
}
330
10C
100
AcDbScale
 70
     0
300
1:20
140
1.0
141
20.0
290
     0
  0
SCALE
  5
1C5
102
{ACAD_REACTORS
330
10C
102
}
330
10C
100
AcDbScale
 70
     0
300
1:30
140
1.0
141
30.0
290
     0
  0
SCALE
  5
1C6
102
{ACAD_REACTORS
330
10C
102
}
330
10C
100
AcDbScale
 70
     0
300
1:40
140
1.0
141
40.0
290
     0
  0
SCALE
  5
1C7
102
{ACAD_REACTORS
330
10C
102
}
330
10C
100
AcDbScale
 70
     0
300
1:50
140
1.0
141
50.0
290
     0
  0
SCALE
  5
1C8
102
{ACAD_REACTORS
330
10C
102
}
330
10C
100
AcDbScale
 70
     0
300
1:100
140
1.0
141
100.0
290
     0
  0
SCALE
  5
1C9
102
{ACAD_REACTORS
330
10C
102
}
330
10C
100
AcDbScale
 70
     0
300
2:1
140
2.0
141
1.0
290
     0
  0
SCALE
  5
1CA
102
{ACAD_REACTORS
330
10C
102
}
330
10C
100
AcDbScale
 70
     0
300
4:1
140
4.0
141
1.0
290
     0
  0
SCALE
  5
1CB
102
{ACAD_REACTORS
330
10C
102
}
330
10C
100
AcDbScale
 70
     0
300
8:1
140
8.0
141
1.0
290
     0
  0
SCALE
  5
1CC
102
{ACAD_REACTORS
330
10C
102
}
330
10C
100
AcDbScale
 70
     0
300
10:1
140
10.0
141
1.0
290
     0
  0
SCALE
  5
1CD
102
{ACAD_REACTORS
330
10C
102
}
330
10C
100
AcDbScale
 70
     0
300
100:1
140
100.0
141
1.0
290
     0
  0
TABLESTYLE
  5
7F
102
{ACAD_XDICTIONARY
360
162
102
}
102
{ACAD_REACTORS
330
7E
102
}
330
7E
100
AcDbTableStyle
  3
Standard
 70
     0
 71
     0
 40
1.5
 41
1.5
280
     0
281
     0
  7
Standard
140
4.5
170
     2
 62
     0
 63
     7
283
     0
 90
      512
 91
        0
  1

274
    -2
284
     1
 64
     0
275
    -2
285
     1
 65
     0
276
    -2
286
     1
 66
     0
277
    -2
287
     1
 67
     0
278
    -2
288
     1
 68
     0
279
    -2
289
     1
 69
     0
  7
Standard
140
6.0
170
     5
 62
     0
 63
     7
283
     0
 90
      512
 91
        0
  1

274
    -2
284
     1
 64
     0
275
    -2
285
     1
 65
     0
276
    -2
286
     1
 66
     0
277
    -2
287
     1
 67
     0
278
    -2
288
     1
 68
     0
279
    -2
289
     1
 69
     0
  7
Standard
140
4.5
170
     5
 62
     0
 63
     7
283
     0
 90
      512
 91
        0
  1

274
    -2
284
     1
 64
     0
275
    -2
285
     1
 65
     0
276
    -2
286
     1
 66
     0
277
    -2
287
     1
 67
     0
278
    -2
288
     1
 68
     0
279
    -2
289
     1
 69
     0
  0
VISUALSTYLE
  5
F5
102
{ACAD_REACTORS
330
EF
102
}
330
EF
100
AcDbVisualStyle
  2
2dWireframe
 70
     4
 71
     0
 72
     2
 73
     1
 90
        0
 40
-0.6
 41
-30.0
 62
     5
 63
     7
421
 16777215
 74
     1
 91
        4
 64
     7
 65
   257
 75
     1
175
     1
 42
1.0
 92
        0
 66
   257
 43
1.0
 76
     1
 77
     6
 78
     2
 67
     7
 79
     5
170
     0
171
     0
290
     0
174
     0
 93
        1
 44
0.0
173
     0
291
     0
 45
0.0
  0
VISUALSTYLE
  5
F7
102
{ACAD_REACTORS
330
EF
102
}
330
EF
100
AcDbVisualStyle
  2
3D Hidden
 70
     6
 71
     1
 72
     2
 73
     2
 90
        0
 40
-0.6
 41
-30.0
 62
     5
 63
     7
421
 16777215
 74
     2
 91
        2
 64
     7
 65
   257
 75
     2
175
     1
 42
40.0
 92
        0
 66
   257
 43
1.0
 76
     1
 77
     6
 78
     2
 67
     7
 79
     3
170
     0
171
     0
290
     0
174
     0
 93
        1
 44
0.0
173
     0
291
     0
 45
0.0
  0
VISUALSTYLE
  5
F6
102
{ACAD_REACTORS
330
EF
102
}
330
EF
100
AcDbVisualStyle
  2
3dWireframe
 70
     5
 71
     0
 72
     2
 73
     1
 90
        0
 40
-0.6
 41
-30.0
 62
     5
 63
     7
421
 16777215
 74
     1
 91
        4
 64
     7
 65
   257
 75
     1
175
     1
 42
1.0
 92
        0
 66
   257
 43
1.0
 76
     1
 77
     6
 78
     2
 67
     7
 79
     5
170
     0
171
     0
290
     0
174
     0
 93
        1
 44
0.0
173
     0
291
     0
 45
0.0
  0
VISUALSTYLE
  5
F4
102
{ACAD_REACTORS
330
EF
102
}
330
EF
100
AcDbVisualStyle
  2
Basic
 70
     7
 71
     1
 72
     0
 73
     1
 90
        0
 40
-0.6
 41
-30.0
 62
     5
 63
     7
421
 16777215
 74
     0
 91
        4
 64
     7
 65
   257
 75
     1
175
     1
 42
1.0
 92
        8
 66
     7
 43
1.0
 76
     1
 77
     6
 78
     2
 67
     7
 79
     5
170
     0
171
     0
290
     0
174
     0
 93
        1
 44
0.0
173
     0
291
     1
 45
0.0
  0
VISUALSTYLE
  5
FB
102
{ACAD_REACTORS
330
EF
102
}
330
EF
100
AcDbVisualStyle
  2
Brighten
 70
    12
 71
     2
 72
     2
 73
     1
 90
        0
 40
-0.6
 41
-30.0
 62
     5
 63
     7
421
 16777215
 74
     1
 91
        4
 64
     7
 65
   257
 75
     1
175
     1
 42
1.0
 92
        8
 66
     7
 43
1.0
 76
     1
 77
     6
 78
     2
 67
     7
 79
     5
170
     0
171
     0
290
     0
174
     0
 93
        1
 44
50.0
173
     0
291
     1
 45
0.0
  0
VISUALSTYLE
  5
FF
102
{ACAD_REACTORS
330
EF
102
}
330
EF
100
AcDbVisualStyle
  2
ColorChange
 70
    16
 71
     2
 72
     2
 73
     3
 90
        0
 40
-0.6
 41
-30.0
 62
     5
 63
     8
421
  8421504
 74
     1
 91
        4
 64
     7
 65
   257
 75
     1
175
     1
 42
1.0
 92
        8
 66
     8
424
  8421504
 43
1.0
 76
     1
 77
     6
 78
     2
 67
     7
 79
     5
170
     0
171
     0
290
     0
174
     0
 93
        1
 44
0.0
173
     0
291
     1
 45
0.0
  0
VISUALSTYLE
  5
F8
102
{ACAD_REACTORS
330
EF
102
}
330
EF
100
AcDbVisualStyle
  2
Conceptual
 70
     9
 71
     3
 72
     2
 73
     1
 90
        0
 40
-0.6
 41
-30.0
 62
     5
 63
     7
421
 16777215
 74
     2
 91
        2
 64
     7
 65
   257
 75
     1
175
     1
 42
40.0
 92
        8
 66
     7
 43
1.0
 76
     1
 77
     6
 78
     2
 67
     7
 79
     3
170
     0
171
     0
290
     0
174
     0
 93
        1
 44
0.0
173
     0
291
     0
 45
0.0
  0
VISUALSTYLE
  5
FA
102
{ACAD_REACTORS
330
EF
102
}
330
EF
100
AcDbVisualStyle
  2
Dim
 70
    11
 71
     2
 72
     2
 73
     1
 90
        0
 40
-0.6
 41
-30.0
 62
     5
 63
     7
421
 16777215
 74
     1
 91
        4
 64
     7
 65
   257
 75
     1
175
     1
 42
1.0
 92
        8
 66
     7
 43
1.0
 76
     1
 77
     6
 78
     2
 67
     7
 79
     5
170
     0
171
     0
290
     0
174
     0
 93
        1
 44
-50.0
173
     0
291
     1
 45
0.0
  0
VISUALSTYLE
  5
FE
102
{ACAD_REACTORS
330
EF
102
}
330
EF
100
AcDbVisualStyle
  2
Facepattern
 70
    15
 71
     2
 72
     2
 73
     1
 90
        0
 40
-0.6
 41
-30.0
 62
     5
 63
     7
421
 16777215
 74
     1
 91
        4
 64
     7
 65
   257
 75
     1
175
     1
 42
1.0
 92
        8
 66
     7
 43
1.0
 76
     1
 77
     6
 78
     2
 67
     7
 79
     5
170
     0
171
     0
290
     0
174
     0
 93
        1
 44
0.0
173
     0
291
     1
 45
0.0
  0
VISUALSTYLE
  5
F0
102
{ACAD_REACTORS
330
EF
102
}
330
EF
100
AcDbVisualStyle
  2
Flat
 70
     0
 71
     2
 72
     1
 73
     1
 90
        2
 40
-0.6
 41
30.0
 62
     5
 63
     7
421
 16777215
 74
     0
 91
        4
 64
     7
 65
   257
 75
     1
175
     1
 42
1.0
 92
        8
 66
     7
 43
1.0
 76
     1
 77
     6
 78
     2
 67
     7
 79
     5
170
     0
171
     0
290
     0
174
     0
 93
        1
 44
0.0
173
     0
291
     1
 45
0.0
  0
VISUALSTYLE
  5
F1
102
{ACAD_REACTORS
330
EF
102
}
330
EF
100
AcDbVisualStyle
  2
FlatWithEdges
 70
     1
 71
     2
 72
     1
 73
     1
 90
        2
 40
-0.6
 41
30.0
 62
     5
 63
     7
421
 16777215
 74
     1
 91
        4
 64
     7
 65
   257
 75
     1
175
     1
 42
1.0
 92
        0
 66
   257
 43
1.0
 76
     1
 77
     6
 78
     2
 67
     7
 79
     5
170
     0
171
     0
290
     0
174
     0
 93
        1
 44
0.0
173
     0
291
     1
 45
0.0
  0
VISUALSTYLE
  5
F2
102
{ACAD_REACTORS
330
EF
102
}
330
EF
100
AcDbVisualStyle
  2
Gouraud
 70
     2
 71
     2
 72
     2
 73
     1
 90
        2
 40
-0.6
 41
30.0
 62
     5
 63
     7
421
 16777215
 74
     0
 91
        4
 64
     7
 65
   257
 75
     1
175
     1
 42
1.0
 92
        0
 66
     7
 43
1.0
 76
     1
 77
     6
 78
     2
 67
     7
 79
     5
170
     0
171
     0
290
     0
174
     0
 93
        1
 44
0.0
173
     0
291
     1
 45
0.0
  0
VISUALSTYLE
  5
F3
102
{ACAD_REACTORS
330
EF
102
}
330
EF
100
AcDbVisualStyle
  2
GouraudWithEdges
 70
     3
 71
     2
 72
     2
 73
     1
 90
        2
 40
-0.6
 41
30.0
 62
     5
 63
     7
421
 16777215
 74
     1
 91
        4
 64
     7
 65
   257
 75
     1
175
     1
 42
1.0
 92
        0
 66
   257
 43
1.0
 76
     1
 77
     6
 78
     2
 67
     7
 79
     5
170
     0
171
     0
290
     0
174
     0
 93
        1
 44
0.0
173
     0
291
     1
 45
0.0
  0
VISUALSTYLE
  5
FD
102
{ACAD_REACTORS
330
EF
102
}
330
EF
100
AcDbVisualStyle
  2
Linepattern
 70
    14
 71
     2
 72
     2
 73
     1
 90
        0
 40
-0.6
 41
-30.0
 62
     5
 63
     7
421
 16777215
 74
     1
 91
        4
 64
     7
 65
   257
 75
     7
175
     7
 42
1.0
 92
        8
 66
     7
 43
1.0
 76
     1
 77
     6
 78
     2
 67
     7
 79
     5
170
     0
171
     0
290
     0
174
     0
 93
        1
 44
0.0
173
     0
291
     1
 45
0.0
  0
VISUALSTYLE
  5
F9
102
{ACAD_REACTORS
330
EF
102
}
330
EF
100
AcDbVisualStyle
  2
Realistic
 70
     8
 71
     2
 72
     2
 73
     1
 90
        0
 40
-0.6
 41
-30.0
 62
     5
 63
     7
421
 16777215
 74
     1
 91
        0
 64
     7
 65
   257
 75
     1
175
     1
 42
1.0
 92
        8
 66
     8
424
  7895160
 43
1.0
 76
     1
 77
     6
 78
     2
 67
     7
 79
     5
170
     0
171
     0
290
     0
174
     0
 93
       13
 44
0.0
173
     0
291
     0
 45
0.0
  0
VISUALSTYLE
  5
FC
102
{ACAD_REACTORS
330
EF
102
}
330
EF
100
AcDbVisualStyle
  2
Thicken
 70
    13
 71
     2
 72
     2
 73
     1
 90
        0
 40
-0.6
 41
-30.0
 62
     5
 63
     7
421
 16777215
 74
     1
 91
        4
 64
     7
 65
   257
 75
     1
175
     1
 42
1.0
 92
       12
 66
     7
 43
1.0
 76
     1
 77
     6
 78
     2
 67
     7
 79
     5
170
     0
171
     0
290
     0
174
     0
 93
        1
 44
0.0
173
     0
291
     1
 45
0.0
  0
DICTIONARYVAR
  5
146
102
{ACAD_REACTORS
330
5E
102
}
330
5E
100
DictionaryVariables
280
     0
  1
1:1
  0
DICTIONARYVAR
  5
145
102
{ACAD_REACTORS
330
5E
102
}
330
5E
100
DictionaryVariables
280
     0
  1
STANDARD
  0
DICTIONARYVAR
  5
84
102
{ACAD_REACTORS
330
5E
102
}
330
5E
100
DictionaryVariables
280
     0
  1
STANDARD
  0
DICTIONARYVAR
  5
5F
102
{ACAD_REACTORS
330
5E
102
}
330
5E
100
DictionaryVariables
280
     0
  1
2
  0
DICTIONARYVAR
  5
63
102
{ACAD_REACTORS
330
5E
102
}
330
5E
100
DictionaryVariables
280
     0
  1
1
  0
DICTIONARYVAR
  5
1AE
102
{ACAD_REACTORS
330
5E
102
}
330
5E
100
DictionaryVariables
280
     0
  1
0
  0
DICTIONARYVAR
  5
1AF
102
{ACAD_REACTORS
330
5E
102
}
330
5E
100
DictionaryVariables
280
     0
  1
0
  0
DICTIONARY
  5
173
330
EE
100
AcDbDictionary
280
     1
281
     1
  3
BUMPTILE
360
175
  3
DIFFUSETILE
360
174
  3
OPACITYTILE
360
176
  3
REFLECTIONTILE
360
177
  0
DICTIONARY
  5
162
330
7F
100
AcDbDictionary
280
     1
281
     1
  3
ACAD_ROUNDTRIP_2008_TABLESTYLE_CELLSTYLEMAP
360
1E7
  0
XRECORD
  5
175
102
{ACAD_REACTORS
330
173
102
}
330
173
100
AcDbXrecord
280
     1
270
     1
271
     1
  0
XRECORD
  5
174
102
{ACAD_REACTORS
330
173
102
}
330
173
100
AcDbXrecord
280
     1
270
     1
271
     1
  0
XRECORD
  5
176
102
{ACAD_REACTORS
330
173
102
}
330
173
100
AcDbXrecord
280
     1
270
     1
271
     1
  0
XRECORD
  5
177
102
{ACAD_REACTORS
330
173
102
}
330
173
100
AcDbXrecord
280
     1
270
     1
271
     1
  0
CELLSTYLEMAP
  5
1E7
102
{ACAD_REACTORS
330
162
102
}
330
162
100
AcDbCellStyleMap
 90
        3
300
CELLSTYLE
  1
TABLEFORMAT_BEGIN
 90
        5
170
     1
 91
        0
 92
    32768
 62
   257
 93
        1
300
CONTENTFORMAT
  1
CONTENTFORMAT_BEGIN
 90
        0
 91
        0
 92
      512
 93
        0
300

 40
0.0
140
1.0
 94
        5
 62
     0
340
11
144
6.0
309
CONTENTFORMAT_END
171
     1
301
MARGIN
  1
CELLMARGIN_BEGIN
 40
1.5
 40
1.5
 40
1.5
 40
1.5
 40
4.5
 40
4.5
309
CELLMARGIN_END
 94
        6
 95
        1
302
GRIDFORMAT
  1
GRIDFORMAT_BEGIN
 90
        0
 91
        1
 62
     0
 92
       -2
340
809
 93
        0
 40
1.125
309
GRIDFORMAT_END
 95
        2
302
GRIDFORMAT
  1
GRIDFORMAT_BEGIN
 90
        0
 91
        1
 62
     0
 92
       -2
340
809
 93
        0
 40
1.125
309
GRIDFORMAT_END
 95
        4
302
GRIDFORMAT
  1
GRIDFORMAT_BEGIN
 90
        0
 91
        1
 62
     0
 92
       -2
340
809
 93
        0
 40
1.125
309
GRIDFORMAT_END
 95
        8
302
GRIDFORMAT
  1
GRIDFORMAT_BEGIN
 90
        0
 91
        1
 62
     0
 92
       -2
340
809
 93
        0
 40
1.125
309
GRIDFORMAT_END
 95
       16
302
GRIDFORMAT
  1
GRIDFORMAT_BEGIN
 90
        0
 91
        1
 62
     0
 92
       -2
340
809
 93
        0
 40
1.125
309
GRIDFORMAT_END
 95
       32
302
GRIDFORMAT
  1
GRIDFORMAT_BEGIN
 90
        0
 91
        1
 62
     0
 92
       -2
340
809
 93
        0
 40
1.125
309
GRIDFORMAT_END
309
TABLEFORMAT_END
  1
CELLSTYLE_BEGIN
 90
        1
 91
        1
300
_TITLE
309
CELLSTYLE_END
300
CELLSTYLE
  1
TABLEFORMAT_BEGIN
 90
        5
170
     1
 91
        0
 92
        0
 62
   257
 93
        1
300
CONTENTFORMAT
  1
CONTENTFORMAT_BEGIN
 90
        0
 91
        0
 92
      512
 93
        0
300

 40
0.0
140
1.0
 94
        5
 62
     0
340
11
144
4.5
309
CONTENTFORMAT_END
171
     1
301
MARGIN
  1
CELLMARGIN_BEGIN
 40
1.5
 40
1.5
 40
1.5
 40
1.5
 40
4.5
 40
4.5
309
CELLMARGIN_END
 94
        6
 95
        1
302
GRIDFORMAT
  1
GRIDFORMAT_BEGIN
 90
        0
 91
        1
 62
     0
 92
       -2
340
809
 93
        0
 40
1.125
309
GRIDFORMAT_END
 95
        2
302
GRIDFORMAT
  1
GRIDFORMAT_BEGIN
 90
        0
 91
        1
 62
     0
 92
       -2
340
809
 93
        0
 40
1.125
309
GRIDFORMAT_END
 95
        4
302
GRIDFORMAT
  1
GRIDFORMAT_BEGIN
 90
        0
 91
        1
 62
     0
 92
       -2
340
809
 93
        0
 40
1.125
309
GRIDFORMAT_END
 95
        8
302
GRIDFORMAT
  1
GRIDFORMAT_BEGIN
 90
        0
 91
        1
 62
     0
 92
       -2
340
809
 93
        0
 40
1.125
309
GRIDFORMAT_END
 95
       16
302
GRIDFORMAT
  1
GRIDFORMAT_BEGIN
 90
        0
 91
        1
 62
     0
 92
       -2
340
809
 93
        0
 40
1.125
309
GRIDFORMAT_END
 95
       32
302
GRIDFORMAT
  1
GRIDFORMAT_BEGIN
 90
        0
 91
        1
 62
     0
 92
       -2
340
809
 93
        0
 40
1.125
309
GRIDFORMAT_END
309
TABLEFORMAT_END
  1
CELLSTYLE_BEGIN
 90
        2
 91
        1
300
_HEADER
309
CELLSTYLE_END
300
CELLSTYLE
  1
TABLEFORMAT_BEGIN
 90
        5
170
     1
 91
        0
 92
        0
 62
   257
 93
        1
300
CONTENTFORMAT
  1
CONTENTFORMAT_BEGIN
 90
        0
 91
        0
 92
      512
 93
        0
300

 40
0.0
140
1.0
 94
        2
 62
     0
340
11
144
4.5
309
CONTENTFORMAT_END
171
     1
301
MARGIN
  1
CELLMARGIN_BEGIN
 40
1.5
 40
1.5
 40
1.5
 40
1.5
 40
4.5
 40
4.5
309
CELLMARGIN_END
 94
        6
 95
        1
302
GRIDFORMAT
  1
GRIDFORMAT_BEGIN
 90
        0
 91
        1
 62
     0
 92
       -2
340
809
 93
        0
 40
1.125
309
GRIDFORMAT_END
 95
        2
302
GRIDFORMAT
  1
GRIDFORMAT_BEGIN
 90
        0
 91
        1
 62
     0
 92
       -2
340
809
 93
        0
 40
1.125
309
GRIDFORMAT_END
 95
        4
302
GRIDFORMAT
  1
GRIDFORMAT_BEGIN
 90
        0
 91
        1
 62
     0
 92
       -2
340
809
 93
        0
 40
1.125
309
GRIDFORMAT_END
 95
        8
302
GRIDFORMAT
  1
GRIDFORMAT_BEGIN
 90
        0
 91
        1
 62
     0
 92
       -2
340
809
 93
        0
 40
1.125
309
GRIDFORMAT_END
 95
       16
302
GRIDFORMAT
  1
GRIDFORMAT_BEGIN
 90
        0
 91
        1
 62
     0
 92
       -2
340
809
 93
        0
 40
1.125
309
GRIDFORMAT_END
 95
       32
302
GRIDFORMAT
  1
GRIDFORMAT_BEGIN
 90
        0
 91
        1
 62
     0
 92
       -2
340
809
 93
        0
 40
1.125
309
GRIDFORMAT_END
309
TABLEFORMAT_END
  1
CELLSTYLE_BEGIN
 90
        3
 91
        2
300
_DATA
309
CELLSTYLE_END
  0
IMAGEDEF_REACTOR
  5
223
330
221
100
AcDbRasterImageDefReactor
 90
     2
330
221
  0
IMAGEDEF
  5
222
102
{ACAD_REACTORS
330
5E
330
223
102
}
330
5E
100
AcDbRasterImageDef
 90
     0
  1
WDVS mit Edelkratzputz_Aussenecke_9_1.tif
 10
395.000000
 20
405.000000
 11
0.002532
 21
0.002469
280
     1
281
     0
  0
ENDSEC
  0
EOF
