  0
SECTION
  2
HEADER
  9
$ACADVER
  1
AC1024
  9
$ACADMAINTVER
 70
     6
  9
$DWGCODEPAGE
  3
ANSI_1252
  9
$INSBASE
 10
0.0
 20
0.0
 30
0.0
  9
$EXTMIN
 10
-262.500018
 20
-371.249941
 30
0.000000
  9
$EXTMAX
 10
237.500023
 20
346.250078
 30
0.000000
  9
$LIMMIN
 10
0.0
 20
0.0
  9
$LIMMAX
 10
420.0
 20
297.0
  9
$ORTHOMODE
 70
     0
  9
$REGENMODE
 70
     1
  9
$FILLMODE
 70
     1
  9
$QTEXTMODE
 70
     0
  9
$MIRRTEXT
 70
     0
  9
$LTSCALE
 40
25.000000
  9
$ATTMODE
 70
     1
  9
$TEXTSIZE
 40
2.5
  9
$TRACEWID
 40
1.0
  9
$TEXTSTYLE
  7
Standard
  9
$CLAYER
  8
0
  9
$CELTYPE
  6
ByLayer
  9
$CECOLOR
 62
   256
  9
$CELTSCALE
 40
1.0
  9
$DISPSILH
 70
     0
  9
$DIMSCALE
 40
1.0
  9
$DIMASZ
 40
2.5
  9
$DIMEXO
 40
0.625
  9
$DIMDLI
 40
3.75
  9
$DIMRND
 40
0.0
  9
$DIMDLE
 40
0.0
  9
$DIMEXE
 40
1.25
  9
$DIMTP
 40
0.0
  9
$DIMTM
 40
0.0
  9
$DIMTXT
 40
2.5
  9
$DIMCEN
 40
2.5
  9
$DIMTSZ
 40
0.0
  9
$DIMTOL
 70
     0
  9
$DIMLIM
 70
     0
  9
$DIMTIH
 70
     0
  9
$DIMTOH
 70
     0
  9
$DIMSE1
 70
     0
  9
$DIMSE2
 70
     0
  9
$DIMTAD
 70
     1
  9
$DIMZIN
 70
     8
  9
$DIMBLK
  1

  9
$DIMASO
 70
     1
  9
$DIMSHO
 70
     1
  9
$DIMPOST
  1

  9
$DIMAPOST
  1

  9
$DIMALT
 70
     0
  9
$DIMALTD
 70
     3
  9
$DIMALTF
 40
0.03937007874016
  9
$DIMLFAC
 40
1.0
  9
$DIMTOFL
 70
     1
  9
$DIMTVP
 40
0.0
  9
$DIMTIX
 70
     0
  9
$DIMSOXD
 70
     0
  9
$DIMSAH
 70
     0
  9
$DIMBLK1
  1

  9
$DIMBLK2
  1

  9
$DIMSTYLE
  2
ISO-25
  9
$DIMCLRD
 70
     0
  9
$DIMCLRE
 70
     0
  9
$DIMCLRT
 70
     0
  9
$DIMTFAC
 40
1.0
  9
$DIMGAP
 40
0.625
  9
$DIMJUST
 70
     0
  9
$DIMSD1
 70
     0
  9
$DIMSD2
 70
     0
  9
$DIMTOLJ
 70
     0
  9
$DIMTZIN
 70
     8
  9
$DIMALTZ
 70
     0
  9
$DIMALTTZ
 70
     0
  9
$DIMUPT
 70
     0
  9
$DIMDEC
 70
     2
  9
$DIMTDEC
 70
     2
  9
$DIMALTU
 70
     2
  9
$DIMALTTD
 70
     3
  9
$DIMTXSTY
  7
Standard
  9
$DIMAUNIT
 70
     0
  9
$DIMADEC
 70
     0
  9
$DIMALTRND
 40
0.0
  9
$DIMAZIN
 70
     0
  9
$DIMDSEP
 70
    44
  9
$DIMATFIT
 70
     3
  9
$DIMFRAC
 70
     0
  9
$DIMLDRBLK
  1

  9
$DIMLUNIT
 70
     2
  9
$DIMLWD
 70
    -2
  9
$DIMLWE
 70
    -2
  9
$DIMTMOVE
 70
     0
  9
$DIMFXL
 40
1.0
  9
$DIMFXLON
 70
     0
  9
$DIMJOGANG
 40
0.7853981633974483
  9
$DIMTFILL
 70
     0
  9
$DIMTFILLCLR
 70
     0
  9
$DIMARCSYM
 70
     0
  9
$DIMLTYPE
  6

  9
$DIMLTEX1
  6

  9
$DIMLTEX2
  6

  9
$DIMTXTDIRECTION
 70
     0
  9
$LUNITS
 70
     2
  9
$LUPREC
 70
     4
  9
$SKETCHINC
 40
1.0
  9
$FILLETRAD
 40
10.0
  9
$AUNITS
 70
     0
  9
$AUPREC
 70
     0
  9
$MENU
  1
.
  9
$ELEVATION
 40
0.0
  9
$PELEVATION
 40
0.0
  9
$THICKNESS
 40
0.0
  9
$LIMCHECK
 70
     0
  9
$CHAMFERA
 40
10.0
  9
$CHAMFERB
 40
10.0
  9
$CHAMFERC
 40
20.0
  9
$CHAMFERD
 40
0.0
  9
$SKPOLY
 70
     0
  9
$TDCREATE
 40
2452006.439837951
  9
$TDUCREATE
 40
2452006.356504618
  9
$TDUPDATE
 40
2452006.439963946
  9
$TDUUPDATE
 40
2452006.356630613
  9
$TDINDWG
 40
0.0001273843
  9
$TDUSRTIMER
 40
0.0001272685
  9
$USRTIMER
 70
     1
  9
$ANGBASE
 50
0.0
  9
$ANGDIR
 70
     0
  9
$PDMODE
 70
     0
  9
$PDSIZE
 40
0.0
  9
$PLINEWID
 40
0.0
  9
$SPLFRAME
 70
     0
  9
$SPLINETYPE
 70
     6
  9
$SPLINESEGS
 70
     8
  9
$HANDSEED
  5
ACA
  9
$SURFTAB1
 70
     6
  9
$SURFTAB2
 70
     6
  9
$SURFTYPE
 70
     6
  9
$SURFU
 70
     6
  9
$SURFV
 70
     6
  9
$UCSBASE
  2

  9
$UCSNAME
  2

  9
$UCSORG
 10
0.0
 20
0.0
 30
0.0
  9
$UCSXDIR
 10
1.0
 20
0.0
 30
0.0
  9
$UCSYDIR
 10
0.0
 20
1.0
 30
0.0
  9
$UCSORTHOREF
  2

  9
$UCSORTHOVIEW
 70
     0
  9
$UCSORGTOP
 10
0.0
 20
0.0
 30
0.0
  9
$UCSORGBOTTOM
 10
0.0
 20
0.0
 30
0.0
  9
$UCSORGLEFT
 10
0.0
 20
0.0
 30
0.0
  9
$UCSORGRIGHT
 10
0.0
 20
0.0
 30
0.0
  9
$UCSORGFRONT
 10
0.0
 20
0.0
 30
0.0
  9
$UCSORGBACK
 10
0.0
 20
0.0
 30
0.0
  9
$PUCSBASE
  2

  9
$PUCSNAME
  2

  9
$PUCSORG
 10
0.0
 20
0.0
 30
0.0
  9
$PUCSXDIR
 10
1.0
 20
0.0
 30
0.0
  9
$PUCSYDIR
 10
0.0
 20
1.0
 30
0.0
  9
$PUCSORTHOREF
  2

  9
$PUCSORTHOVIEW
 70
     0
  9
$PUCSORGTOP
 10
0.0
 20
0.0
 30
0.0
  9
$PUCSORGBOTTOM
 10
0.0
 20
0.0
 30
0.0
  9
$PUCSORGLEFT
 10
0.0
 20
0.0
 30
0.0
  9
$PUCSORGRIGHT
 10
0.0
 20
0.0
 30
0.0
  9
$PUCSORGFRONT
 10
0.0
 20
0.0
 30
0.0
  9
$PUCSORGBACK
 10
0.0
 20
0.0
 30
0.0
  9
$USERI1
 70
     0
  9
$USERI2
 70
     0
  9
$USERI3
 70
     0
  9
$USERI4
 70
     0
  9
$USERI5
 70
     0
  9
$USERR1
 40
0.0
  9
$USERR2
 40
0.0
  9
$USERR3
 40
0.0
  9
$USERR4
 40
0.0
  9
$USERR5
 40
0.0
  9
$WORLDVIEW
 70
     1
  9
$SHADEDGE
 70
     3
  9
$SHADEDIF
 70
    70
  9
$TILEMODE
 70
     1
  9
$MAXACTVP
 70
    64
  9
$PINSBASE
 10
0.0
 20
0.0
 30
0.0
  9
$PLIMCHECK
 70
     0
  9
$PEXTMIN
 10
1.000000000000000E+20
 20
1.000000000000000E+20
 30
1.000000000000000E+20
  9
$PEXTMAX
 10
-1.000000000000000E+20
 20
-1.000000000000000E+20
 30
-1.000000000000000E+20
  9
$PLIMMIN
 10
0.0
 20
0.0
  9
$PLIMMAX
 10
420.0
 20
297.0
  9
$UNITMODE
 70
     0
  9
$VISRETAIN
 70
     1
  9
$PLINEGEN
 70
     0
  9
$PSLTSCALE
 70
     1
  9
$TREEDEPTH
 70
  3020
  9
$CMLSTYLE
  2
Standard
  9
$CMLJUST
 70
     0
  9
$CMLSCALE
 40
20.0
  9
$PROXYGRAPHICS
 70
     1
  9
$MEASUREMENT
 70
     1
  9
$CELWEIGHT
370
    -1
  9
$ENDCAPS
280
     0
  9
$JOINSTYLE
280
     0
  9
$LWDISPLAY
290
     0
  9
$INSUNITS
 70
     4
  9
$HYPERLINKBASE
  1

  9
$STYLESHEET
  1

  9
$XEDIT
290
     1
  9
$CEPSNTYPE
380
     0
  9
$PSTYLEMODE
290
     1
  9
$FINGERPRINTGUID
  2

  9
$VERSIONGUID
  2

  9
$EXTNAMES
290
     1
  9
$PSVPSCALE
 40
0.0
  9
$OLESTARTUP
290
     0
  9
$SORTENTS
280
   127
  9
$INDEXCTL
280
     0
  9
$HIDETEXT
280
     1
  9
$XCLIPFRAME
280
     2
  9
$HALOGAP
280
     0
  9
$OBSCOLOR
 70
   257
  9
$OBSLTYPE
280
     0
  9
$INTERSECTIONDISPLAY
280
     0
  9
$INTERSECTIONCOLOR
 70
   257
  9
$DIMASSOC
280
     2
  9
$PROJECTNAME
  1

  9
$CAMERADISPLAY
290
     0
  9
$LENSLENGTH
 40
50.0
  9
$CAMERAHEIGHT
 40
0.0
  9
$STEPSPERSEC
 40
2.0
  9
$STEPSIZE
 40
6.0
  9
$3DDWFPREC
 40
2.0
  9
$PSOLWIDTH
 40
5.0
  9
$PSOLHEIGHT
 40
80.0
  9
$LOFTANG1
 40
1.570796326794896
  9
$LOFTANG2
 40
1.570796326794896
  9
$LOFTMAG1
 40
0.0
  9
$LOFTMAG2
 40
0.0
  9
$LOFTPARAM
 70
     7
  9
$LOFTNORMALS
280
     1
  9
$LATITUDE
 40
37.795
  9
$LONGITUDE
 40
-122.394
  9
$NORTHDIRECTION
 40
0.0
  9
$TIMEZONE
 70
 -8000
  9
$LIGHTGLYPHDISPLAY
280
     1
  9
$TILEMODELIGHTSYNCH
280
     1
  9
$CMATERIAL
347
EC
  9
$SOLIDHIST
280
     1
  9
$SHOWHIST
280
     1
  9
$DWFFRAME
280
     2
  9
$DGNFRAME
280
     0
  9
$REALWORLDSCALE
290
     1
  9
$INTERFERECOLOR
 62
     1
  9
$INTERFEREOBJVS
345
F9
  9
$INTERFEREVPVS
346
F6
  9
$CSHADOW
280
     0
  9
$SHADOWPLANELOCATION
 40
0.0
  0
ENDSEC
  0
SECTION
  2
CLASSES
  0
CLASS
  1
ACDBDICTIONARYWDFLT
  2
AcDbDictionaryWithDefault
  3
ObjectDBX Classes
 90
        0
 91
        1
280
     0
281
     0
  0
CLASS
  1
ACDBPLACEHOLDER
  2
AcDbPlaceHolder
  3
ObjectDBX Classes
 90
        0
 91
        1
280
     0
281
     0
  0
CLASS
  1
LAYOUT
  2
AcDbLayout
  3
ObjectDBX Classes
 90
        0
 91
        2
280
     0
281
     0
  0
CLASS
  1
DICTIONARYVAR
  2
AcDbDictionaryVar
  3
ObjectDBX Classes
 90
        0
 91
        7
280
     0
281
     0
  0
CLASS
  1
TABLESTYLE
  2
AcDbTableStyle
  3
ObjectDBX Classes
 90
     4095
 91
        1
280
     0
281
     0
  0
CLASS
  1
MATERIAL
  2
AcDbMaterial
  3
ObjectDBX Classes
 90
     1153
 91
        3
280
     0
281
     0
  0
CLASS
  1
VISUALSTYLE
  2
AcDbVisualStyle
  3
ObjectDBX Classes
 90
     4095
 91
       16
280
     0
281
     0
  0
CLASS
  1
SCALE
  2
AcDbScale
  3
ObjectDBX Classes
 90
     1153
 91
       17
280
     0
281
     0
  0
CLASS
  1
MLEADERSTYLE
  2
AcDbMLeaderStyle
  3
ACDB_MLEADERSTYLE_CLASS
 90
     4095
 91
        1
280
     0
281
     0
  0
CLASS
  1
CELLSTYLEMAP
  2
AcDbCellStyleMap
  3
ObjectDBX Classes
 90
     1152
 91
        2
280
     0
281
     0
  0
CLASS
  1
EXACXREFPANELOBJECT
  2
ExAcXREFPanelObject
  3
EXAC_ESW
 90
    33793
 91
        0
280
     0
281
     0
  0
CLASS
  1
NPOCOLLECTION
  2
AcDbImpNonPersistentObjectsCollection
  3
ObjectDBX Classes
 90
     1153
 91
        0
280
     0
281
     0
  0
CLASS
  1
LAYER_INDEX
  2
AcDbLayerIndex
  3
ObjectDBX Classes
 90
        0
 91
        0
280
     0
281
     0
  0
CLASS
  1
SPATIAL_INDEX
  2
AcDbSpatialIndex
  3
ObjectDBX Classes
 90
        0
 91
        0
280
     0
281
     0
  0
CLASS
  1
IDBUFFER
  2
AcDbIdBuffer
  3
ObjectDBX Classes
 90
        0
 91
        0
280
     0
281
     0
  0
CLASS
  1
RASTERVARIABLES
  2
AcDbRasterVariables
  3
ISM
 90
        0
 91
        2
280
     0
281
     0
  0
CLASS
  1
IMAGEDEF
  2
AcDbRasterImageDef
  3
ISM
 90
        0
 91
        5
280
     0
281
     0
  0
CLASS
  1
IMAGEDEF_REACTOR
  2
AcDbRasterImageDefReactor
  3
ISM
 90
        1
 91
        5
280
     0
281
     0
  0
CLASS
  1
IMAGE
  2
AcDbRasterImage
  3
ISM
 90
     2175
 91
        5
280
     0
281
     1
  0
CLASS
  1
LWPOLYLINE
  2
AcDbPolyline
  3
ObjectDBX Classes
 90
        0
 91
        0
280
     0
281
     1
  0
CLASS
  1
OLE2FRAME
  2
AcDbOle2Frame
  3
ObjectDBX Classes
 90
        0
 91
        0
280
     0
281
     1
  0
CLASS
  1
HATCH
  2
AcDbHatch
  3
ObjectDBX Classes
 90
        0
 91
        0
280
     0
281
     1
  0
CLASS
  1
XRECORD
  2
AcDbXrecord
  3
ObjectDBX Classes
 90
        0
 91
        9
280
     0
281
     0
  0
CLASS
  1
SORTENTSTABLE
  2
AcDbSortentsTable
  3
ObjectDBX Classes
 90
        0
 91
        0
280
     0
281
     0
  0
CLASS
  1
OBJECT_PTR
  2
CAseDLPNTableRecord
  3
"ASE-LPNTableRecord"
 90
    32769
 91
        0
280
     0
281
     0
  0
CLASS
  1
PLOTSETTINGS
  2
AcDbPlotSettings
  3
ObjectDBX Classes
 90
        0
 91
        0
280
     0
281
     0
  0
CLASS
  1
VBA_PROJECT
  2
AcDbVbaProject
  3
acad
 90
        0
 91
        0
280
     0
281
     0
  0
CLASS
  1
WIPEOUT
  2
AcDbWipeout
  3
WipeOut|AutoCAD Express Tool|expresstools@autodesk.com
 90
    32895
 91
        0
280
     0
281
     1
  0
CLASS
  1
WIPEOUTVARIABLES
  2
AcDbWipeoutVariables
  3
WipeOut|AutoCAD Express Tool|expresstools@autodesk.com
 90
    32768
 91
        0
280
     0
281
     0
  0
CLASS
  1
RTEXT
  2
RText
  3
RText|AutoCAD Express Tool|expresstools@autodesk.com
 90
    32768
 91
        0
280
     0
281
     1
  0
CLASS
  1
ARCALIGNEDTEXT
  2
AcDbArcAlignedText
  3
ATEXT|AutoCAD Express Tool|expresstools@autodesk.com
 90
    32768
 91
        0
280
     0
281
     1
  0
ENDSEC
  0
SECTION
  2
TABLES
  0
TABLE
  2
VPORT
  5
A4C
100
AcDbSymbolTable
 70
     1
  0
VPORT
  5
A4D
100
AcDbSymbolTableRecord
100
AcDbViewportTableRecord
  2
*ACTIVE
 70
     0
 10
0.000000
 20
0.000000
 11
1.000000
 21
1.000000
 12
50.000000
 22
50.000000
 13
0.000000
 23
0.000000
 14
1.000000
 24
1.000000
 15
10.000000
 25
10.000000
 16
0.000000
 26
0.000000
 36
1.000000
 17
0.000000
 27
0.000000
 37
0.000000
 40
100.000000
 41
1.387409
 42
50.000000
 43
0.000000
 44
0.000000
 50
0.000000
 51
0.000000
 71
     0
 72
   100
 73
     1
 74
     1
 75
     0
 76
     0
 77
     0
 78
     0
  0
ENDTAB
  0
TABLE
  2
LTYPE
  5
A4E
330
0
100
AcDbSymbolTable
 70
     9
  0
LTYPE
  5
A4F
330
A4E
100
AcDbSymbolTableRecord
100
AcDbLinetypeTableRecord
  2
ByBlock
 70
     0
  3

 72
    65
 73
     0
 40
0.000000
  0
LTYPE
  5
A50
330
A4E
100
AcDbSymbolTableRecord
100
AcDbLinetypeTableRecord
  2
ByLayer
 70
     0
  3

 72
    65
 73
     0
 40
0.000000
  0
LTYPE
  5
A51
330
A4E
100
AcDbSymbolTableRecord
100
AcDbLinetypeTableRecord
  2
CONTINUOUS
 70
     0
  3
Solid line
 72
    65
 73
     0
 40
0.000000
  0
LTYPE
  5
A52
330
A4E
100
AcDbSymbolTableRecord
100
AcDbLinetypeTableRecord
  2
HIDDEN
 70
     0
  3
_ _ _ _ _ _ _ _ _ _ _ _ _ _ _ _ _ _ _ _ _ _ _
 72
    65
 73
     2
 40
0.375000
 49
0.250000
 74
     0
 49
-0.125000
 74
     0
  0
LTYPE
  5
A53
330
A4E
100
AcDbSymbolTableRecord
100
AcDbLinetypeTableRecord
  2
DOT
 70
     0
  3
...............................................
 72
    65
 73
     2
 40
0.250000
 49
0.000000
 74
     0
 49
-0.250000
 74
     0
  0
LTYPE
  5
A54
330
A4E
100
AcDbSymbolTableRecord
100
AcDbLinetypeTableRecord
  2
DASHED
 70
     0
  3
__ __ __ __ __ __ __ __ __ __ __ __ __ __ __ 
 72
    65
 73
     2
 40
0.750000
 49
0.500000
 74
     0
 49
-0.250000
 74
     0
  0
LTYPE
  5
A55
330
A4E
100
AcDbSymbolTableRecord
100
AcDbLinetypeTableRecord
  2
DIVIDE
 70
     0
  3
__ . . __ . . __ . . __ . . __ . . __ . . __
 72
    65
 73
     6
 40
1.250000
 49
0.500000
 74
     0
 49
-0.250000
 74
     0
 49
0.000000
 74
     0
 49
-0.250000
 74
     0
 49
0.000000
 74
     0
 49
-0.250000
 74
     0
  0
LTYPE
  5
A56
330
A4E
100
AcDbSymbolTableRecord
100
AcDbLinetypeTableRecord
  2
DASHDOT
 70
     0
  3
__ . __ . __ . __ . __ . __ . __ . __ . __ . __
 72
    65
 73
     4
 40
1.000000
 49
0.500000
 74
     0
 49
-0.250000
 74
     0
 49
0.000000
 74
     0
 49
-0.250000
 74
     0
  0
LTYPE
  5
A57
330
A4E
100
AcDbSymbolTableRecord
100
AcDbLinetypeTableRecord
  2
BORDER
 70
     0
  3
__ __ . __ __ . __ __ . __ __ . __ __ . __ __
 72
    65
 73
     6
 40
1.750000
 49
0.500000
 74
     0
 49
-0.250000
 74
     0
 49
0.500000
 74
     0
 49
-0.250000
 74
     0
 49
0.000000
 74
     0
 49
-0.250000
 74
     0
  0
LTYPE
  5
A58
330
A4E
100
AcDbSymbolTableRecord
100
AcDbLinetypeTableRecord
  2
CENTER
 70
     0
  3
____ _ ____ _ ____ _ ____ _ ____ _ ____ _ ____
 72
    65
 73
     4
 40
2.000000
 49
1.250000
 74
     0
 49
-0.250000
 74
     0
 49
0.250000
 74
     0
 49
-0.250000
 74
     0
  0
LTYPE
  5
A59
330
A4E
100
AcDbSymbolTableRecord
100
AcDbLinetypeTableRecord
  2
PHANTOM
 70
     0
  3
_____ _ _ _____ _ _ _____ _ _ _____ _ _ ____
 72
    65
 73
     6
 40
2.500000
 49
1.250000
 74
     0
 49
-0.250000
 74
     0
 49
0.250000
 74
     0
 49
-0.250000
 74
     0
 49
0.250000
 74
     0
 49
-0.250000
 74
     0
  0
ENDTAB
  0
TABLE
  2
LAYER
  5
A5A
100
AcDbSymbolTable
 70
     4
  0
LAYER
  5
A5B
100
AcDbSymbolTableRecord
100
AcDbLayerTableRecord
  2
0
 70
     0
 62
     7
  6
CONTINUOUS
370
    -3
390
     0
  0
LAYER
  5
A5C
100
AcDbSymbolTableRecord
100
AcDbLayerTableRecord
  2
Detail
 70
     0
 62
     7
  6
CONTINUOUS
370
    -3
390
     0
  0
LAYER
  5
A5D
100
AcDbSymbolTableRecord
100
AcDbLayerTableRecord
  2
SCHRAFF
 70
     0
 62
     7
  6
CONTINUOUS
370
    -3
390
     0
  0
LAYER
  5
A5E
100
AcDbSymbolTableRecord
100
AcDbLayerTableRecord
  2
L
 70
     0
 62
     7
  6
CONTINUOUS
370
    -3
390
     0
  0
ENDTAB
  0
TABLE
  2
STYLE
  5
A5F
100
AcDbSymbolTable
 70
     2
  0
STYLE
  5
201
100
AcDbSymbolTableRecord
100
AcDbTextStyleTableRecord
  2
STANDARD
 70
     0
 40
0.000000
 41
1.000000
 50
0.000000
 71
     0
 42
3.500000
  3
txt
  4

  0
STYLE
  5
573
100
AcDbSymbolTableRecord
100
AcDbTextStyleTableRecord
  2
Arial
 70
     0
 40
0.000000
 41
1.000000
 50
0.000000
 71
     0
 42
3.500000
  3
Arial.ttf
  4

1001
ACAD
1000
Arial
1071
     0
  0
ENDTAB
  0
TABLE
  2
DIMSTYLE
  5
A60
100
AcDbSymbolTable
 70
     0
100
AcDbDimStyleTable
  0
ENDTAB
  0
TABLE
  2
VIEW
  5
A61
100
AcDbSymbolTable
 70
     0
  0
ENDTAB
  0
TABLE
  2
UCS
  5
A62
100
AcDbSymbolTable
 70
     0
  0
ENDTAB
  0
TABLE
  2
APPID
  5
A63
100
AcDbSymbolTable
 70
     1
  0
APPID
  5
A64
100
AcDbSymbolTableRecord
100
AcDbRegAppTableRecord
  2
ACAD
 70
     0
  0
ENDTAB
  0
TABLE
  2
BLOCK_RECORD
  5
A65
100
AcDbSymbolTable
 70
   101
  0
BLOCK_RECORD
  5
202
102
{ACAD_XDICTIONARY
360
203
102
}
100
AcDbSymbolTableRecord
100
AcDbBlockTableRecord
  2
*Model_Space
  0
BLOCK_RECORD
  5
A66
100
AcDbSymbolTableRecord
100
AcDbBlockTableRecord
  2
*Paper_Space
  0
BLOCK_RECORD
  5
A67
100
AcDbSymbolTableRecord
100
AcDbBlockTableRecord
  2
*Paper_Space0
  0
BLOCK_RECORD
  5
A68
100
AcDbSymbolTableRecord
100
AcDbBlockTableRecord
  2
B
  0
BLOCK_RECORD
  5
A69
100
AcDbSymbolTableRecord
100
AcDbBlockTableRecord
  2
B-2
  0
BLOCK_RECORD
  5
A6A
100
AcDbSymbolTableRecord
100
AcDbBlockTableRecord
  2
B-3
  0
BLOCK_RECORD
  5
A6B
100
AcDbSymbolTableRecord
100
AcDbBlockTableRecord
  2
B-4
  0
BLOCK_RECORD
  5
A6C
100
AcDbSymbolTableRecord
100
AcDbBlockTableRecord
  2
B-5
  0
BLOCK_RECORD
  5
A6D
100
AcDbSymbolTableRecord
100
AcDbBlockTableRecord
  2
B-6
  0
BLOCK_RECORD
  5
A6E
100
AcDbSymbolTableRecord
100
AcDbBlockTableRecord
  2
B-7
  0
BLOCK_RECORD
  5
A6F
100
AcDbSymbolTableRecord
100
AcDbBlockTableRecord
  2
B-8
  0
BLOCK_RECORD
  5
A70
100
AcDbSymbolTableRecord
100
AcDbBlockTableRecord
  2
B-9
  0
BLOCK_RECORD
  5
A71
100
AcDbSymbolTableRecord
100
AcDbBlockTableRecord
  2
B-10
  0
BLOCK_RECORD
  5
A72
100
AcDbSymbolTableRecord
100
AcDbBlockTableRecord
  2
B-11
  0
BLOCK_RECORD
  5
A73
100
AcDbSymbolTableRecord
100
AcDbBlockTableRecord
  2
B-12
  0
BLOCK_RECORD
  5
A74
100
AcDbSymbolTableRecord
100
AcDbBlockTableRecord
  2
B-13
  0
BLOCK_RECORD
  5
A75
100
AcDbSymbolTableRecord
100
AcDbBlockTableRecord
  2
B-14
  0
BLOCK_RECORD
  5
A76
100
AcDbSymbolTableRecord
100
AcDbBlockTableRecord
  2
B-15
  0
BLOCK_RECORD
  5
A77
100
AcDbSymbolTableRecord
100
AcDbBlockTableRecord
  2
B-16
  0
BLOCK_RECORD
  5
A78
100
AcDbSymbolTableRecord
100
AcDbBlockTableRecord
  2
B-17
  0
BLOCK_RECORD
  5
A79
100
AcDbSymbolTableRecord
100
AcDbBlockTableRecord
  2
B-18
  0
BLOCK_RECORD
  5
A7A
100
AcDbSymbolTableRecord
100
AcDbBlockTableRecord
  2
B-19
  0
BLOCK_RECORD
  5
A7B
100
AcDbSymbolTableRecord
100
AcDbBlockTableRecord
  2
B-20
  0
BLOCK_RECORD
  5
A7C
100
AcDbSymbolTableRecord
100
AcDbBlockTableRecord
  2
B-21
  0
BLOCK_RECORD
  5
A7D
100
AcDbSymbolTableRecord
100
AcDbBlockTableRecord
  2
B-22
  0
BLOCK_RECORD
  5
A7E
100
AcDbSymbolTableRecord
100
AcDbBlockTableRecord
  2
B-23
  0
BLOCK_RECORD
  5
A7F
100
AcDbSymbolTableRecord
100
AcDbBlockTableRecord
  2
B-24
  0
BLOCK_RECORD
  5
A80
100
AcDbSymbolTableRecord
100
AcDbBlockTableRecord
  2
B-25
  0
BLOCK_RECORD
  5
A81
100
AcDbSymbolTableRecord
100
AcDbBlockTableRecord
  2
B-26
  0
BLOCK_RECORD
  5
A82
100
AcDbSymbolTableRecord
100
AcDbBlockTableRecord
  2
B-27
  0
BLOCK_RECORD
  5
A83
100
AcDbSymbolTableRecord
100
AcDbBlockTableRecord
  2
B-28
  0
BLOCK_RECORD
  5
A84
100
AcDbSymbolTableRecord
100
AcDbBlockTableRecord
  2
B-29
  0
BLOCK_RECORD
  5
A85
100
AcDbSymbolTableRecord
100
AcDbBlockTableRecord
  2
B-30
  0
BLOCK_RECORD
  5
A86
100
AcDbSymbolTableRecord
100
AcDbBlockTableRecord
  2
B-31
  0
BLOCK_RECORD
  5
A87
100
AcDbSymbolTableRecord
100
AcDbBlockTableRecord
  2
B-32
  0
BLOCK_RECORD
  5
A88
100
AcDbSymbolTableRecord
100
AcDbBlockTableRecord
  2
B-33
  0
BLOCK_RECORD
  5
A89
100
AcDbSymbolTableRecord
100
AcDbBlockTableRecord
  2
B-34
  0
BLOCK_RECORD
  5
A8A
100
AcDbSymbolTableRecord
100
AcDbBlockTableRecord
  2
B-35
  0
BLOCK_RECORD
  5
A8B
100
AcDbSymbolTableRecord
100
AcDbBlockTableRecord
  2
B-36
  0
BLOCK_RECORD
  5
A8C
100
AcDbSymbolTableRecord
100
AcDbBlockTableRecord
  2
B-37
  0
BLOCK_RECORD
  5
A8D
100
AcDbSymbolTableRecord
100
AcDbBlockTableRecord
  2
B-38
  0
BLOCK_RECORD
  5
A8E
100
AcDbSymbolTableRecord
100
AcDbBlockTableRecord
  2
B-39
  0
BLOCK_RECORD
  5
A8F
100
AcDbSymbolTableRecord
100
AcDbBlockTableRecord
  2
B-40
  0
BLOCK_RECORD
  5
A90
100
AcDbSymbolTableRecord
100
AcDbBlockTableRecord
  2
B-41
  0
BLOCK_RECORD
  5
A91
100
AcDbSymbolTableRecord
100
AcDbBlockTableRecord
  2
B-42
  0
BLOCK_RECORD
  5
A92
100
AcDbSymbolTableRecord
100
AcDbBlockTableRecord
  2
B-43
  0
BLOCK_RECORD
  5
A93
100
AcDbSymbolTableRecord
100
AcDbBlockTableRecord
  2
B-44
  0
BLOCK_RECORD
  5
A94
100
AcDbSymbolTableRecord
100
AcDbBlockTableRecord
  2
B-45
  0
BLOCK_RECORD
  5
A95
100
AcDbSymbolTableRecord
100
AcDbBlockTableRecord
  2
B-46
  0
BLOCK_RECORD
  5
A96
100
AcDbSymbolTableRecord
100
AcDbBlockTableRecord
  2
B-47
  0
BLOCK_RECORD
  5
A97
100
AcDbSymbolTableRecord
100
AcDbBlockTableRecord
  2
B-48
  0
BLOCK_RECORD
  5
A98
100
AcDbSymbolTableRecord
100
AcDbBlockTableRecord
  2
B-49
  0
BLOCK_RECORD
  5
A99
100
AcDbSymbolTableRecord
100
AcDbBlockTableRecord
  2
B-50
  0
BLOCK_RECORD
  5
A9A
100
AcDbSymbolTableRecord
100
AcDbBlockTableRecord
  2
B-51
  0
BLOCK_RECORD
  5
A9B
100
AcDbSymbolTableRecord
100
AcDbBlockTableRecord
  2
B-52
  0
BLOCK_RECORD
  5
A9C
100
AcDbSymbolTableRecord
100
AcDbBlockTableRecord
  2
B-53
  0
BLOCK_RECORD
  5
A9D
100
AcDbSymbolTableRecord
100
AcDbBlockTableRecord
  2
B-54
  0
BLOCK_RECORD
  5
A9E
100
AcDbSymbolTableRecord
100
AcDbBlockTableRecord
  2
B-55
  0
BLOCK_RECORD
  5
A9F
100
AcDbSymbolTableRecord
100
AcDbBlockTableRecord
  2
B-56
  0
BLOCK_RECORD
  5
AA0
100
AcDbSymbolTableRecord
100
AcDbBlockTableRecord
  2
B-57
  0
BLOCK_RECORD
  5
AA1
100
AcDbSymbolTableRecord
100
AcDbBlockTableRecord
  2
B-58
  0
BLOCK_RECORD
  5
AA2
100
AcDbSymbolTableRecord
100
AcDbBlockTableRecord
  2
B-59
  0
BLOCK_RECORD
  5
AA3
100
AcDbSymbolTableRecord
100
AcDbBlockTableRecord
  2
B-60
  0
BLOCK_RECORD
  5
AA4
100
AcDbSymbolTableRecord
100
AcDbBlockTableRecord
  2
B-61
  0
BLOCK_RECORD
  5
AA5
100
AcDbSymbolTableRecord
100
AcDbBlockTableRecord
  2
B-62
  0
BLOCK_RECORD
  5
AA6
100
AcDbSymbolTableRecord
100
AcDbBlockTableRecord
  2
B-63
  0
BLOCK_RECORD
  5
AA7
100
AcDbSymbolTableRecord
100
AcDbBlockTableRecord
  2
B-64
  0
BLOCK_RECORD
  5
AA8
100
AcDbSymbolTableRecord
100
AcDbBlockTableRecord
  2
B-65
  0
BLOCK_RECORD
  5
AA9
100
AcDbSymbolTableRecord
100
AcDbBlockTableRecord
  2
B-67
  0
BLOCK_RECORD
  5
AAA
100
AcDbSymbolTableRecord
100
AcDbBlockTableRecord
  2
B-68
  0
BLOCK_RECORD
  5
AAB
100
AcDbSymbolTableRecord
100
AcDbBlockTableRecord
  2
B-69
  0
BLOCK_RECORD
  5
AAC
100
AcDbSymbolTableRecord
100
AcDbBlockTableRecord
  2
B-70
  0
BLOCK_RECORD
  5
AAD
100
AcDbSymbolTableRecord
100
AcDbBlockTableRecord
  2
B-71
  0
BLOCK_RECORD
  5
AAE
100
AcDbSymbolTableRecord
100
AcDbBlockTableRecord
  2
B-72
  0
BLOCK_RECORD
  5
AAF
100
AcDbSymbolTableRecord
100
AcDbBlockTableRecord
  2
B-73
  0
BLOCK_RECORD
  5
AB0
100
AcDbSymbolTableRecord
100
AcDbBlockTableRecord
  2
B-74
  0
BLOCK_RECORD
  5
AB1
100
AcDbSymbolTableRecord
100
AcDbBlockTableRecord
  2
B-75
  0
BLOCK_RECORD
  5
AB2
100
AcDbSymbolTableRecord
100
AcDbBlockTableRecord
  2
B-76
  0
BLOCK_RECORD
  5
AB3
100
AcDbSymbolTableRecord
100
AcDbBlockTableRecord
  2
B-77
  0
BLOCK_RECORD
  5
AB4
100
AcDbSymbolTableRecord
100
AcDbBlockTableRecord
  2
B-78
  0
BLOCK_RECORD
  5
AB5
100
AcDbSymbolTableRecord
100
AcDbBlockTableRecord
  2
B-79
  0
BLOCK_RECORD
  5
AB6
100
AcDbSymbolTableRecord
100
AcDbBlockTableRecord
  2
B-80
  0
BLOCK_RECORD
  5
AB7
100
AcDbSymbolTableRecord
100
AcDbBlockTableRecord
  2
B-82
  0
BLOCK_RECORD
  5
AB8
100
AcDbSymbolTableRecord
100
AcDbBlockTableRecord
  2
B-83
  0
BLOCK_RECORD
  5
AB9
100
AcDbSymbolTableRecord
100
AcDbBlockTableRecord
  2
B-84
  0
BLOCK_RECORD
  5
ABA
100
AcDbSymbolTableRecord
100
AcDbBlockTableRecord
  2
B-85
  0
BLOCK_RECORD
  5
ABB
100
AcDbSymbolTableRecord
100
AcDbBlockTableRecord
  2
B-86
  0
BLOCK_RECORD
  5
ABC
100
AcDbSymbolTableRecord
100
AcDbBlockTableRecord
  2
B-87
  0
BLOCK_RECORD
  5
ABD
100
AcDbSymbolTableRecord
100
AcDbBlockTableRecord
  2
B-88
  0
BLOCK_RECORD
  5
ABE
100
AcDbSymbolTableRecord
100
AcDbBlockTableRecord
  2
B-89
  0
BLOCK_RECORD
  5
ABF
100
AcDbSymbolTableRecord
100
AcDbBlockTableRecord
  2
B-90
  0
BLOCK_RECORD
  5
AC0
100
AcDbSymbolTableRecord
100
AcDbBlockTableRecord
  2
B-91
  0
BLOCK_RECORD
  5
AC1
100
AcDbSymbolTableRecord
100
AcDbBlockTableRecord
  2
B-92
  0
BLOCK_RECORD
  5
AC2
100
AcDbSymbolTableRecord
100
AcDbBlockTableRecord
  2
B-93
  0
BLOCK_RECORD
  5
AC3
100
AcDbSymbolTableRecord
100
AcDbBlockTableRecord
  2
B-95
  0
BLOCK_RECORD
  5
AC4
100
AcDbSymbolTableRecord
100
AcDbBlockTableRecord
  2
B-96
  0
BLOCK_RECORD
  5
AC5
100
AcDbSymbolTableRecord
100
AcDbBlockTableRecord
  2
B-97
  0
BLOCK_RECORD
  5
AC6
100
AcDbSymbolTableRecord
100
AcDbBlockTableRecord
  2
B-98
  0
BLOCK_RECORD
  5
AC7
100
AcDbSymbolTableRecord
100
AcDbBlockTableRecord
  2
B-99
  0
BLOCK_RECORD
  5
AC8
100
AcDbSymbolTableRecord
100
AcDbBlockTableRecord
  2
B-100
  0
BLOCK_RECORD
  5
AC9
100
AcDbSymbolTableRecord
100
AcDbBlockTableRecord
  2
B-101
  0
ENDTAB
  0
ENDSEC
  0
SECTION
  2
BLOCKS
  0
BLOCK
  5
204
100
AcDbEntity
  8
0
100
AcDbBlockBegin
  2
*Model_Space
 70
     0
 10
0.000000
 20
0.000000
 30
0.000000
  3
*Model_Space
  1

  0
ENDBLK
  5
205
100
AcDbEntity
  8
0
100
AcDbBlockEnd
  0
BLOCK
  5
206
100
AcDbEntity
 67
     1
  8
0
100
AcDbBlockBegin
  2
*Paper_Space
 70
     0
 10
0.000000
 20
0.000000
 30
0.000000
  3
*Paper_Space
  1

  0
ENDBLK
  5
207
100
AcDbEntity
 67
     1
  8
0
100
AcDbBlockEnd
  0
BLOCK
  5
208
100
AcDbEntity
 67
     1
  8
0
100
AcDbBlockBegin
  2
*Paper_Space0
 70
     0
 10
0.000000
 20
0.000000
 30
0.000000
  3
*Paper_Space0
  1

  0
ENDBLK
  5
209
100
AcDbEntity
 67
     1
  8
0
100
AcDbBlockEnd
  0
BLOCK
  5
20A
100
AcDbEntity
  8
SCHRAFF
100
AcDbBlockBegin
  2
B
 70
    66
 10
0.000000
 20
0.000000
 30
0.000000
  0
HATCH
  5
20B
100
AcDbEntity
  8
SCHRAFF
 62
     8
440
     0
100
AcDbHatch
 10
0.000000
 20
0.000000
 30
0.000000
210
0.000000
220
0.000000
230
1.000000
  2
SOLID
 70
     1
 71
     1
 91
     1
 92
    18
 72
     1
 73
     0
 93
     5
 10
165.499982
 20
-31.249941
 42
-0.400000
 10
155.499982
 20
-31.249941
 42
0.000000
 10
155.499982
 20
-39.249941
 42
0.000000
 10
165.499982
 20
-39.249941
 42
0.000000
 10
165.499982
 20
-31.249941
 42
0.000000
 97
     0
 75
     0
 76
     1
 98
     0
  0
ENDBLK
  5
20C
100
AcDbEntity
  8
0
100
AcDbBlockEnd
  0
BLOCK
  5
20D
100
AcDbEntity
  8
SCHRAFF
100
AcDbBlockBegin
  2
B-2
 70
    66
 10
0.000000
 20
0.000000
 30
0.000000
  0
HATCH
  5
20E
100
AcDbEntity
  8
SCHRAFF
 62
   254
440
     0
100
AcDbHatch
 10
0.000000
 20
0.000000
 30
0.000000
210
0.000000
220
0.000000
230
1.000000
  2
SOLID
 70
     1
 71
     1
 91
     1
 92
    18
 72
     1
 73
     0
 93
     5
 10
-152.500018
 20
-51.249941
 42
0.000000
 10
-152.500018
 20
-131.249941
 42
0.000000
 10
-150.500018
 20
-131.249941
 42
0.000000
 10
-150.500018
 20
-51.249941
 42
0.000000
 10
-152.500018
 20
-51.249941
 42
0.000000
 97
     0
 75
     0
 76
     1
 98
     0
  0
ENDBLK
  5
20F
100
AcDbEntity
  8
0
100
AcDbBlockEnd
  0
BLOCK
  5
210
100
AcDbEntity
  8
Detail
100
AcDbBlockBegin
  2
B-3
 70
    66
 10
0.000000
 20
0.000000
 30
0.000000
  0
LWPOLYLINE
  5
211
100
AcDbEntity
  8
Detail
  6
CONTINUOUS
 62
     6
100
AcDbPolyline
 90
     5
 10
-150.500018
 20
-51.249941
 42
0.000000
 10
-152.500018
 20
-51.249941
 42
0.000000
 10
-152.500018
 20
-131.249941
 42
0.000000
 10
-150.500018
 20
-131.249941
 42
0.000000
 10
-150.500018
 20
-51.249941
 42
0.000000
  0
ENDBLK
  5
217
100
AcDbEntity
  8
0
100
AcDbBlockEnd
  0
BLOCK
  5
218
100
AcDbEntity
  8
SCHRAFF
100
AcDbBlockBegin
  2
B-4
 70
    66
 10
0.000000
 20
0.000000
 30
0.000000
  0
HATCH
  5
219
100
AcDbEntity
  8
SCHRAFF
 62
    21
440
     0
100
AcDbHatch
 10
0.000000
 20
0.000000
 30
0.000000
210
0.000000
220
0.000000
230
1.000000
  2
SOLID
 70
     1
 71
     1
 91
     1
 92
    18
 72
     1
 73
     0
 93
   320
 10
-63.500018
 20
-21.249941
 42
0.000000
 10
-61.500018
 20
-19.249941
 42
0.000000
 10
-61.500018
 20
-18.249941
 42
0.000000
 10
-62.000018
 20
-17.249941
 42
0.000000
 10
-61.500018
 20
-16.249941
 42
0.000000
 10
-61.500018
 20
-15.249941
 42
0.000000
 10
-61.000018
 20
-14.249941
 42
0.000000
 10
-61.500018
 20
-13.249941
 42
0.000000
 10
-61.500018
 20
-12.249941
 42
0.000000
 10
-62.000018
 20
-11.249941
 42
0.000000
 10
-61.500018
 20
-10.249941
 42
0.000000
 10
-61.500018
 20
-9.257608
 42
0.000000
 10
-61.000018
 20
-8.249941
 42
0.000000
 10
-61.500018
 20
-7.249941
 42
0.000000
 10
-61.500018
 20
-6.249941
 42
0.000000
 10
-62.000018
 20
-5.249941
 42
0.000000
 10
-61.500018
 20
-4.249941
 42
0.000000
 10
-61.500018
 20
-3.249941
 42
0.000000
 10
-61.000018
 20
-2.249941
 42
0.000000
 10
-61.500018
 20
-1.249941
 42
0.000000
 10
-61.500018
 20
-0.249941
 42
0.000000
 10
-62.000018
 20
0.750059
 42
0.000000
 10
-61.500018
 20
1.750059
 42
0.000000
 10
-61.500018
 20
2.750059
 42
0.000000
 10
-61.000018
 20
3.750059
 42
0.000000
 10
-61.500018
 20
4.750059
 42
0.000000
 10
-61.500018
 20
5.750059
 42
0.000000
 10
-62.000018
 20
6.750059
 42
0.000000
 10
-61.500018
 20
7.750059
 42
0.000000
 10
-61.500018
 20
8.750059
 42
0.000000
 10
-61.000018
 20
9.750059
 42
0.000000
 10
-61.500018
 20
10.750059
 42
0.000000
 10
-61.500018
 20
11.750059
 42
0.000000
 10
-62.000018
 20
12.750059
 42
0.000000
 10
-61.500018
 20
13.750059
 42
0.000000
 10
-61.500018
 20
14.750059
 42
0.000000
 10
-61.000018
 20
15.750059
 42
0.000000
 10
-61.500018
 20
16.750059
 42
0.000000
 10
-61.500018
 20
17.750059
 42
0.000000
 10
-62.000018
 20
18.750059
 42
0.000000
 10
-61.500018
 20
19.750059
 42
0.000000
 10
-61.500018
 20
20.750059
 42
0.000000
 10
-61.000018
 20
21.750059
 42
0.000000
 10
-61.500018
 20
22.750059
 42
0.000000
 10
-61.500018
 20
23.750059
 42
0.000000
 10
-62.000018
 20
24.750059
 42
0.000000
 10
-61.500018
 20
25.750059
 42
0.000000
 10
-61.500018
 20
26.750059
 42
0.000000
 10
-61.000018
 20
27.750059
 42
0.000000
 10
-61.500018
 20
28.750059
 42
0.000000
 10
-61.500018
 20
29.750059
 42
0.000000
 10
-62.000018
 20
30.750059
 42
0.000000
 10
-61.500018
 20
31.750059
 42
0.000000
 10
-61.500018
 20
32.750059
 42
0.000000
 10
-61.000018
 20
33.750059
 42
0.000000
 10
-61.500018
 20
34.750059
 42
0.000000
 10
-61.500018
 20
35.750059
 42
0.000000
 10
-62.000018
 20
36.750059
 42
0.000000
 10
-61.500018
 20
37.750059
 42
0.000000
 10
-61.500018
 20
38.750059
 42
0.000000
 10
-61.000018
 20
39.750059
 42
0.000000
 10
-61.500018
 20
40.750059
 42
0.000000
 10
-61.500018
 20
41.750059
 42
0.000000
 10
-62.000018
 20
42.750059
 42
0.000000
 10
-61.500018
 20
43.750059
 42
0.000000
 10
-61.500018
 20
44.750059
 42
0.000000
 10
-61.000018
 20
45.750059
 42
0.000000
 10
-61.500018
 20
46.750059
 42
0.000000
 10
-61.500018
 20
47.750059
 42
0.000000
 10
-62.000018
 20
48.750059
 42
0.000000
 10
-61.500018
 20
49.750059
 42
0.000000
 10
-61.500018
 20
50.750059
 42
0.000000
 10
-61.000018
 20
51.750059
 42
0.000000
 10
-61.500018
 20
52.750059
 42
0.000000
 10
-61.500018
 20
53.750059
 42
0.000000
 10
-62.000018
 20
54.750059
 42
0.000000
 10
-61.500018
 20
55.750059
 42
0.000000
 10
-61.500018
 20
56.750059
 42
0.000000
 10
-61.000018
 20
57.750059
 42
0.000000
 10
-61.500018
 20
58.750059
 42
0.000000
 10
-61.500018
 20
59.750059
 42
0.000000
 10
-62.000018
 20
60.750059
 42
0.000000
 10
-61.500018
 20
61.750059
 42
0.000000
 10
-61.500018
 20
62.750059
 42
0.000000
 10
-61.000018
 20
63.750059
 42
0.000000
 10
-61.500018
 20
64.750059
 42
0.000000
 10
-61.500018
 20
65.750059
 42
0.000000
 10
-62.000018
 20
66.750059
 42
0.000000
 10
-61.500018
 20
67.750059
 42
0.000000
 10
-61.500018
 20
68.750059
 42
0.000000
 10
-61.000018
 20
69.750059
 42
0.000000
 10
-61.500018
 20
70.750059
 42
0.000000
 10
-61.500018
 20
71.750059
 42
0.000000
 10
-62.000018
 20
72.750059
 42
0.000000
 10
-61.500018
 20
73.750059
 42
0.000000
 10
-61.500018
 20
74.750059
 42
0.000000
 10
-61.000018
 20
75.750059
 42
0.000000
 10
-61.500018
 20
76.750059
 42
0.000000
 10
-61.500018
 20
77.750059
 42
0.000000
 10
-62.000018
 20
78.750059
 42
0.000000
 10
-61.500018
 20
79.750059
 42
0.000000
 10
-61.500018
 20
80.750059
 42
0.000000
 10
-61.000018
 20
81.750059
 42
0.000000
 10
-61.500018
 20
82.750059
 42
0.000000
 10
-61.500018
 20
83.750059
 42
0.000000
 10
-62.000018
 20
84.750059
 42
0.000000
 10
-61.500018
 20
85.750059
 42
0.000000
 10
-61.500018
 20
86.750059
 42
0.000000
 10
-61.000018
 20
87.750059
 42
0.000000
 10
-61.500018
 20
88.750059
 42
0.000000
 10
-61.500018
 20
89.750059
 42
0.000000
 10
-62.000018
 20
90.750059
 42
0.000000
 10
-61.500018
 20
91.750059
 42
0.000000
 10
-61.500018
 20
92.750059
 42
0.000000
 10
-61.000018
 20
93.750059
 42
0.000000
 10
-61.500018
 20
94.750059
 42
0.000000
 10
-61.500018
 20
95.750059
 42
0.000000
 10
-62.000018
 20
96.750059
 42
0.000000
 10
-61.500018
 20
97.750059
 42
0.000000
 10
-61.500018
 20
98.750059
 42
0.000000
 10
-61.000018
 20
99.750059
 42
0.000000
 10
-61.500018
 20
100.750059
 42
0.000000
 10
-61.500018
 20
101.750059
 42
0.000000
 10
-62.000018
 20
102.750059
 42
0.000000
 10
-61.500018
 20
103.750059
 42
0.000000
 10
-61.500018
 20
104.750059
 42
0.000000
 10
-61.000018
 20
105.750059
 42
0.000000
 10
-61.500018
 20
106.750059
 42
0.000000
 10
-61.500018
 20
107.750059
 42
0.000000
 10
-62.000018
 20
108.750059
 42
0.000000
 10
-61.500018
 20
109.750059
 42
0.000000
 10
-61.500018
 20
110.750059
 42
0.000000
 10
-61.000018
 20
111.750059
 42
0.000000
 10
-61.500018
 20
112.750059
 42
0.000000
 10
-61.500018
 20
113.750059
 42
0.000000
 10
-62.000018
 20
114.750059
 42
0.000000
 10
-61.500018
 20
115.750059
 42
0.000000
 10
-61.500018
 20
116.750059
 42
0.000000
 10
-61.000018
 20
117.750059
 42
0.000000
 10
-61.500018
 20
118.750059
 42
0.000000
 10
-61.500018
 20
119.750059
 42
0.000000
 10
-62.000018
 20
120.750059
 42
0.000000
 10
-61.500018
 20
121.750059
 42
0.000000
 10
-61.500018
 20
122.750059
 42
0.000000
 10
-61.000018
 20
123.750059
 42
0.000000
 10
-61.500018
 20
124.750059
 42
0.000000
 10
-61.500018
 20
125.750059
 42
0.000000
 10
-62.000018
 20
126.750059
 42
0.000000
 10
-61.500018
 20
127.750059
 42
0.000000
 10
-61.500018
 20
128.742392
 42
0.000000
 10
-61.000018
 20
129.750059
 42
0.000000
 10
-61.500018
 20
130.750059
 42
0.000000
 10
-61.500018
 20
131.750059
 42
0.000000
 10
-62.000018
 20
132.750059
 42
0.000000
 10
-61.500018
 20
133.750059
 42
0.000000
 10
-61.500018
 20
134.750059
 42
0.000000
 10
-61.000018
 20
135.750059
 42
0.000000
 10
-61.500018
 20
136.750059
 42
0.000000
 10
-61.500018
 20
137.750059
 42
0.000000
 10
-62.000018
 20
138.750059
 42
0.000000
 10
-61.500018
 20
139.750059
 42
0.000000
 10
-61.500018
 20
140.750059
 42
0.000000
 10
-61.000018
 20
141.750059
 42
0.000000
 10
-61.500018
 20
142.750059
 42
0.000000
 10
-61.500018
 20
143.750059
 42
0.000000
 10
-62.000018
 20
144.750059
 42
0.000000
 10
-61.500018
 20
145.750059
 42
0.000000
 10
-61.500018
 20
146.750059
 42
0.000000
 10
-61.000018
 20
147.750059
 42
0.000000
 10
-61.500018
 20
148.750059
 42
0.000000
 10
-61.500018
 20
149.750059
 42
0.000000
 10
-62.000018
 20
150.750059
 42
0.000000
 10
-61.500018
 20
151.750059
 42
0.000000
 10
-61.500018
 20
152.750059
 42
0.000000
 10
-61.000018
 20
153.750059
 42
0.000000
 10
-61.500018
 20
154.750059
 42
0.000000
 10
-61.500018
 20
155.750059
 42
0.000000
 10
-62.000018
 20
156.750059
 42
0.000000
 10
-61.500018
 20
157.750059
 42
0.000000
 10
-61.500018
 20
158.750059
 42
0.000000
 10
-61.000018
 20
159.750059
 42
0.000000
 10
-61.495620
 20
160.741263
 42
0.000000
 10
-61.500018
 20
161.750059
 42
0.000000
 10
-62.000018
 20
162.750059
 42
0.000000
 10
-61.500018
 20
163.750059
 42
0.000000
 10
-61.500018
 20
164.750059
 42
0.000000
 10
-61.000018
 20
165.750059
 42
0.000000
 10
-61.500018
 20
166.750059
 42
0.000000
 10
-61.500018
 20
167.750059
 42
0.000000
 10
-62.000018
 20
168.750059
 42
0.000000
 10
-61.500018
 20
169.750059
 42
0.000000
 10
-61.500018
 20
170.750059
 42
0.000000
 10
-61.000018
 20
171.750059
 42
0.000000
 10
-61.500018
 20
172.750059
 42
0.000000
 10
-61.500018
 20
173.750059
 42
0.000000
 10
-62.000018
 20
174.750059
 42
0.000000
 10
-61.500018
 20
175.750059
 42
0.000000
 10
-61.500018
 20
176.750059
 42
0.000000
 10
-61.000018
 20
177.750059
 42
0.000000
 10
-61.500018
 20
178.750059
 42
0.000000
 10
-61.500018
 20
179.750059
 42
0.000000
 10
-62.000018
 20
180.750059
 42
0.000000
 10
-61.500018
 20
181.750059
 42
0.000000
 10
-61.500018
 20
182.750059
 42
0.000000
 10
-61.000018
 20
183.750059
 42
0.000000
 10
-61.500018
 20
184.750059
 42
0.000000
 10
-61.500018
 20
185.750059
 42
0.000000
 10
-62.000018
 20
186.750059
 42
0.000000
 10
-61.500018
 20
187.750059
 42
0.000000
 10
-61.500018
 20
188.750059
 42
0.000000
 10
-61.000018
 20
189.750059
 42
0.000000
 10
-61.500018
 20
190.750059
 42
0.000000
 10
-61.500018
 20
191.750059
 42
0.000000
 10
-62.000018
 20
192.750059
 42
0.000000
 10
-61.500018
 20
193.750059
 42
0.000000
 10
-61.500018
 20
194.750059
 42
0.000000
 10
-61.000018
 20
195.750059
 42
0.000000
 10
-61.500018
 20
196.750059
 42
0.000000
 10
-61.500018
 20
197.750059
 42
0.000000
 10
-62.000018
 20
198.750059
 42
0.000000
 10
-61.500018
 20
199.750059
 42
0.000000
 10
-61.500018
 20
200.750059
 42
0.000000
 10
-61.000018
 20
201.750059
 42
0.000000
 10
-61.500018
 20
202.750059
 42
0.000000
 10
-61.500018
 20
203.750059
 42
0.000000
 10
-62.000018
 20
204.750059
 42
0.000000
 10
-61.500018
 20
205.750059
 42
0.000000
 10
-61.500018
 20
206.750059
 42
0.000000
 10
-61.000018
 20
207.750059
 42
0.000000
 10
-61.500018
 20
208.750059
 42
0.000000
 10
-61.500018
 20
209.750059
 42
0.000000
 10
-62.000018
 20
210.750059
 42
0.000000
 10
-61.500018
 20
211.750059
 42
0.000000
 10
-61.500018
 20
212.750059
 42
0.000000
 10
-61.000018
 20
213.750059
 42
0.000000
 10
-61.500018
 20
214.750059
 42
0.000000
 10
-61.500018
 20
215.750059
 42
0.000000
 10
-62.000018
 20
216.750059
 42
0.000000
 10
-61.500018
 20
217.750059
 42
0.000000
 10
-61.500018
 20
218.750059
 42
0.000000
 10
-61.000018
 20
219.750059
 42
0.000000
 10
-61.500018
 20
220.750059
 42
0.000000
 10
-61.500018
 20
221.750059
 42
0.000000
 10
-62.000018
 20
222.750059
 42
0.000000
 10
-61.500018
 20
223.750059
 42
0.000000
 10
-61.500018
 20
224.750059
 42
0.000000
 10
-61.000018
 20
225.750059
 42
0.000000
 10
-61.500018
 20
226.750059
 42
0.000000
 10
-61.500018
 20
227.750059
 42
0.000000
 10
-62.000018
 20
228.750059
 42
0.000000
 10
-61.500018
 20
229.750059
 42
0.000000
 10
-61.500018
 20
230.750059
 42
0.000000
 10
-61.000018
 20
231.750059
 42
0.000000
 10
-61.500018
 20
232.750059
 42
0.000000
 10
-61.500018
 20
233.750059
 42
0.000000
 10
-62.000018
 20
234.750059
 42
0.000000
 10
-61.500018
 20
235.750059
 42
0.000000
 10
-61.500018
 20
236.742392
 42
0.000000
 10
-61.000018
 20
237.750059
 42
0.000000
 10
-61.500018
 20
238.750059
 42
0.000000
 10
-61.500018
 20
239.750059
 42
0.000000
 10
-62.000018
 20
240.750059
 42
0.000000
 10
-61.500018
 20
241.750059
 42
0.000000
 10
-61.500018
 20
242.750059
 42
0.000000
 10
-61.000018
 20
243.750059
 42
0.000000
 10
-61.500018
 20
244.750059
 42
0.000000
 10
-61.500018
 20
245.750059
 42
0.000000
 10
-62.000018
 20
246.750059
 42
0.000000
 10
-61.500018
 20
247.750059
 42
0.000000
 10
-61.500018
 20
248.750059
 42
0.000000
 10
-61.000018
 20
249.750059
 42
0.000000
 10
-61.500018
 20
250.750059
 42
0.000000
 10
-61.500018
 20
251.750059
 42
0.000000
 10
-62.000018
 20
252.750059
 42
0.000000
 10
-61.500018
 20
253.750059
 42
0.000000
 10
-61.500018
 20
254.750059
 42
0.000000
 10
-61.000018
 20
255.750059
 42
0.000000
 10
-61.500018
 20
256.750059
 42
0.000000
 10
-61.500018
 20
257.750059
 42
0.000000
 10
-62.000018
 20
258.750059
 42
0.000000
 10
-61.500018
 20
259.750059
 42
0.000000
 10
-61.500018
 20
260.750059
 42
0.000000
 10
-61.000018
 20
261.750059
 42
0.000000
 10
-61.500018
 20
262.750059
 42
0.000000
 10
-61.500018
 20
263.750059
 42
0.000000
 10
-62.000018
 20
264.750059
 42
0.000000
 10
-61.500018
 20
265.750059
 42
0.000000
 10
-61.500018
 20
266.750059
 42
0.000000
 10
-61.000018
 20
267.750059
 42
0.000000
 10
-61.500018
 20
268.750059
 42
0.000000
 10
-61.500018
 20
269.750059
 42
0.000000
 10
-62.000018
 20
270.750059
 42
0.000000
 10
-61.500018
 20
271.750059
 42
0.000000
 10
-61.500018
 20
272.742392
 42
0.000000
 10
-61.000018
 20
273.750059
 42
0.000000
 10
-61.500018
 20
274.750059
 42
0.000000
 10
-61.500018
 20
275.750059
 42
0.000000
 10
-62.000018
 20
276.750059
 42
0.000000
 10
-61.500018
 20
277.750059
 42
0.000000
 10
-61.500018
 20
278.750059
 42
0.000000
 10
-61.000018
 20
279.750059
 42
0.000000
 10
-61.500018
 20
280.750059
 42
0.000000
 10
-61.500018
 20
281.750059
 42
0.000000
 10
-62.000018
 20
282.750059
 42
0.000000
 10
-61.500018
 20
283.750059
 42
0.000000
 10
-61.500018
 20
284.749959
 42
0.000000
 10
-61.000018
 20
285.749959
 42
0.000000
 10
-61.500018
 20
286.750059
 42
0.000000
 10
-61.500018
 20
287.750059
 42
0.000000
 10
-62.000018
 20
288.750059
 42
0.000000
 10
-61.500018
 20
289.750059
 42
0.000000
 10
-61.500018
 20
290.742392
 42
0.000000
 10
-61.000018
 20
291.750059
 42
0.000000
 10
-61.500018
 20
292.750059
 42
0.000000
 10
-61.500018
 20
293.750059
 42
0.000000
 10
-62.000018
 20
294.750059
 42
0.000000
 10
-61.500018
 20
295.750059
 42
0.000000
 10
-61.500018
 20
296.250078
 42
0.000000
 10
-63.500018
 20
296.250078
 42
0.000000
 10
-63.500018
 20
-21.249941
 42
0.000000
 97
     0
 75
     0
 76
     1
 98
     0
  0
ENDBLK
  5
21A
100
AcDbEntity
  8
0
100
AcDbBlockEnd
  0
BLOCK
  5
21B
100
AcDbEntity
  8
SCHRAFF
100
AcDbBlockBegin
  2
B-5
 70
    66
 10
0.000000
 20
0.000000
 30
0.000000
  0
HATCH
  5
21C
100
AcDbEntity
  8
SCHRAFF
 62
   254
440
     0
100
AcDbHatch
 10
0.000000
 20
0.000000
 30
0.000000
210
0.000000
220
0.000000
230
1.000000
  2
SOLID
 70
     1
 71
     1
 91
     1
 92
    18
 72
     1
 73
     0
 93
     5
 10
-152.500018
 20
28.750059
 42
0.000000
 10
-147.500018
 20
28.750059
 42
0.000000
 10
-147.500018
 20
296.250078
 42
0.000000
 10
-152.500018
 20
296.250078
 42
0.000000
 10
-152.500018
 20
28.750059
 42
0.000000
 97
     0
 75
     0
 76
     1
 98
     0
  0
ENDBLK
  5
21D
100
AcDbEntity
  8
0
100
AcDbBlockEnd
  0
BLOCK
  5
21E
100
AcDbEntity
  8
SCHRAFF
100
AcDbBlockBegin
  2
B-6
 70
    66
 10
0.000000
 20
0.000000
 30
0.000000
  0
HATCH
  5
21F
100
AcDbEntity
  8
SCHRAFF
 62
   250
440
     0
100
AcDbHatch
 10
0.000000
 20
0.000000
 30
0.000000
210
0.000000
220
0.000000
230
1.000000
  2
SOLID
 70
     1
 71
     1
 91
     1
 92
    18
 72
     1
 73
     0
 93
     5
 10
-152.500018
 20
28.750059
 42
0.000000
 10
-152.500018
 20
-21.249941
 42
0.000000
 10
-149.500018
 20
-21.249941
 42
0.000000
 10
-149.500018
 20
28.750059
 42
0.000000
 10
-152.500018
 20
28.750059
 42
0.000000
 97
     0
 75
     0
 76
     1
 98
     0
  0
ENDBLK
  5
220
100
AcDbEntity
  8
0
100
AcDbBlockEnd
  0
BLOCK
  5
221
100
AcDbEntity
  8
Detail
100
AcDbBlockBegin
  2
B-7
 70
    66
 10
0.000000
 20
0.000000
 30
0.000000
  0
LWPOLYLINE
  5
222
100
AcDbEntity
  8
Detail
  6
CONTINUOUS
 62
     4
100
AcDbPolyline
 90
     5
 10
-149.500018
 20
28.750059
 42
0.000000
 10
-152.500018
 20
28.750059
 42
0.000000
 10
-152.500018
 20
-21.249941
 42
0.000000
 10
-149.500018
 20
-21.249941
 42
0.000000
 10
-149.500018
 20
28.750059
 42
0.000000
  0
ENDBLK
  5
228
100
AcDbEntity
  8
0
100
AcDbBlockEnd
  0
BLOCK
  5
229
100
AcDbEntity
  8
SCHRAFF
100
AcDbBlockBegin
  2
B-8
 70
    66
 10
0.000000
 20
0.000000
 30
0.000000
  0
IMAGE
  5
22A
100
AcDbEntity
  8
SCHRAFF
100
AcDbRasterImage
 10
140.969928
 20
-349.249941
 30
0.000000
 11
0.204938
 21
-0.000000
 31
0.000000
 12
-0.000000
 22
0.204938
 32
-0.000000
 13
395.000000
 23
405.000000
340
22B
 70
     7
280
     0
281
    50
282
    50
283
     0
360
22C
 71
     1
 91
     2
 14
-0.500000
 24
-0.500000
 14
394.500000
 24
404.500000
  0
ENDBLK
  5
22D
100
AcDbEntity
  8
0
100
AcDbBlockEnd
  0
BLOCK
  5
22E
100
AcDbEntity
  8
SCHRAFF
100
AcDbBlockBegin
  2
B-9
 70
    66
 10
0.000000
 20
0.000000
 30
0.000000
  0
HATCH
  5
22F
100
AcDbEntity
  8
SCHRAFF
 62
   161
440
     0
100
AcDbHatch
 10
0.000000
 20
0.000000
 30
0.000000
210
0.000000
220
0.000000
230
1.000000
  2
SOLID
 70
     1
 71
     1
 91
     1
 92
    18
 72
     1
 73
     0
 93
     5
 10
165.499982
 20
-39.249941
 42
0.000000
 10
165.499982
 20
-31.249941
 42
0.000000
 10
212.500023
 20
-31.249941
 42
0.000000
 10
212.500023
 20
-39.249941
 42
0.000000
 10
165.499982
 20
-39.249941
 42
0.000000
 97
     0
 75
     0
 76
     1
 98
     0
  0
ENDBLK
  5
230
100
AcDbEntity
  8
0
100
AcDbBlockEnd
  0
BLOCK
  5
231
100
AcDbEntity
  8
Detail
100
AcDbBlockBegin
  2
B-10
 70
    66
 10
0.000000
 20
0.000000
 30
0.000000
  0
LWPOLYLINE
  5
232
100
AcDbEntity
  8
Detail
  6
CONTINUOUS
 62
     3
100
AcDbPolyline
 90
     4
 10
212.500023
 20
-39.249941
 42
0.000000
 10
165.499982
 20
-39.249941
 42
0.000000
 10
165.499982
 20
-31.249941
 42
0.000000
 10
212.500023
 20
-31.249941
 42
0.000000
  0
ENDBLK
  5
237
100
AcDbEntity
  8
0
100
AcDbBlockEnd
  0
BLOCK
  5
238
100
AcDbEntity
  8
SCHRAFF
100
AcDbBlockBegin
  2
B-11
 70
    66
 10
0.000000
 20
0.000000
 30
0.000000
  0
HATCH
  5
239
100
AcDbEntity
  8
SCHRAFF
 62
    51
440
     0
100
AcDbHatch
 10
0.000000
 20
0.000000
 30
0.000000
210
0.000000
220
0.000000
230
1.000000
  2
SOLID
 70
     1
 71
     1
 91
     1
 92
    18
 72
     1
 73
     0
 93
     5
 10
-87.514215
 20
153.750056
 42
0.000000
 10
-67.500018
 20
153.750056
 42
0.000000
 10
-67.500018
 20
213.750056
 42
0.000000
 10
-87.514215
 20
213.750056
 42
0.000000
 10
-87.514215
 20
153.750056
 42
0.000000
 97
     0
 75
     0
 76
     1
 98
     0
  0
ENDBLK
  5
23A
100
AcDbEntity
  8
0
100
AcDbBlockEnd
  0
BLOCK
  5
23B
100
AcDbEntity
  8
SCHRAFF
100
AcDbBlockBegin
  2
B-12
 70
    66
 10
0.000000
 20
0.000000
 30
0.000000
  0
HATCH
  5
23C
100
AcDbEntity
  8
SCHRAFF
 62
    61
440
     0
100
AcDbHatch
 10
0.000000
 20
0.000000
 30
0.000000
210
0.000000
220
0.000000
230
1.000000
  2
SOLID
 70
     1
 71
     1
 91
     1
 92
    18
 72
     1
 73
     0
 93
     5
 10
-73.500018
 20
-21.249941
 42
0.000000
 10
-152.500018
 20
-21.249941
 42
0.000000
 10
-152.500018
 20
-31.249941
 42
0.000000
 10
-73.500018
 20
-31.249941
 42
0.000000
 10
-73.500018
 20
-21.249941
 42
0.000000
 97
     0
 75
     0
 76
     1
 98
     0
  0
LWPOLYLINE
  5
23D
100
AcDbEntity
  8
SCHRAFF
  6
CONTINUOUS
 62
     9
100
AcDbPolyline
 90
    15
 10
-73.500018
 20
-31.249941
 42
-0.196700
 10
-75.051725
 20
-30.596162
 42
-0.201127
 10
-75.694464
 20
-29.017796
 42
-0.102984
 10
-75.517549
 20
-28.139742
 42
0.000000
 10
-73.729750
 20
-24.476369
 42
0.117662
 10
-73.500018
 20
-23.482085
 42
0.201127
 10
-74.142757
 20
-21.903720
 42
0.196700
 10
-75.694464
 20
-21.249941
 42
0.196700
 10
-77.246170
 20
-21.903722
 42
0.201126
 10
-77.888907
 20
-23.482085
 42
0.117662
 10
-77.659175
 20
-24.476369
 42
0.000000
 10
-75.924194
 20
-28.023515
 42
-0.117661
 10
-75.694464
 20
-29.017796
 42
-0.201127
 10
-76.337202
 20
-30.596160
 42
-0.196700
 10
-77.888907
 20
-31.249939
 42
0.000000
  0
LWPOLYLINE
  5
24D
100
AcDbEntity
  8
SCHRAFF
  6
CONTINUOUS
 62
     9
100
AcDbPolyline
 90
    15
 10
-77.888907
 20
-31.249941
 42
-0.196700
 10
-79.440614
 20
-30.596162
 42
-0.201127
 10
-80.083352
 20
-29.017796
 42
-0.102984
 10
-79.906438
 20
-28.139742
 42
0.000000
 10
-78.118638
 20
-24.476369
 42
0.117662
 10
-77.888907
 20
-23.482085
 42
0.201127
 10
-78.531646
 20
-21.903720
 42
0.196700
 10
-80.083353
 20
-21.249941
 42
0.196700
 10
-81.635059
 20
-21.903722
 42
0.201126
 10
-82.277795
 20
-23.482085
 42
0.117662
 10
-82.048064
 20
-24.476369
 42
0.000000
 10
-80.313083
 20
-28.023515
 42
-0.117661
 10
-80.083353
 20
-29.017796
 42
-0.201127
 10
-80.726091
 20
-30.596160
 42
-0.196700
 10
-82.277796
 20
-31.249939
 42
0.000000
  0
LWPOLYLINE
  5
25D
100
AcDbEntity
  8
SCHRAFF
  6
CONTINUOUS
 62
     9
100
AcDbPolyline
 90
    15
 10
-82.277796
 20
-31.249941
 42
-0.196700
 10
-83.829503
 20
-30.596162
 42
-0.201127
 10
-84.472241
 20
-29.017796
 42
-0.102984
 10
-84.295327
 20
-28.139742
 42
0.000000
 10
-82.507527
 20
-24.476369
 42
0.117662
 10
-82.277796
 20
-23.482085
 42
0.201127
 10
-82.920535
 20
-21.903720
 42
0.196700
 10
-84.472242
 20
-21.249941
 42
0.196700
 10
-86.023948
 20
-21.903722
 42
0.201126
 10
-86.666684
 20
-23.482085
 42
0.117662
 10
-86.436953
 20
-24.476369
 42
0.000000
 10
-84.701972
 20
-28.023515
 42
-0.117661
 10
-84.472242
 20
-29.017796
 42
-0.201127
 10
-85.114980
 20
-30.596160
 42
-0.196700
 10
-86.666685
 20
-31.249939
 42
0.000000
  0
LWPOLYLINE
  5
26D
100
AcDbEntity
  8
SCHRAFF
  6
CONTINUOUS
 62
     9
100
AcDbPolyline
 90
    15
 10
-86.666685
 20
-31.249941
 42
-0.196700
 10
-88.218392
 20
-30.596162
 42
-0.201127
 10
-88.861130
 20
-29.017796
 42
-0.102984
 10
-88.684216
 20
-28.139742
 42
0.000000
 10
-86.896416
 20
-24.476369
 42
0.117662
 10
-86.666685
 20
-23.482085
 42
0.201127
 10
-87.309424
 20
-21.903720
 42
0.196700
 10
-88.861131
 20
-21.249941
 42
0.196700
 10
-90.412836
 20
-21.903722
 42
0.201126
 10
-91.055573
 20
-23.482085
 42
0.117662
 10
-90.825842
 20
-24.476369
 42
0.000000
 10
-89.090861
 20
-28.023515
 42
-0.117661
 10
-88.861131
 20
-29.017796
 42
-0.201127
 10
-89.503869
 20
-30.596160
 42
-0.196700
 10
-91.055574
 20
-31.249939
 42
0.000000
  0
LWPOLYLINE
  5
27D
100
AcDbEntity
  8
SCHRAFF
  6
CONTINUOUS
 62
     9
100
AcDbPolyline
 90
    15
 10
-91.055574
 20
-31.249941
 42
-0.196700
 10
-92.607281
 20
-30.596162
 42
-0.201127
 10
-93.250019
 20
-29.017796
 42
-0.102984
 10
-93.073105
 20
-28.139742
 42
0.000000
 10
-91.285305
 20
-24.476369
 42
0.117662
 10
-91.055574
 20
-23.482085
 42
0.201127
 10
-91.698312
 20
-21.903720
 42
0.196700
 10
-93.250020
 20
-21.249941
 42
0.196700
 10
-94.801725
 20
-21.903722
 42
0.201126
 10
-95.444462
 20
-23.482085
 42
0.117662
 10
-95.214731
 20
-24.476369
 42
0.000000
 10
-93.479750
 20
-28.023515
 42
-0.117661
 10
-93.250020
 20
-29.017796
 42
-0.201127
 10
-93.892758
 20
-30.596160
 42
-0.196700
 10
-95.444462
 20
-31.249939
 42
0.000000
  0
LWPOLYLINE
  5
28D
100
AcDbEntity
  8
SCHRAFF
  6
CONTINUOUS
 62
     9
100
AcDbPolyline
 90
    15
 10
-95.444463
 20
-31.249941
 42
-0.196700
 10
-96.996169
 20
-30.596162
 42
-0.201127
 10
-97.638908
 20
-29.017796
 42
-0.102984
 10
-97.461993
 20
-28.139742
 42
0.000000
 10
-95.674194
 20
-24.476369
 42
0.117662
 10
-95.444462
 20
-23.482085
 42
0.201127
 10
-96.087201
 20
-21.903720
 42
0.196700
 10
-97.638909
 20
-21.249941
 42
0.196700
 10
-99.190614
 20
-21.903722
 42
0.201126
 10
-99.833351
 20
-23.482085
 42
0.117662
 10
-99.603619
 20
-24.476369
 42
0.000000
 10
-97.868639
 20
-28.023515
 42
-0.117661
 10
-97.638909
 20
-29.017796
 42
-0.201127
 10
-98.281647
 20
-30.596160
 42
-0.196700
 10
-99.833351
 20
-31.249939
 42
0.000000
  0
LWPOLYLINE
  5
29D
100
AcDbEntity
  8
SCHRAFF
  6
CONTINUOUS
 62
     9
100
AcDbPolyline
 90
    15
 10
-99.833351
 20
-31.249941
 42
-0.196700
 10
-101.385058
 20
-30.596162
 42
-0.201127
 10
-102.027797
 20
-29.017796
 42
-0.102984
 10
-101.850882
 20
-28.139742
 42
0.000000
 10
-100.063083
 20
-24.476369
 42
0.117662
 10
-99.833351
 20
-23.482085
 42
0.201127
 10
-100.476090
 20
-21.903720
 42
0.196700
 10
-102.027798
 20
-21.249941
 42
0.196700
 10
-103.579503
 20
-21.903722
 42
0.201126
 10
-104.222240
 20
-23.482085
 42
0.117662
 10
-103.992508
 20
-24.476369
 42
0.000000
 10
-102.257528
 20
-28.023515
 42
-0.117661
 10
-102.027798
 20
-29.017796
 42
-0.201127
 10
-102.670536
 20
-30.596160
 42
-0.196700
 10
-104.222240
 20
-31.249939
 42
0.000000
  0
LWPOLYLINE
  5
2AD
100
AcDbEntity
  8
SCHRAFF
  6
CONTINUOUS
 62
     9
100
AcDbPolyline
 90
    15
 10
-104.222240
 20
-31.249941
 42
-0.196700
 10
-105.773947
 20
-30.596162
 42
-0.201127
 10
-106.416686
 20
-29.017796
 42
-0.102984
 10
-106.239771
 20
-28.139742
 42
0.000000
 10
-104.451972
 20
-24.476369
 42
0.117662
 10
-104.222240
 20
-23.482085
 42
0.201127
 10
-104.864979
 20
-21.903720
 42
0.196700
 10
-106.416687
 20
-21.249941
 42
0.196700
 10
-107.968392
 20
-21.903722
 42
0.201126
 10
-108.611129
 20
-23.482085
 42
0.117662
 10
-108.381397
 20
-24.476369
 42
0.000000
 10
-106.646417
 20
-28.023515
 42
-0.117661
 10
-106.416687
 20
-29.017796
 42
-0.201127
 10
-107.059424
 20
-30.596160
 42
-0.196700
 10
-108.611129
 20
-31.249939
 42
0.000000
  0
LWPOLYLINE
  5
2BD
100
AcDbEntity
  8
SCHRAFF
  6
CONTINUOUS
 62
     9
100
AcDbPolyline
 90
    15
 10
-108.611129
 20
-31.249941
 42
-0.196700
 10
-110.162836
 20
-30.596162
 42
-0.201127
 10
-110.805575
 20
-29.017796
 42
-0.102984
 10
-110.628660
 20
-28.139742
 42
0.000000
 10
-108.840861
 20
-24.476369
 42
0.117662
 10
-108.611129
 20
-23.482085
 42
0.201127
 10
-109.253868
 20
-21.903720
 42
0.196700
 10
-110.805575
 20
-21.249941
 42
0.196700
 10
-112.357281
 20
-21.903722
 42
0.201126
 10
-113.000018
 20
-23.482085
 42
0.117662
 10
-112.770286
 20
-24.476369
 42
0.000000
 10
-111.035305
 20
-28.023515
 42
-0.117661
 10
-110.805575
 20
-29.017796
 42
-0.201127
 10
-111.448313
 20
-30.596160
 42
-0.196700
 10
-113.000018
 20
-31.249939
 42
0.000000
  0
LWPOLYLINE
  5
2CD
100
AcDbEntity
  8
SCHRAFF
  6
CONTINUOUS
 62
     9
100
AcDbPolyline
 90
    15
 10
-113.000018
 20
-31.249941
 42
-0.196700
 10
-114.551725
 20
-30.596162
 42
-0.201127
 10
-115.194464
 20
-29.017796
 42
-0.102984
 10
-115.017549
 20
-28.139742
 42
0.000000
 10
-113.229750
 20
-24.476369
 42
0.117662
 10
-113.000018
 20
-23.482085
 42
0.201127
 10
-113.642757
 20
-21.903720
 42
0.196700
 10
-115.194464
 20
-21.249941
 42
0.196700
 10
-116.746170
 20
-21.903722
 42
0.201126
 10
-117.388907
 20
-23.482085
 42
0.117662
 10
-117.159175
 20
-24.476369
 42
0.000000
 10
-115.424194
 20
-28.023515
 42
-0.117661
 10
-115.194464
 20
-29.017796
 42
-0.201127
 10
-115.837202
 20
-30.596160
 42
-0.196700
 10
-117.388907
 20
-31.249939
 42
0.000000
  0
LWPOLYLINE
  5
2DD
100
AcDbEntity
  8
SCHRAFF
  6
CONTINUOUS
 62
     9
100
AcDbPolyline
 90
    15
 10
-117.388907
 20
-31.249941
 42
-0.196700
 10
-118.940614
 20
-30.596162
 42
-0.201127
 10
-119.583352
 20
-29.017796
 42
-0.102984
 10
-119.406438
 20
-28.139742
 42
0.000000
 10
-117.618638
 20
-24.476369
 42
0.117662
 10
-117.388907
 20
-23.482085
 42
0.201127
 10
-118.031646
 20
-21.903720
 42
0.196700
 10
-119.583353
 20
-21.249941
 42
0.196700
 10
-121.135059
 20
-21.903722
 42
0.201126
 10
-121.777795
 20
-23.482085
 42
0.117662
 10
-121.548064
 20
-24.476369
 42
0.000000
 10
-119.813083
 20
-28.023515
 42
-0.117661
 10
-119.583353
 20
-29.017796
 42
-0.201127
 10
-120.226091
 20
-30.596160
 42
-0.196700
 10
-121.777796
 20
-31.249939
 42
0.000000
  0
LWPOLYLINE
  5
2ED
100
AcDbEntity
  8
SCHRAFF
  6
CONTINUOUS
 62
     9
100
AcDbPolyline
 90
    15
 10
-121.777796
 20
-31.249941
 42
-0.196700
 10
-123.329503
 20
-30.596162
 42
-0.201127
 10
-123.972241
 20
-29.017796
 42
-0.102984
 10
-123.795327
 20
-28.139742
 42
0.000000
 10
-122.007527
 20
-24.476369
 42
0.117662
 10
-121.777796
 20
-23.482085
 42
0.201127
 10
-122.420535
 20
-21.903720
 42
0.196700
 10
-123.972242
 20
-21.249941
 42
0.196700
 10
-125.523948
 20
-21.903722
 42
0.201126
 10
-126.166684
 20
-23.482085
 42
0.117662
 10
-125.936953
 20
-24.476369
 42
0.000000
 10
-124.201972
 20
-28.023515
 42
-0.117661
 10
-123.972242
 20
-29.017796
 42
-0.201127
 10
-124.614980
 20
-30.596160
 42
-0.196700
 10
-126.166685
 20
-31.249939
 42
0.000000
  0
LWPOLYLINE
  5
2FD
100
AcDbEntity
  8
SCHRAFF
  6
CONTINUOUS
 62
     9
100
AcDbPolyline
 90
    15
 10
-126.166685
 20
-31.249941
 42
-0.196700
 10
-127.718392
 20
-30.596162
 42
-0.201127
 10
-128.361130
 20
-29.017796
 42
-0.102984
 10
-128.184216
 20
-28.139742
 42
0.000000
 10
-126.396416
 20
-24.476369
 42
0.117662
 10
-126.166685
 20
-23.482085
 42
0.201127
 10
-126.809424
 20
-21.903720
 42
0.196700
 10
-128.361131
 20
-21.249941
 42
0.196700
 10
-129.912836
 20
-21.903722
 42
0.201126
 10
-130.555573
 20
-23.482085
 42
0.117662
 10
-130.325842
 20
-24.476369
 42
0.000000
 10
-128.590861
 20
-28.023515
 42
-0.117661
 10
-128.361131
 20
-29.017796
 42
-0.201127
 10
-129.003869
 20
-30.596160
 42
-0.196700
 10
-130.555574
 20
-31.249939
 42
0.000000
  0
LWPOLYLINE
  5
30D
100
AcDbEntity
  8
SCHRAFF
  6
CONTINUOUS
 62
     9
100
AcDbPolyline
 90
    15
 10
-130.555574
 20
-31.249941
 42
-0.196700
 10
-132.107281
 20
-30.596162
 42
-0.201127
 10
-132.750019
 20
-29.017796
 42
-0.102984
 10
-132.573105
 20
-28.139742
 42
0.000000
 10
-130.785305
 20
-24.476369
 42
0.117662
 10
-130.555574
 20
-23.482085
 42
0.201127
 10
-131.198312
 20
-21.903720
 42
0.196700
 10
-132.750020
 20
-21.249941
 42
0.196700
 10
-134.301725
 20
-21.903722
 42
0.201126
 10
-134.944462
 20
-23.482085
 42
0.117662
 10
-134.714731
 20
-24.476369
 42
0.000000
 10
-132.979750
 20
-28.023515
 42
-0.117661
 10
-132.750020
 20
-29.017796
 42
-0.201127
 10
-133.392758
 20
-30.596160
 42
-0.196700
 10
-134.944462
 20
-31.249939
 42
0.000000
  0
LWPOLYLINE
  5
31D
100
AcDbEntity
  8
SCHRAFF
  6
CONTINUOUS
 62
     9
100
AcDbPolyline
 90
    15
 10
-134.944463
 20
-31.249941
 42
-0.196700
 10
-136.496169
 20
-30.596162
 42
-0.201127
 10
-137.138908
 20
-29.017796
 42
-0.102984
 10
-136.961993
 20
-28.139742
 42
0.000000
 10
-135.174194
 20
-24.476369
 42
0.117662
 10
-134.944462
 20
-23.482085
 42
0.201127
 10
-135.587201
 20
-21.903720
 42
0.196700
 10
-137.138909
 20
-21.249941
 42
0.196700
 10
-138.690614
 20
-21.903722
 42
0.201126
 10
-139.333351
 20
-23.482085
 42
0.117662
 10
-139.103619
 20
-24.476369
 42
0.000000
 10
-137.368639
 20
-28.023515
 42
-0.117661
 10
-137.138909
 20
-29.017796
 42
-0.201127
 10
-137.781647
 20
-30.596160
 42
-0.196700
 10
-139.333351
 20
-31.249939
 42
0.000000
  0
LWPOLYLINE
  5
32D
100
AcDbEntity
  8
SCHRAFF
  6
CONTINUOUS
 62
     9
100
AcDbPolyline
 90
    15
 10
-139.333351
 20
-31.249941
 42
-0.196700
 10
-140.885058
 20
-30.596162
 42
-0.201127
 10
-141.527797
 20
-29.017796
 42
-0.102984
 10
-141.350882
 20
-28.139742
 42
0.000000
 10
-139.563083
 20
-24.476369
 42
0.117662
 10
-139.333351
 20
-23.482085
 42
0.201127
 10
-139.976090
 20
-21.903720
 42
0.196700
 10
-141.527798
 20
-21.249941
 42
0.196700
 10
-143.079503
 20
-21.903722
 42
0.201126
 10
-143.722240
 20
-23.482085
 42
0.117662
 10
-143.492508
 20
-24.476369
 42
0.000000
 10
-141.757528
 20
-28.023515
 42
-0.117661
 10
-141.527798
 20
-29.017796
 42
-0.201127
 10
-142.170536
 20
-30.596160
 42
-0.196700
 10
-143.722240
 20
-31.249939
 42
0.000000
  0
LWPOLYLINE
  5
33D
100
AcDbEntity
  8
SCHRAFF
  6
CONTINUOUS
 62
     9
100
AcDbPolyline
 90
    15
 10
-143.722240
 20
-31.249941
 42
-0.196700
 10
-145.273947
 20
-30.596162
 42
-0.201127
 10
-145.916686
 20
-29.017796
 42
-0.102984
 10
-145.739771
 20
-28.139742
 42
0.000000
 10
-143.951972
 20
-24.476369
 42
0.117662
 10
-143.722240
 20
-23.482085
 42
0.201127
 10
-144.364979
 20
-21.903720
 42
0.196700
 10
-145.916687
 20
-21.249941
 42
0.196700
 10
-147.468392
 20
-21.903722
 42
0.201126
 10
-148.111129
 20
-23.482085
 42
0.117662
 10
-147.881397
 20
-24.476369
 42
0.000000
 10
-146.146417
 20
-28.023515
 42
-0.117661
 10
-145.916687
 20
-29.017796
 42
-0.201127
 10
-146.559424
 20
-30.596160
 42
-0.196700
 10
-148.111129
 20
-31.249939
 42
0.000000
  0
LWPOLYLINE
  5
34D
100
AcDbEntity
  8
SCHRAFF
  6
CONTINUOUS
 62
     9
100
AcDbPolyline
 90
    15
 10
-148.111129
 20
-31.249941
 42
-0.196700
 10
-149.662836
 20
-30.596162
 42
-0.201127
 10
-150.305575
 20
-29.017796
 42
-0.102984
 10
-150.128660
 20
-28.139742
 42
0.000000
 10
-148.340861
 20
-24.476369
 42
0.117662
 10
-148.111129
 20
-23.482085
 42
0.201127
 10
-148.753868
 20
-21.903720
 42
0.196700
 10
-150.305575
 20
-21.249941
 42
0.196700
 10
-151.857281
 20
-21.903722
 42
0.201126
 10
-152.500018
 20
-23.482085
 42
0.117662
 10
-152.270286
 20
-24.476369
 42
0.000000
 10
-150.535305
 20
-28.023515
 42
-0.117661
 10
-150.305575
 20
-29.017796
 42
-0.201127
 10
-150.948313
 20
-30.596160
 42
-0.196700
 10
-152.500018
 20
-31.249939
 42
0.000000
  0
ENDBLK
  5
35D
100
AcDbEntity
  8
0
100
AcDbBlockEnd
  0
BLOCK
  5
35E
100
AcDbEntity
  8
SCHRAFF
100
AcDbBlockBegin
  2
B-13
 70
    66
 10
0.000000
 20
0.000000
 30
0.000000
  0
HATCH
  5
35F
100
AcDbEntity
  8
SCHRAFF
 62
     8
440
     0
100
AcDbHatch
 10
0.000000
 20
0.000000
 30
0.000000
210
0.000000
220
0.000000
230
1.000000
  2
SOLID
 70
     1
 71
     1
 91
     1
 92
    18
 72
     1
 73
     0
 93
     5
 10
-63.500018
 20
-21.249941
 42
0.000000
 10
-73.500018
 20
-21.249941
 42
0.000000
 10
-73.500018
 20
-31.249941
 42
0.000000
 10
-63.500018
 20
-31.249941
 42
0.000000
 10
-63.500018
 20
-21.249941
 42
0.000000
 97
     0
 75
     0
 76
     1
 98
     0
  0
ENDBLK
  5
360
100
AcDbEntity
  8
0
100
AcDbBlockEnd
  0
BLOCK
  5
361
100
AcDbEntity
  8
SCHRAFF
100
AcDbBlockBegin
  2
B-14
 70
    66
 10
0.000000
 20
0.000000
 30
0.000000
  0
LWPOLYLINE
  5
362
100
AcDbEntity
  8
SCHRAFF
  6
CONTINUOUS
 62
     9
100
AcDbPolyline
 90
    15
 10
-152.500018
 20
-136.249941
 42
-0.193615
 10
-155.530477
 20
-134.942383
 42
-0.204221
 10
-156.785735
 20
-131.785652
 42
-0.105202
 10
-156.440223
 20
-130.029543
 42
0.000000
 10
-152.948680
 20
-122.702797
 42
0.120109
 10
-152.500018
 20
-120.714228
 42
0.204221
 10
-153.755277
 20
-117.557498
 42
0.193615
 10
-156.785736
 20
-116.249941
 42
0.193614
 10
-159.816191
 20
-117.557503
 42
0.204221
 10
-161.071446
 20
-120.714228
 42
0.120109
 10
-160.622784
 20
-122.702797
 42
0.000000
 10
-157.234395
 20
-129.797090
 42
-0.120108
 10
-156.785736
 20
-131.785652
 42
-0.204221
 10
-158.040993
 20
-134.942379
 42
-0.193614
 10
-161.071447
 20
-136.249938
 42
0.000000
  0
LWPOLYLINE
  5
372
100
AcDbEntity
  8
SCHRAFF
  6
CONTINUOUS
 62
     9
100
AcDbPolyline
 90
    15
 10
-161.071447
 20
-136.249941
 42
-0.193615
 10
-164.101905
 20
-134.942383
 42
-0.204221
 10
-165.357163
 20
-131.785652
 42
-0.105202
 10
-165.011652
 20
-130.029543
 42
0.000000
 10
-161.520109
 20
-122.702797
 42
0.120109
 10
-161.071447
 20
-120.714228
 42
0.204221
 10
-162.326705
 20
-117.557498
 42
0.193615
 10
-165.357165
 20
-116.249941
 42
0.193614
 10
-168.387620
 20
-117.557503
 42
0.204221
 10
-169.642874
 20
-120.714228
 42
0.120109
 10
-169.194212
 20
-122.702797
 42
0.000000
 10
-165.805823
 20
-129.797090
 42
-0.120108
 10
-165.357165
 20
-131.785652
 42
-0.204221
 10
-166.612421
 20
-134.942379
 42
-0.193614
 10
-169.642875
 20
-136.249938
 42
0.000000
  0
LWPOLYLINE
  5
382
100
AcDbEntity
  8
SCHRAFF
  6
CONTINUOUS
 62
     9
100
AcDbPolyline
 90
    15
 10
-169.642875
 20
-136.249941
 42
-0.193615
 10
-172.673334
 20
-134.942383
 42
-0.204221
 10
-173.928592
 20
-131.785652
 42
-0.105202
 10
-173.583080
 20
-130.029543
 42
0.000000
 10
-170.091537
 20
-122.702797
 42
0.120109
 10
-169.642875
 20
-120.714228
 42
0.204221
 10
-170.898134
 20
-117.557498
 42
0.193615
 10
-173.928593
 20
-116.249941
 42
0.193614
 10
-176.959049
 20
-117.557503
 42
0.204221
 10
-178.214303
 20
-120.714228
 42
0.120109
 10
-177.765641
 20
-122.702797
 42
0.000000
 10
-174.377252
 20
-129.797090
 42
-0.120108
 10
-173.928593
 20
-131.785652
 42
-0.204221
 10
-175.183850
 20
-134.942379
 42
-0.193614
 10
-178.214304
 20
-136.249938
 42
0.000000
  0
LWPOLYLINE
  5
392
100
AcDbEntity
  8
SCHRAFF
  6
CONTINUOUS
 62
     9
100
AcDbPolyline
 90
    15
 10
-178.214304
 20
-136.249941
 42
-0.193615
 10
-181.244762
 20
-134.942383
 42
-0.204221
 10
-182.500020
 20
-131.785652
 42
-0.105202
 10
-182.154509
 20
-130.029543
 42
0.000000
 10
-178.662966
 20
-122.702797
 42
0.120109
 10
-178.214304
 20
-120.714228
 42
0.204221
 10
-179.469562
 20
-117.557498
 42
0.193615
 10
-182.500022
 20
-116.249941
 42
0.193614
 10
-185.530477
 20
-117.557503
 42
0.204221
 10
-186.785732
 20
-120.714228
 42
0.120109
 10
-186.337070
 20
-122.702797
 42
0.000000
 10
-182.948681
 20
-129.797090
 42
-0.120108
 10
-182.500022
 20
-131.785652
 42
-0.204221
 10
-183.755278
 20
-134.942379
 42
-0.193614
 10
-186.785732
 20
-136.249938
 42
0.000000
  0
LWPOLYLINE
  5
3A2
100
AcDbEntity
  8
SCHRAFF
  6
CONTINUOUS
 62
     9
100
AcDbPolyline
 90
    15
 10
-186.785733
 20
-136.249941
 42
-0.193615
 10
-189.816191
 20
-134.942383
 42
-0.204221
 10
-191.071449
 20
-131.785652
 42
-0.105202
 10
-190.725938
 20
-130.029543
 42
0.000000
 10
-187.234394
 20
-122.702797
 42
0.120109
 10
-186.785732
 20
-120.714228
 42
0.204221
 10
-188.040991
 20
-117.557498
 42
0.193615
 10
-191.071450
 20
-116.249941
 42
0.193614
 10
-194.101906
 20
-117.557503
 42
0.204221
 10
-195.357160
 20
-120.714228
 42
0.120109
 10
-194.908498
 20
-122.702797
 42
0.000000
 10
-191.520109
 20
-129.797090
 42
-0.120108
 10
-191.071450
 20
-131.785652
 42
-0.204221
 10
-192.326707
 20
-134.942379
 42
-0.193614
 10
-195.357161
 20
-136.249938
 42
0.000000
  0
LWPOLYLINE
  5
3B2
100
AcDbEntity
  8
SCHRAFF
  6
CONTINUOUS
 62
     9
100
AcDbPolyline
 90
    15
 10
-195.357161
 20
-136.249941
 42
-0.193615
 10
-198.387619
 20
-134.942383
 42
-0.204221
 10
-199.642877
 20
-131.785652
 42
-0.105202
 10
-199.297366
 20
-130.029543
 42
0.000000
 10
-195.805823
 20
-122.702797
 42
0.120109
 10
-195.357161
 20
-120.714228
 42
0.204221
 10
-196.612419
 20
-117.557498
 42
0.193615
 10
-199.642879
 20
-116.249941
 42
0.193614
 10
-202.673334
 20
-117.557503
 42
0.204221
 10
-203.928589
 20
-120.714228
 42
0.120109
 10
-203.479927
 20
-122.702797
 42
0.000000
 10
-200.091538
 20
-129.797090
 42
-0.120108
 10
-199.642879
 20
-131.785652
 42
-0.204221
 10
-200.898135
 20
-134.942379
 42
-0.193614
 10
-203.928589
 20
-136.249938
 42
0.000000
  0
LWPOLYLINE
  5
3C2
100
AcDbEntity
  8
SCHRAFF
  6
CONTINUOUS
 62
     9
100
AcDbPolyline
 90
    15
 10
-203.928590
 20
-136.249941
 42
-0.193615
 10
-206.959048
 20
-134.942383
 42
-0.204221
 10
-208.214306
 20
-131.785652
 42
-0.105202
 10
-207.868795
 20
-130.029543
 42
0.000000
 10
-204.377251
 20
-122.702797
 42
0.120109
 10
-203.928589
 20
-120.714228
 42
0.204221
 10
-205.183848
 20
-117.557498
 42
0.193615
 10
-208.214307
 20
-116.249941
 42
0.193614
 10
-211.244763
 20
-117.557503
 42
0.204221
 10
-212.500017
 20
-120.714228
 42
0.120109
 10
-212.051355
 20
-122.702797
 42
0.000000
 10
-208.662966
 20
-129.797090
 42
-0.120108
 10
-208.214307
 20
-131.785652
 42
-0.204221
 10
-209.469564
 20
-134.942379
 42
-0.193614
 10
-212.500018
 20
-136.249938
 42
0.000000
  0
ENDBLK
  5
3D2
100
AcDbEntity
  8
0
100
AcDbBlockEnd
  0
BLOCK
  5
3D3
100
AcDbEntity
  8
SCHRAFF
100
AcDbBlockBegin
  2
B-15
 70
    66
 10
0.000000
 20
0.000000
 30
0.000000
  0
HATCH
  5
3D4
100
AcDbEntity
  8
SCHRAFF
 62
   254
440
     0
100
AcDbHatch
 10
0.000000
 20
0.000000
 30
0.000000
210
0.000000
220
0.000000
230
1.000000
  2
SOLID
 70
     1
 71
     1
 91
     1
 92
    18
 72
     1
 73
     0
 93
     6
 10
-152.500018
 20
-136.249941
 42
0.000000
 10
212.500023
 20
-136.249941
 42
0.000000
 10
212.500023
 20
-131.249941
 42
0.000000
 10
-152.650708
 20
-131.249941
 42
0.000000
 10
-152.500018
 20
-131.249941
 42
0.000000
 10
-152.500018
 20
-136.249941
 42
0.000000
 97
     0
 75
     0
 76
     1
 98
     0
  0
ENDBLK
  5
3D5
100
AcDbEntity
  8
0
100
AcDbBlockEnd
  0
BLOCK
  5
3D6
100
AcDbEntity
  8
SCHRAFF
100
AcDbBlockBegin
  2
B-16
 70
    66
 10
0.000000
 20
0.000000
 30
0.000000
  0
HATCH
  5
3D7
100
AcDbEntity
  8
SCHRAFF
 62
    51
440
     0
100
AcDbHatch
 10
0.000000
 20
0.000000
 30
0.000000
210
0.000000
220
0.000000
230
1.000000
  2
SOLID
 70
     1
 71
     1
 91
     1
 92
    18
 72
     1
 73
     0
 93
     9
 10
-147.500018
 20
296.250078
 42
0.000000
 10
-147.500018
 20
-19.249941
 42
0.000000
 10
-67.500018
 20
-19.249941
 42
0.000000
 10
-67.500018
 20
153.750056
 42
0.000000
 10
-87.514215
 20
153.750056
 42
0.000000
 10
-87.514215
 20
213.750056
 42
0.000000
 10
-67.500018
 20
213.750056
 42
0.000000
 10
-67.500018
 20
296.250078
 42
0.000000
 10
-147.500018
 20
296.250078
 42
0.000000
 97
     0
 75
     0
 76
     1
 98
     0
  0
HATCH
  5
3D8
100
AcDbEntity
  8
SCHRAFF
  6
CONTINUOUS
 62
     9
100
AcDbHatch
 10
0.000000
 20
0.000000
 30
0.000000
210
0.000000
220
0.000000
230
1.000000
  2
_U
 70
     0
 71
     1
 91
     1
 92
    18
 72
     1
 73
     0
 93
     9
 10
-67.500018
 20
-19.249941
 42
0.000000
 10
-67.500018
 20
153.750056
 42
0.000000
 10
-87.514215
 20
153.750056
 42
0.000000
 10
-87.514215
 20
213.750056
 42
0.000000
 10
-67.500018
 20
213.750056
 42
0.000000
 10
-67.500018
 20
296.250078
 42
0.000000
 10
-147.500018
 20
296.250078
 42
0.000000
 10
-147.500018
 20
-19.249941
 42
0.000000
 10
-67.500018
 20
-19.249941
 42
0.000000
 97
     0
 75
     0
 76
     0
 52
0.000000
 41
1.000000
 77
     0
 78
     1
 53
90.000000
 43
-0.000000
 44
0.000000
 45
-13.750000
 46
0.000000
 79
     0
 98
     0
  0
ENDBLK
  5
3D9
100
AcDbEntity
  8
0
100
AcDbBlockEnd
  0
BLOCK
  5
3DA
100
AcDbEntity
  8
Detail
100
AcDbBlockBegin
  2
B-17
 70
    66
 10
0.000000
 20
0.000000
 30
0.000000
  0
LWPOLYLINE
  5
3DB
100
AcDbEntity
  8
Detail
  6
CONTINUOUS
 62
     6
100
AcDbPolyline
 90
     4
 10
212.500023
 20
-131.249941
 42
0.000000
 10
-152.500018
 20
-131.249941
 42
0.000000
 10
-152.500018
 20
-136.249941
 42
0.000000
 10
212.500023
 20
-136.249941
 42
0.000000
  0
ENDBLK
  5
3E0
100
AcDbEntity
  8
0
100
AcDbBlockEnd
  0
BLOCK
  5
3E1
100
AcDbEntity
  8
L
100
AcDbBlockBegin
  2
B-18
 70
    66
 10
0.000000
 20
0.000000
 30
0.000000
  0
LWPOLYLINE
  5
3E2
100
AcDbEntity
  8
L
  6
CONTINUOUS
 62
     3
100
AcDbPolyline
 90
     4
 10
-212.500018
 20
-136.249941
 42
0.000000
 10
-152.500018
 20
-136.249941
 42
0.000000
 10
-152.500018
 20
-116.249941
 42
0.000000
 10
-212.500018
 20
-116.249941
 42
0.000000
  0
ENDBLK
  5
3E7
100
AcDbEntity
  8
0
100
AcDbBlockEnd
  0
BLOCK
  5
3E8
100
AcDbEntity
  8
SCHRAFF
100
AcDbBlockBegin
  2
B-19
 70
    66
 10
0.000000
 20
0.000000
 30
0.000000
  0
HATCH
  5
3E9
100
AcDbEntity
  8
SCHRAFF
 62
   161
440
     0
100
AcDbHatch
 10
0.000000
 20
0.000000
 30
0.000000
210
0.000000
220
0.000000
230
1.000000
  2
SOLID
 70
     1
 71
     1
 91
     1
 92
    18
 72
     1
 73
     0
 93
     5
 10
-144.500018
 20
-39.249941
 42
0.000000
 10
-144.500018
 20
-31.249941
 42
0.000000
 10
155.499982
 20
-31.249941
 42
0.000000
 10
155.499982
 20
-39.249941
 42
0.000000
 10
-144.500018
 20
-39.249941
 42
0.000000
 97
     0
 75
     0
 76
     1
 98
     0
  0
ENDBLK
  5
3EA
100
AcDbEntity
  8
0
100
AcDbBlockEnd
  0
BLOCK
  5
3EB
100
AcDbEntity
  8
SCHRAFF
100
AcDbBlockBegin
  2
B-20
 70
    66
 10
0.000000
 20
0.000000
 30
0.000000
  0
HATCH
  5
3EC
100
AcDbEntity
  8
SCHRAFF
 62
     9
440
     0
100
AcDbHatch
 10
0.000000
 20
0.000000
 30
0.000000
210
0.000000
220
0.000000
230
1.000000
  2
SOLID
 70
     1
 71
     1
 91
     1
 92
    18
 72
     1
 73
     0
 93
     5
 10
212.500023
 20
-45.249941
 42
0.000000
 10
-144.500018
 20
-45.249941
 42
0.000000
 10
-150.500018
 20
-51.249941
 42
0.000000
 10
212.500023
 20
-51.249941
 42
0.000000
 10
212.500023
 20
-45.249941
 42
0.000000
 97
     0
 75
     0
 76
     1
 98
     0
  0
ENDBLK
  5
3ED
100
AcDbEntity
  8
0
100
AcDbBlockEnd
  0
BLOCK
  5
3EE
100
AcDbEntity
  8
SCHRAFF
100
AcDbBlockBegin
  2
B-21
 70
    66
 10
0.000000
 20
0.000000
 30
0.000000
  0
HATCH
  5
3EF
100
AcDbEntity
  8
SCHRAFF
 62
     9
440
     0
100
AcDbHatch
 10
0.000000
 20
0.000000
 30
0.000000
210
0.000000
220
0.000000
230
1.000000
  2
SOLID
 70
     1
 71
     1
 91
     1
 92
    18
 72
     1
 73
     0
 93
     5
 10
-63.500018
 20
-21.249941
 42
0.000000
 10
-63.500018
 20
296.250078
 42
0.000000
 10
-67.500018
 20
296.250078
 42
0.000000
 10
-67.500018
 20
-21.249941
 42
0.000000
 10
-63.500018
 20
-21.249941
 42
0.000000
 97
     0
 75
     0
 76
     1
 98
     0
  0
ENDBLK
  5
3F0
100
AcDbEntity
  8
0
100
AcDbBlockEnd
  0
BLOCK
  5
3F1
100
AcDbEntity
  8
SCHRAFF
100
AcDbBlockBegin
  2
B-22
 70
    66
 10
0.000000
 20
0.000000
 30
0.000000
  0
HATCH
  5
3F2
100
AcDbEntity
  8
SCHRAFF
 62
    51
440
     0
100
AcDbHatch
 10
0.000000
 20
0.000000
 30
0.000000
210
0.000000
220
0.000000
230
1.000000
  2
SOLID
 70
     1
 71
     1
 91
     1
 92
    18
 72
     1
 73
     0
 93
     7
 10
212.500023
 20
-51.249941
 42
0.000000
 10
211.723701
 20
-51.249941
 42
0.000000
 10
128.499982
 20
-51.249941
 42
0.000000
 10
-150.500018
 20
-51.249941
 42
0.000000
 10
-150.500018
 20
-131.249941
 42
0.000000
 10
212.500023
 20
-131.249941
 42
0.000000
 10
212.500023
 20
-51.249941
 42
0.000000
 97
     0
 75
     0
 76
     1
 98
     0
  0
ENDBLK
  5
3F3
100
AcDbEntity
  8
0
100
AcDbBlockEnd
  0
BLOCK
  5
3F4
100
AcDbEntity
  8
SCHRAFF
100
AcDbBlockBegin
  2
B-23
 70
    66
 10
0.000000
 20
0.000000
 30
0.000000
  0
HATCH
  5
3F5
100
AcDbEntity
  8
SCHRAFF
  6
CONTINUOUS
 62
     9
100
AcDbHatch
 10
0.000000
 20
0.000000
 30
0.000000
210
0.000000
220
0.000000
230
1.000000
  2
_U
 70
     0
 71
     1
 91
     1
 92
    18
 72
     1
 73
     0
 93
     5
 10
-150.500018
 20
-131.249941
 42
0.000000
 10
211.500023
 20
-131.249941
 42
0.000000
 10
211.500023
 20
-51.249941
 42
0.000000
 10
-150.500018
 20
-51.249941
 42
0.000000
 10
-150.500018
 20
-131.249941
 42
0.000000
 97
     0
 75
     0
 76
     0
 52
0.000000
 41
1.000000
 77
     0
 78
     1
 53
90.000000
 43
-0.000000
 44
0.000000
 45
-13.750000
 46
0.000000
 79
     0
 98
     0
  0
ENDBLK
  5
3F6
100
AcDbEntity
  8
0
100
AcDbBlockEnd
  0
BLOCK
  5
3F7
100
AcDbEntity
  8
SCHRAFF
100
AcDbBlockBegin
  2
B-24
 70
    66
 10
0.000000
 20
0.000000
 30
0.000000
  0
HATCH
  5
3F8
100
AcDbEntity
  8
SCHRAFF
  6
CONTINUOUS
 62
     9
100
AcDbHatch
 10
0.000000
 20
0.000000
 30
0.000000
210
0.000000
220
0.000000
230
1.000000
  2
_U
 70
     0
 71
     1
 91
     1
 92
    18
 72
     1
 73
     0
 93
     5
 10
-212.500018
 20
-136.249941
 42
0.000000
 10
-212.500018
 20
-196.249941
 42
0.000000
 10
212.500023
 20
-196.249941
 42
0.000000
 10
212.500023
 20
-136.249941
 42
0.000000
 10
-212.500018
 20
-136.249941
 42
0.000000
 97
     0
 75
     0
 76
     0
 52
0.000000
 41
1.000000
 77
     0
 78
     1
 53
45.000000
 43
-0.000000
 44
0.000000
 45
-17.677670
 46
17.677670
 79
     0
 98
     0
  0
ENDBLK
  5
3F9
100
AcDbEntity
  8
0
100
AcDbBlockEnd
  0
BLOCK
  5
3FA
100
AcDbEntity
  8
Detail
100
AcDbBlockBegin
  2
B-25
 70
    66
 10
0.000000
 20
0.000000
 30
0.000000
  0
ENDBLK
  5
3FB
100
AcDbEntity
  8
0
100
AcDbBlockEnd
  0
BLOCK
  5
3FC
100
AcDbEntity
  8
Detail
100
AcDbBlockBegin
  2
B-26
 70
    66
 10
0.000000
 20
0.000000
 30
0.000000
  0
LWPOLYLINE
  5
3FD
100
AcDbEntity
  8
Detail
  6
CONTINUOUS
 62
     2
100
AcDbPolyline
 90
     2
 10
212.500023
 20
-136.249941
 42
0.000000
 10
-212.500018
 20
-136.249941
 42
0.000000
  0
ENDBLK
  5
400
100
AcDbEntity
  8
0
100
AcDbBlockEnd
  0
BLOCK
  5
401
100
AcDbEntity
  8
SCHRAFF
100
AcDbBlockBegin
  2
B-27
 70
    66
 10
0.000000
 20
0.000000
 30
0.000000
  0
HATCH
  5
402
100
AcDbEntity
  8
SCHRAFF
 62
     9
440
     0
100
AcDbHatch
 10
0.000000
 20
0.000000
 30
0.000000
210
0.000000
220
0.000000
230
1.000000
  2
SOLID
 70
     1
 71
     1
 91
     1
 92
    18
 72
     1
 73
     0
 93
     5
 10
212.500023
 20
-45.249941
 42
0.000000
 10
-144.500018
 20
-45.249941
 42
0.000000
 10
-144.500018
 20
-43.249941
 42
0.000000
 10
212.500023
 20
-43.249941
 42
0.000000
 10
212.500023
 20
-45.249941
 42
0.000000
 97
     0
 75
     0
 76
     1
 98
     0
  0
HATCH
  5
403
100
AcDbEntity
  8
SCHRAFF
 62
   253
440
     0
100
AcDbHatch
 10
0.000000
 20
0.000000
 30
0.000000
210
0.000000
220
0.000000
230
1.000000
  2
SOLID
 70
     1
 71
     1
 91
     1
 92
    18
 72
     1
 73
     0
 93
     5
 10
-144.500018
 20
-39.249941
 42
0.000000
 10
212.500023
 20
-39.249941
 42
0.000000
 10
212.500023
 20
-43.249941
 42
0.000000
 10
-144.500018
 20
-43.249941
 42
0.000000
 10
-144.500018
 20
-39.249941
 42
0.000000
 97
     0
 75
     0
 76
     1
 98
     0
  0
ENDBLK
  5
404
100
AcDbEntity
  8
0
100
AcDbBlockEnd
  0
BLOCK
  5
405
100
AcDbEntity
  8
Detail
100
AcDbBlockBegin
  2
B-28
 70
    66
 10
0.000000
 20
0.000000
 30
0.000000
  0
LWPOLYLINE
  5
406
100
AcDbEntity
  8
Detail
  6
CONTINUOUS
 62
     6
100
AcDbPolyline
 90
     4
 10
212.500023
 20
-45.249941
 42
0.000000
 10
-144.500018
 20
-45.249941
 42
0.000000
 10
-144.500018
 20
-43.249941
 42
0.000000
 10
212.500023
 20
-43.249941
 42
0.000000
  0
ENDBLK
  5
40B
100
AcDbEntity
  8
0
100
AcDbBlockEnd
  0
BLOCK
  5
40C
100
AcDbEntity
  8
Detail
100
AcDbBlockBegin
  2
B-29
 70
    66
 10
0.000000
 20
0.000000
 30
0.000000
  0
LWPOLYLINE
  5
40D
100
AcDbEntity
  8
Detail
  6
CONTINUOUS
 62
     6
100
AcDbPolyline
 90
     4
 10
212.500023
 20
-43.249941
 42
0.000000
 10
-144.500018
 20
-43.249941
 42
0.000000
 10
-144.500018
 20
-39.249941
 42
0.000000
 10
212.500023
 20
-39.249941
 42
0.000000
  0
ENDBLK
  5
412
100
AcDbEntity
  8
0
100
AcDbBlockEnd
  0
BLOCK
  5
413
100
AcDbEntity
  8
Detail
100
AcDbBlockBegin
  2
B-30
 70
    66
 10
0.000000
 20
0.000000
 30
0.000000
  0
LWPOLYLINE
  5
414
100
AcDbEntity
  8
Detail
  6
CONTINUOUS
 62
     3
100
AcDbPolyline
 90
     5
 10
-144.500018
 20
-31.249941
 42
0.000000
 10
-144.500018
 20
-39.249941
 42
0.000000
 10
155.499982
 20
-39.249941
 42
0.000000
 10
155.499982
 20
-31.249941
 42
0.000000
 10
-144.500018
 20
-31.249941
 42
0.000000
  0
ENDBLK
  5
41A
100
AcDbEntity
  8
0
100
AcDbBlockEnd
  0
BLOCK
  5
41B
100
AcDbEntity
  8
Detail
100
AcDbBlockBegin
  2
B-31
 70
    66
 10
0.000000
 20
0.000000
 30
0.000000
  0
LWPOLYLINE
  5
41C
100
AcDbEntity
  8
Detail
  6
CONTINUOUS
 62
     6
100
AcDbPolyline
 90
     4
 10
-67.500018
 20
296.250078
 42
0.000000
 10
-67.500018
 20
-21.249941
 42
0.000000
 10
-63.500018
 20
-21.249941
 42
0.000000
 10
-63.500018
 20
296.250078
 42
0.000000
  0
ENDBLK
  5
421
100
AcDbEntity
  8
0
100
AcDbBlockEnd
  0
BLOCK
  5
422
100
AcDbEntity
  8
Detail
100
AcDbBlockBegin
  2
B-32
 70
    66
 10
0.000000
 20
0.000000
 30
0.000000
  0
LWPOLYLINE
  5
423
100
AcDbEntity
  8
Detail
  6
CONTINUOUS
 62
     6
100
AcDbPolyline
 90
   318
 10
-61.500018
 20
296.250078
 42
0.000000
 10
-61.500018
 20
295.750059
 42
0.000000
 10
-62.000018
 20
294.750059
 42
0.000000
 10
-61.500018
 20
293.750059
 42
0.000000
 10
-61.500018
 20
292.750059
 42
0.000000
 10
-61.000018
 20
291.750059
 42
0.000000
 10
-61.500018
 20
290.742392
 42
0.000000
 10
-61.500018
 20
289.750059
 42
0.000000
 10
-62.000018
 20
288.750059
 42
0.000000
 10
-61.500018
 20
287.750059
 42
0.000000
 10
-61.500018
 20
286.750059
 42
0.000000
 10
-61.000018
 20
285.749959
 42
0.000000
 10
-61.500018
 20
284.749959
 42
0.000000
 10
-61.500018
 20
283.750059
 42
0.000000
 10
-62.000018
 20
282.750059
 42
0.000000
 10
-61.500018
 20
281.750059
 42
0.000000
 10
-61.500018
 20
280.750059
 42
0.000000
 10
-61.000018
 20
279.750059
 42
0.000000
 10
-61.500018
 20
278.750059
 42
0.000000
 10
-61.500018
 20
277.750059
 42
0.000000
 10
-62.000018
 20
276.750059
 42
0.000000
 10
-61.500018
 20
275.750059
 42
0.000000
 10
-61.500018
 20
274.750059
 42
0.000000
 10
-61.000018
 20
273.750059
 42
0.000000
 10
-61.500018
 20
272.742392
 42
0.000000
 10
-61.500018
 20
271.750059
 42
0.000000
 10
-62.000018
 20
270.750059
 42
0.000000
 10
-61.500018
 20
269.750059
 42
0.000000
 10
-61.500018
 20
268.750059
 42
0.000000
 10
-61.000018
 20
267.750059
 42
0.000000
 10
-61.500018
 20
266.750059
 42
0.000000
 10
-61.500018
 20
265.750059
 42
0.000000
 10
-62.000018
 20
264.750059
 42
0.000000
 10
-61.500018
 20
263.750059
 42
0.000000
 10
-61.500018
 20
262.750059
 42
0.000000
 10
-61.000018
 20
261.750059
 42
0.000000
 10
-61.500018
 20
260.750059
 42
0.000000
 10
-61.500018
 20
259.750059
 42
0.000000
 10
-62.000018
 20
258.750059
 42
0.000000
 10
-61.500018
 20
257.750059
 42
0.000000
 10
-61.500018
 20
256.750059
 42
0.000000
 10
-61.000018
 20
255.750059
 42
0.000000
 10
-61.500018
 20
254.750059
 42
0.000000
 10
-61.500018
 20
253.750059
 42
0.000000
 10
-62.000018
 20
252.750059
 42
0.000000
 10
-61.500018
 20
251.750059
 42
0.000000
 10
-61.500018
 20
250.750059
 42
0.000000
 10
-61.000018
 20
249.750059
 42
0.000000
 10
-61.500018
 20
248.750059
 42
0.000000
 10
-61.500018
 20
247.750059
 42
0.000000
 10
-62.000018
 20
246.750059
 42
0.000000
 10
-61.500018
 20
245.750059
 42
0.000000
 10
-61.500018
 20
244.750059
 42
0.000000
 10
-61.000018
 20
243.750059
 42
0.000000
 10
-61.500018
 20
242.750059
 42
0.000000
 10
-61.500018
 20
241.750059
 42
0.000000
 10
-62.000018
 20
240.750059
 42
0.000000
 10
-61.500018
 20
239.750059
 42
0.000000
 10
-61.500018
 20
238.750059
 42
0.000000
 10
-61.000018
 20
237.750059
 42
0.000000
 10
-61.500018
 20
236.742392
 42
0.000000
 10
-61.500018
 20
235.750059
 42
0.000000
 10
-62.000018
 20
234.750059
 42
0.000000
 10
-61.500018
 20
233.750059
 42
0.000000
 10
-61.500018
 20
232.750059
 42
0.000000
 10
-61.000018
 20
231.750059
 42
0.000000
 10
-61.500018
 20
230.750059
 42
0.000000
 10
-61.500018
 20
229.750059
 42
0.000000
 10
-62.000018
 20
228.750059
 42
0.000000
 10
-61.500018
 20
227.750059
 42
0.000000
 10
-61.500018
 20
226.750059
 42
0.000000
 10
-61.000018
 20
225.750059
 42
0.000000
 10
-61.500018
 20
224.750059
 42
0.000000
 10
-61.500018
 20
223.750059
 42
0.000000
 10
-62.000018
 20
222.750059
 42
0.000000
 10
-61.500018
 20
221.750059
 42
0.000000
 10
-61.500018
 20
220.750059
 42
0.000000
 10
-61.000018
 20
219.750059
 42
0.000000
 10
-61.500018
 20
218.750059
 42
0.000000
 10
-61.500018
 20
217.750059
 42
0.000000
 10
-62.000018
 20
216.750059
 42
0.000000
 10
-61.500018
 20
215.750059
 42
0.000000
 10
-61.500018
 20
214.750059
 42
0.000000
 10
-61.000018
 20
213.750059
 42
0.000000
 10
-61.500018
 20
212.750059
 42
0.000000
 10
-61.500018
 20
211.750059
 42
0.000000
 10
-62.000018
 20
210.750059
 42
0.000000
 10
-61.500018
 20
209.750059
 42
0.000000
 10
-61.500018
 20
208.750059
 42
0.000000
 10
-61.000018
 20
207.750059
 42
0.000000
 10
-61.500018
 20
206.750059
 42
0.000000
 10
-61.500018
 20
205.750059
 42
0.000000
 10
-62.000018
 20
204.750059
 42
0.000000
 10
-61.500018
 20
203.750059
 42
0.000000
 10
-61.500018
 20
202.750059
 42
0.000000
 10
-61.000018
 20
201.750059
 42
0.000000
 10
-61.500018
 20
200.750059
 42
0.000000
 10
-61.500018
 20
199.750059
 42
0.000000
 10
-62.000018
 20
198.750059
 42
0.000000
 10
-61.500018
 20
197.750059
 42
0.000000
 10
-61.500018
 20
196.750059
 42
0.000000
 10
-61.000018
 20
195.750059
 42
0.000000
 10
-61.500018
 20
194.750059
 42
0.000000
 10
-61.500018
 20
193.750059
 42
0.000000
 10
-62.000018
 20
192.750059
 42
0.000000
 10
-61.500018
 20
191.750059
 42
0.000000
 10
-61.500018
 20
190.750059
 42
0.000000
 10
-61.000018
 20
189.750059
 42
0.000000
 10
-61.500018
 20
188.750059
 42
0.000000
 10
-61.500018
 20
187.750059
 42
0.000000
 10
-62.000018
 20
186.750059
 42
0.000000
 10
-61.500018
 20
185.750059
 42
0.000000
 10
-61.500018
 20
184.750059
 42
0.000000
 10
-61.000018
 20
183.750059
 42
0.000000
 10
-61.500018
 20
182.750059
 42
0.000000
 10
-61.500018
 20
181.750059
 42
0.000000
 10
-62.000018
 20
180.750059
 42
0.000000
 10
-61.500018
 20
179.750059
 42
0.000000
 10
-61.500018
 20
178.750059
 42
0.000000
 10
-61.000018
 20
177.750059
 42
0.000000
 10
-61.500018
 20
176.750059
 42
0.000000
 10
-61.500018
 20
175.750059
 42
0.000000
 10
-62.000018
 20
174.750059
 42
0.000000
 10
-61.500018
 20
173.750059
 42
0.000000
 10
-61.500018
 20
172.750059
 42
0.000000
 10
-61.000018
 20
171.750059
 42
0.000000
 10
-61.500018
 20
170.750059
 42
0.000000
 10
-61.500018
 20
169.750059
 42
0.000000
 10
-62.000018
 20
168.750059
 42
0.000000
 10
-61.500018
 20
167.750059
 42
0.000000
 10
-61.500018
 20
166.750059
 42
0.000000
 10
-61.000018
 20
165.750059
 42
0.000000
 10
-61.500018
 20
164.750059
 42
0.000000
 10
-61.500018
 20
163.750059
 42
0.000000
 10
-62.000018
 20
162.750059
 42
0.000000
 10
-61.500018
 20
161.750059
 42
0.000000
 10
-61.495620
 20
160.741263
 42
0.000000
 10
-61.000018
 20
159.750059
 42
0.000000
 10
-61.500018
 20
158.750059
 42
0.000000
 10
-61.500018
 20
157.750059
 42
0.000000
 10
-62.000018
 20
156.750059
 42
0.000000
 10
-61.500018
 20
155.750059
 42
0.000000
 10
-61.500018
 20
154.750059
 42
0.000000
 10
-61.000018
 20
153.750059
 42
0.000000
 10
-61.500018
 20
152.750059
 42
0.000000
 10
-61.500018
 20
151.750059
 42
0.000000
 10
-62.000018
 20
150.750059
 42
0.000000
 10
-61.500018
 20
149.750059
 42
0.000000
 10
-61.500018
 20
148.750059
 42
0.000000
 10
-61.000018
 20
147.750059
 42
0.000000
 10
-61.500018
 20
146.750059
 42
0.000000
 10
-61.500018
 20
145.750059
 42
0.000000
 10
-62.000018
 20
144.750059
 42
0.000000
 10
-61.500018
 20
143.750059
 42
0.000000
 10
-61.500018
 20
142.750059
 42
0.000000
 10
-61.000018
 20
141.750059
 42
0.000000
 10
-61.500018
 20
140.750059
 42
0.000000
 10
-61.500018
 20
139.750059
 42
0.000000
 10
-62.000018
 20
138.750059
 42
0.000000
 10
-61.500018
 20
137.750059
 42
0.000000
 10
-61.500018
 20
136.750059
 42
0.000000
 10
-61.000018
 20
135.750059
 42
0.000000
 10
-61.500018
 20
134.750059
 42
0.000000
 10
-61.500018
 20
133.750059
 42
0.000000
 10
-62.000018
 20
132.750059
 42
0.000000
 10
-61.500018
 20
131.750059
 42
0.000000
 10
-61.500018
 20
130.750059
 42
0.000000
 10
-61.000018
 20
129.750059
 42
0.000000
 10
-61.500018
 20
128.742392
 42
0.000000
 10
-61.500018
 20
127.750059
 42
0.000000
 10
-62.000018
 20
126.750059
 42
0.000000
 10
-61.500018
 20
125.750059
 42
0.000000
 10
-61.500018
 20
124.750059
 42
0.000000
 10
-61.000018
 20
123.750059
 42
0.000000
 10
-61.500018
 20
122.750059
 42
0.000000
 10
-61.500018
 20
121.750059
 42
0.000000
 10
-62.000018
 20
120.750059
 42
0.000000
 10
-61.500018
 20
119.750059
 42
0.000000
 10
-61.500018
 20
118.750059
 42
0.000000
 10
-61.000018
 20
117.750059
 42
0.000000
 10
-61.500018
 20
116.750059
 42
0.000000
 10
-61.500018
 20
115.750059
 42
0.000000
 10
-62.000018
 20
114.750059
 42
0.000000
 10
-61.500018
 20
113.750059
 42
0.000000
 10
-61.500018
 20
112.750059
 42
0.000000
 10
-61.000018
 20
111.750059
 42
0.000000
 10
-61.500018
 20
110.750059
 42
0.000000
 10
-61.500018
 20
109.750059
 42
0.000000
 10
-62.000018
 20
108.750059
 42
0.000000
 10
-61.500018
 20
107.750059
 42
0.000000
 10
-61.500018
 20
106.750059
 42
0.000000
 10
-61.000018
 20
105.750059
 42
0.000000
 10
-61.500018
 20
104.750059
 42
0.000000
 10
-61.500018
 20
103.750059
 42
0.000000
 10
-62.000018
 20
102.750059
 42
0.000000
 10
-61.500018
 20
101.750059
 42
0.000000
 10
-61.500018
 20
100.750059
 42
0.000000
 10
-61.000018
 20
99.750059
 42
0.000000
 10
-61.500018
 20
98.750059
 42
0.000000
 10
-61.500018
 20
97.750059
 42
0.000000
 10
-62.000018
 20
96.750059
 42
0.000000
 10
-61.500018
 20
95.750059
 42
0.000000
 10
-61.500018
 20
94.750059
 42
0.000000
 10
-61.000018
 20
93.750059
 42
0.000000
 10
-61.500018
 20
92.750059
 42
0.000000
 10
-61.500018
 20
91.750059
 42
0.000000
 10
-62.000018
 20
90.750059
 42
0.000000
 10
-61.500018
 20
89.750059
 42
0.000000
 10
-61.500018
 20
88.750059
 42
0.000000
 10
-61.000018
 20
87.750059
 42
0.000000
 10
-61.500018
 20
86.750059
 42
0.000000
 10
-61.500018
 20
85.750059
 42
0.000000
 10
-62.000018
 20
84.750059
 42
0.000000
 10
-61.500018
 20
83.750059
 42
0.000000
 10
-61.500018
 20
82.750059
 42
0.000000
 10
-61.000018
 20
81.750059
 42
0.000000
 10
-61.500018
 20
80.750059
 42
0.000000
 10
-61.500018
 20
79.750059
 42
0.000000
 10
-62.000018
 20
78.750059
 42
0.000000
 10
-61.500018
 20
77.750059
 42
0.000000
 10
-61.500018
 20
76.750059
 42
0.000000
 10
-61.000018
 20
75.750059
 42
0.000000
 10
-61.500018
 20
74.750059
 42
0.000000
 10
-61.500018
 20
73.750059
 42
0.000000
 10
-62.000018
 20
72.750059
 42
0.000000
 10
-61.500018
 20
71.750059
 42
0.000000
 10
-61.500018
 20
70.750059
 42
0.000000
 10
-61.000018
 20
69.750059
 42
0.000000
 10
-61.500018
 20
68.750059
 42
0.000000
 10
-61.500018
 20
67.750059
 42
0.000000
 10
-62.000018
 20
66.750059
 42
0.000000
 10
-61.500018
 20
65.750059
 42
0.000000
 10
-61.500018
 20
64.750059
 42
0.000000
 10
-61.000018
 20
63.750059
 42
0.000000
 10
-61.500018
 20
62.750059
 42
0.000000
 10
-61.500018
 20
61.750059
 42
0.000000
 10
-62.000018
 20
60.750059
 42
0.000000
 10
-61.500018
 20
59.750059
 42
0.000000
 10
-61.500018
 20
58.750059
 42
0.000000
 10
-61.000018
 20
57.750059
 42
0.000000
 10
-61.500018
 20
56.750059
 42
0.000000
 10
-61.500018
 20
55.750059
 42
0.000000
 10
-62.000018
 20
54.750059
 42
0.000000
 10
-61.500018
 20
53.750059
 42
0.000000
 10
-61.500018
 20
52.750059
 42
0.000000
 10
-61.000018
 20
51.750059
 42
0.000000
 10
-61.500018
 20
50.750059
 42
0.000000
 10
-61.500018
 20
49.750059
 42
0.000000
 10
-62.000018
 20
48.750059
 42
0.000000
 10
-61.500018
 20
47.750059
 42
0.000000
 10
-61.500018
 20
46.750059
 42
0.000000
 10
-61.000018
 20
45.750059
 42
0.000000
 10
-61.500018
 20
44.750059
 42
0.000000
 10
-61.500018
 20
43.750059
 42
0.000000
 10
-62.000018
 20
42.750059
 42
0.000000
 10
-61.500018
 20
41.750059
 42
0.000000
 10
-61.500018
 20
40.750059
 42
0.000000
 10
-61.000018
 20
39.750059
 42
0.000000
 10
-61.500018
 20
38.750059
 42
0.000000
 10
-61.500018
 20
37.750059
 42
0.000000
 10
-62.000018
 20
36.750059
 42
0.000000
 10
-61.500018
 20
35.750059
 42
0.000000
 10
-61.500018
 20
34.750059
 42
0.000000
 10
-61.000018
 20
33.750059
 42
0.000000
 10
-61.500018
 20
32.750059
 42
0.000000
 10
-61.500018
 20
31.750059
 42
0.000000
 10
-62.000018
 20
30.750059
 42
0.000000
 10
-61.500018
 20
29.750059
 42
0.000000
 10
-61.500018
 20
28.750059
 42
0.000000
 10
-61.000018
 20
27.750059
 42
0.000000
 10
-61.500018
 20
26.750059
 42
0.000000
 10
-61.500018
 20
25.750059
 42
0.000000
 10
-62.000018
 20
24.750059
 42
0.000000
 10
-61.500018
 20
23.750059
 42
0.000000
 10
-61.500018
 20
22.750059
 42
0.000000
 10
-61.000018
 20
21.750059
 42
0.000000
 10
-61.500018
 20
20.750059
 42
0.000000
 10
-61.500018
 20
19.750059
 42
0.000000
 10
-62.000018
 20
18.750059
 42
0.000000
 10
-61.500018
 20
17.750059
 42
0.000000
 10
-61.500018
 20
16.750059
 42
0.000000
 10
-61.000018
 20
15.750059
 42
0.000000
 10
-61.500018
 20
14.750059
 42
0.000000
 10
-61.500018
 20
13.750059
 42
0.000000
 10
-62.000018
 20
12.750059
 42
0.000000
 10
-61.500018
 20
11.750059
 42
0.000000
 10
-61.500018
 20
10.750059
 42
0.000000
 10
-61.000018
 20
9.750059
 42
0.000000
 10
-61.500018
 20
8.750059
 42
0.000000
 10
-61.500018
 20
7.750059
 42
0.000000
 10
-62.000018
 20
6.750059
 42
0.000000
 10
-61.500018
 20
5.750059
 42
0.000000
 10
-61.500018
 20
4.750059
 42
0.000000
 10
-61.000018
 20
3.750059
 42
0.000000
 10
-61.500018
 20
2.750059
 42
0.000000
 10
-61.500018
 20
1.750059
 42
0.000000
 10
-62.000018
 20
0.750059
 42
0.000000
 10
-61.500018
 20
-0.249941
 42
0.000000
 10
-61.500018
 20
-1.249941
 42
0.000000
 10
-61.000018
 20
-2.249941
 42
0.000000
 10
-61.500018
 20
-3.249941
 42
0.000000
 10
-61.500018
 20
-4.249941
 42
0.000000
 10
-62.000018
 20
-5.249941
 42
0.000000
 10
-61.500018
 20
-6.249941
 42
0.000000
 10
-61.500018
 20
-7.249941
 42
0.000000
 10
-61.000018
 20
-8.249941
 42
0.000000
 10
-61.500018
 20
-9.257608
 42
0.000000
 10
-61.500018
 20
-10.249941
 42
0.000000
 10
-62.000018
 20
-11.249941
 42
0.000000
 10
-61.500018
 20
-12.249941
 42
0.000000
 10
-61.500018
 20
-13.249941
 42
0.000000
 10
-61.000018
 20
-14.249941
 42
0.000000
 10
-61.500018
 20
-15.249941
 42
0.000000
 10
-61.500018
 20
-16.249941
 42
0.000000
 10
-62.000018
 20
-17.249941
 42
0.000000
 10
-61.500018
 20
-18.249941
 42
0.000000
 10
-61.500018
 20
-19.249941
 42
0.000000
 10
-63.500018
 20
-21.249941
 42
0.000000
  0
ENDBLK
  5
562
100
AcDbEntity
  8
0
100
AcDbBlockEnd
  0
BLOCK
  5
563
100
AcDbEntity
  8
Detail
100
AcDbBlockBegin
  2
B-33
 70
    66
 10
0.000000
 20
0.000000
 30
0.000000
  0
LWPOLYLINE
  5
564
100
AcDbEntity
  8
Detail
  6
HIDDEN
 62
     9
100
AcDbPolyline
 90
     2
 10
-64.500018
 20
296.250078
 42
0.000000
 10
-64.500018
 20
-21.249941
 42
0.000000
  0
ENDBLK
  5
567
100
AcDbEntity
  8
0
100
AcDbBlockEnd
  0
BLOCK
  5
568
100
AcDbEntity
  8
Detail
100
AcDbBlockBegin
  2
B-34
 70
    66
 10
0.000000
 20
0.000000
 30
0.000000
  0
LWPOLYLINE
  5
569
100
AcDbEntity
  8
Detail
  6
HIDDEN
 62
     9
100
AcDbPolyline
 90
     2
 10
-145.500018
 20
-46.249941
 42
0.000000
 10
212.500023
 20
-46.249941
 42
0.000000
  0
LWPOLYLINE
  5
56C
100
AcDbEntity
  8
Detail
  6
CONTINUOUS
 62
     6
100
AcDbPolyline
 90
     4
 10
212.500023
 20
-51.249941
 42
0.000000
 10
-150.500018
 20
-51.249941
 42
0.000000
 10
-144.500018
 20
-45.249941
 42
0.000000
 10
212.500023
 20
-45.249941
 42
0.000000
  0
ENDBLK
  5
571
100
AcDbEntity
  8
0
100
AcDbBlockEnd
  0
BLOCK
  5
572
100
AcDbEntity
  8
Detail
100
AcDbBlockBegin
  2
B-35
 70
    66
 10
0.000000
 20
0.000000
 30
0.000000
  0
MTEXT
  5
574
100
AcDbEntity
  8
Detail
 62
     7
100
AcDbMText
 10
79.375019
 20
261.250056
 30
0.000000
 40
4.999990
 41
59.482357
 71
     1
 72
     5
  1
WDVS-Dämmstoff
  7
Arial
 50
0.000000
  0
ENDBLK
  5
575
100
AcDbEntity
  8
0
100
AcDbBlockEnd
  0
BLOCK
  5
576
100
AcDbEntity
  8
Detail
100
AcDbBlockBegin
  2
B-36
 70
    66
 10
0.000000
 20
0.000000
 30
0.000000
  0
MTEXT
  5
577
100
AcDbEntity
  8
Detail
 62
     7
100
AcDbMText
 10
79.375019
 20
236.250056
 30
0.000000
 40
4.999990
 41
60.059856
 71
     1
 72
     5
  1
Armierungsschicht
  7
Arial
 50
0.000000
  0
ENDBLK
  5
578
100
AcDbEntity
  8
0
100
AcDbBlockEnd
  0
BLOCK
  5
579
100
AcDbEntity
  8
Detail
100
AcDbBlockBegin
  2
B-37
 70
    66
 10
0.000000
 20
0.000000
 30
0.000000
  0
MTEXT
  5
57A
100
AcDbEntity
  8
Detail
 62
     7
100
AcDbMText
 10
79.375019
 20
211.250056
 30
0.000000
 40
4.999990
 41
30.449927
 71
     1
 72
     5
  1
Deckputz
  7
Arial
 50
0.000000
  0
ENDBLK
  5
57B
100
AcDbEntity
  8
0
100
AcDbBlockEnd
  0
BLOCK
  5
57C
100
AcDbEntity
  8
Detail
100
AcDbBlockBegin
  2
B-38
 70
    66
 10
0.000000
 20
0.000000
 30
0.000000
  0
MTEXT
  5
57D
100
AcDbEntity
  8
Detail
 62
     7
100
AcDbMText
 10
79.375019
 20
181.250066
 30
0.000000
 40
4.999990
 41
82.372302
 71
     7
 72
     5
  1
Verdübelung versenkt mit
  7
Arial
 50
0.000000
  0
MTEXT
  5
57E
100
AcDbEntity
  8
Detail
 62
     7
100
AcDbMText
 10
79.375019
 20
173.750081
 30
0.000000
 40
4.999990
 41
82.634802
 71
     7
 72
     5
  1
Thermorondell abgedeckt
  7
Arial
 50
0.000000
  0
ENDBLK
  5
57F
100
AcDbEntity
  8
0
100
AcDbBlockEnd
  0
BLOCK
  5
580
100
AcDbEntity
  8
Detail
100
AcDbBlockBegin
  2
B-39
 70
    66
 10
0.000000
 20
0.000000
 30
0.000000
  0
MTEXT
  5
581
100
AcDbEntity
  8
Detail
 62
     7
100
AcDbMText
 10
79.375019
 20
161.250055
 30
0.000000
 40
4.999990
 41
47.092387
 71
     1
 72
     5
  1
Sockelschiene
  7
Arial
 50
0.000000
  0
ENDBLK
  5
582
100
AcDbEntity
  8
0
100
AcDbBlockEnd
  0
BLOCK
  5
583
100
AcDbEntity
  8
Detail
100
AcDbBlockBegin
  2
B-40
 70
    66
 10
0.000000
 20
0.000000
 30
0.000000
  0
MTEXT
  5
584
100
AcDbEntity
  8
Detail
 62
     7
100
AcDbMText
 10
79.375019
 20
136.250052
 30
0.000000
 40
4.999990
 41
50.347379
 71
     1
 72
     5
  1
MW-Dämmstoff
  7
Arial
 50
0.000000
  0
ENDBLK
  5
585
100
AcDbEntity
  8
0
100
AcDbBlockEnd
  0
BLOCK
  5
586
100
AcDbEntity
  8
Detail
100
AcDbBlockBegin
  2
B-41
 70
    66
 10
0.000000
 20
0.000000
 30
0.000000
  0
MTEXT
  5
587
100
AcDbEntity
  8
Detail
 62
     7
100
AcDbMText
 10
79.375019
 20
111.250052
 30
0.000000
 40
4.999990
 41
82.792301
 71
     1
 72
     5
  1
Fugendichtband Typ B15 
  7
Arial
 50
0.000000
  0
ENDBLK
  5
588
100
AcDbEntity
  8
0
100
AcDbBlockEnd
  0
BLOCK
  5
589
100
AcDbEntity
  8
Detail
100
AcDbBlockBegin
  2
B-42
 70
    66
 10
0.000000
 20
0.000000
 30
0.000000
  0
MTEXT
  5
58A
100
AcDbEntity
  8
Detail
 62
     7
100
AcDbMText
 10
79.375019
 20
81.250063
 30
0.000000
 40
4.999990
 41
71.872328
 71
     7
 72
     5
  1
Armierungsschicht mit
  7
Arial
 50
0.000000
  0
MTEXT
  5
58B
100
AcDbEntity
  8
Detail
 62
     7
100
AcDbMText
 10
79.375019
 20
73.750078
 30
0.000000
 40
4.999990
 41
68.827335
 71
     7
 72
     5
  1
Ceratherm Mörtel DP
  7
Arial
 50
0.000000
  0
ENDBLK
  5
58C
100
AcDbEntity
  8
0
100
AcDbBlockEnd
  0
BLOCK
  5
58D
100
AcDbEntity
  8
Detail
100
AcDbBlockBegin
  2
B-43
 70
    66
 10
0.000000
 20
0.000000
 30
0.000000
  0
MTEXT
  5
58E
100
AcDbEntity
  8
Detail
 62
     7
100
AcDbMText
 10
79.375019
 20
56.250064
 30
0.000000
 40
4.999990
 41
69.929832
 71
     7
 72
     5
  1
Ausgleichsschicht mit
  7
Arial
 50
0.000000
  0
MTEXT
  5
58F
100
AcDbEntity
  8
Detail
 62
     7
100
AcDbMText
 10
79.375019
 20
48.750079
 30
0.000000
 40
4.999990
 41
68.827335
 71
     7
 72
     5
  1
Ceratherm Mörtel DP
  7
Arial
 50
0.000000
  0
ENDBLK
  5
590
100
AcDbEntity
  8
0
100
AcDbBlockEnd
  0
BLOCK
  5
591
100
AcDbEntity
  8
Detail
100
AcDbBlockBegin
  2
B-44
 70
    66
 10
0.000000
 20
0.000000
 30
0.000000
  0
MTEXT
  5
592
100
AcDbEntity
  8
Detail
 62
     7
100
AcDbMText
 10
79.375019
 20
36.250054
 30
0.000000
 40
4.999990
 41
44.939892
 71
     1
 72
     5
  1
Verlegemörtel
  7
Arial
 50
0.000000
  0
ENDBLK
  5
593
100
AcDbEntity
  8
0
100
AcDbBlockEnd
  0
BLOCK
  5
594
100
AcDbEntity
  8
Detail
100
AcDbBlockBegin
  2
B-45
 70
    66
 10
0.000000
 20
0.000000
 30
0.000000
  0
MTEXT
  5
595
100
AcDbEntity
  8
Detail
 62
     7
100
AcDbMText
 10
79.375019
 20
11.250054
 30
0.000000
 40
4.999990
 41
48.982382
 71
     1
 72
     5
  1
Hartbekleidung
  7
Arial
 50
0.000000
  0
ENDBLK
  5
596
100
AcDbEntity
  8
0
100
AcDbBlockEnd
  0
BLOCK
  5
597
100
AcDbEntity
  8
SCHRAFF
100
AcDbBlockBegin
  2
B-46
 70
    66
 10
0.000000
 20
0.000000
 30
0.000000
  0
HATCH
  5
598
100
AcDbEntity
  8
SCHRAFF
 62
     7
440
     0
100
AcDbHatch
 10
0.000000
 20
0.000000
 30
0.000000
210
0.000000
220
0.000000
230
1.000000
  2
SOLID
 70
     1
 71
     1
 91
     1
 92
    18
 72
     1
 73
     0
 93
     3
 10
-107.000018
 20
258.750056
 42
1.000000
 10
-108.000018
 20
258.750056
 42
1.000000
 10
-107.000018
 20
258.750056
 42
0.000000
 97
     0
 75
     0
 76
     1
 98
     0
  0
CIRCLE
  5
599
100
AcDbEntity
  8
Detail
  6
CONTINUOUS
 62
     7
100
AcDbCircle
 10
-107.500018
 20
258.750056
 40
0.500000
  0
ENDBLK
  5
59A
100
AcDbEntity
  8
0
100
AcDbBlockEnd
  0
BLOCK
  5
59B
100
AcDbEntity
  8
SCHRAFF
100
AcDbBlockBegin
  2
B-47
 70
    66
 10
0.000000
 20
0.000000
 30
0.000000
  0
HATCH
  5
59C
100
AcDbEntity
  8
SCHRAFF
 62
     7
440
     0
100
AcDbHatch
 10
0.000000
 20
0.000000
 30
0.000000
210
0.000000
220
0.000000
230
1.000000
  2
SOLID
 70
     1
 71
     1
 91
     1
 92
    18
 72
     1
 73
     0
 93
     3
 10
-65.000018
 20
233.750057
 42
1.000000
 10
-66.000018
 20
233.750057
 42
1.000000
 10
-65.000018
 20
233.750057
 42
0.000000
 97
     0
 75
     0
 76
     1
 98
     0
  0
CIRCLE
  5
59D
100
AcDbEntity
  8
Detail
  6
CONTINUOUS
 62
     7
100
AcDbCircle
 10
-65.500018
 20
233.750057
 40
0.500000
  0
ENDBLK
  5
59E
100
AcDbEntity
  8
0
100
AcDbBlockEnd
  0
BLOCK
  5
59F
100
AcDbEntity
  8
SCHRAFF
100
AcDbBlockBegin
  2
B-48
 70
    66
 10
0.000000
 20
0.000000
 30
0.000000
  0
HATCH
  5
5A0
100
AcDbEntity
  8
SCHRAFF
 62
     7
440
     0
100
AcDbHatch
 10
0.000000
 20
0.000000
 30
0.000000
210
0.000000
220
0.000000
230
1.000000
  2
SOLID
 70
     1
 71
     1
 91
     1
 92
    18
 72
     1
 73
     0
 93
     3
 10
-62.000018
 20
208.750059
 42
1.000000
 10
-63.000018
 20
208.750059
 42
1.000000
 10
-62.000018
 20
208.750059
 42
0.000000
 97
     0
 75
     0
 76
     1
 98
     0
  0
CIRCLE
  5
5A1
100
AcDbEntity
  8
Detail
  6
CONTINUOUS
 62
     7
100
AcDbCircle
 10
-62.500018
 20
208.750059
 40
0.500000
  0
ENDBLK
  5
5A2
100
AcDbEntity
  8
0
100
AcDbBlockEnd
  0
BLOCK
  5
5A3
100
AcDbEntity
  8
SCHRAFF
100
AcDbBlockBegin
  2
B-49
 70
    66
 10
0.000000
 20
0.000000
 30
0.000000
  0
HATCH
  5
5A4
100
AcDbEntity
  8
SCHRAFF
 62
     7
440
     0
100
AcDbHatch
 10
0.000000
 20
0.000000
 30
0.000000
210
0.000000
220
0.000000
230
1.000000
  2
SOLID
 70
     1
 71
     1
 91
     1
 92
    18
 72
     1
 73
     0
 93
     3
 10
-85.514215
 20
183.750056
 42
1.000000
 10
-86.514215
 20
183.750056
 42
1.000000
 10
-85.514215
 20
183.750056
 42
0.000000
 97
     0
 75
     0
 76
     1
 98
     0
  0
CIRCLE
  5
5A5
100
AcDbEntity
  8
Detail
  6
CONTINUOUS
 62
     7
100
AcDbCircle
 10
-86.014215
 20
183.750056
 40
0.500000
  0
ENDBLK
  5
5A6
100
AcDbEntity
  8
0
100
AcDbBlockEnd
  0
BLOCK
  5
5A7
100
AcDbEntity
  8
SCHRAFF
100
AcDbBlockBegin
  2
B-50
 70
    66
 10
0.000000
 20
0.000000
 30
0.000000
  0
HATCH
  5
5A8
100
AcDbEntity
  8
SCHRAFF
 62
     7
440
     0
100
AcDbHatch
 10
0.000000
 20
0.000000
 30
0.000000
210
0.000000
220
0.000000
230
1.000000
  2
SOLID
 70
     1
 71
     1
 91
     1
 92
    18
 72
     1
 73
     0
 93
     3
 10
-68.000018
 20
-26.249941
 42
1.000000
 10
-69.000018
 20
-26.249941
 42
1.000000
 10
-68.000018
 20
-26.249941
 42
0.000000
 97
     0
 75
     0
 76
     1
 98
     0
  0
CIRCLE
  5
5A9
100
AcDbEntity
  8
Detail
  6
CONTINUOUS
 62
     7
100
AcDbCircle
 10
-68.500018
 20
-26.249941
 40
0.500000
  0
ENDBLK
  5
5AA
100
AcDbEntity
  8
0
100
AcDbBlockEnd
  0
BLOCK
  5
5AB
100
AcDbEntity
  8
SCHRAFF
100
AcDbBlockBegin
  2
B-51
 70
    66
 10
0.000000
 20
0.000000
 30
0.000000
  0
HATCH
  5
5AC
100
AcDbEntity
  8
SCHRAFF
 62
     7
440
     0
100
AcDbHatch
 10
0.000000
 20
0.000000
 30
0.000000
210
0.000000
220
0.000000
230
1.000000
  2
SOLID
 70
     1
 71
     1
 91
     1
 92
    18
 72
     1
 73
     0
 93
     3
 10
-16.000017
 20
-48.249941
 42
1.000000
 10
-17.000017
 20
-48.249941
 42
1.000000
 10
-16.000017
 20
-48.249941
 42
0.000000
 97
     0
 75
     0
 76
     1
 98
     0
  0
CIRCLE
  5
5AD
100
AcDbEntity
  8
Detail
  6
CONTINUOUS
 62
     7
100
AcDbCircle
 10
-16.500017
 20
-48.249941
 40
0.500000
  0
ENDBLK
  5
5AE
100
AcDbEntity
  8
0
100
AcDbBlockEnd
  0
BLOCK
  5
5AF
100
AcDbEntity
  8
SCHRAFF
100
AcDbBlockBegin
  2
B-52
 70
    66
 10
0.000000
 20
0.000000
 30
0.000000
  0
HATCH
  5
5B0
100
AcDbEntity
  8
SCHRAFF
 62
     7
440
     0
100
AcDbHatch
 10
0.000000
 20
0.000000
 30
0.000000
210
0.000000
220
0.000000
230
1.000000
  2
SOLID
 70
     1
 71
     1
 91
     1
 92
    18
 72
     1
 73
     0
 93
     3
 10
3.999983
 20
-44.249941
 42
1.000000
 10
2.999983
 20
-44.249941
 42
1.000000
 10
3.999983
 20
-44.249941
 42
0.000000
 97
     0
 75
     0
 76
     1
 98
     0
  0
CIRCLE
  5
5B1
100
AcDbEntity
  8
Detail
  6
CONTINUOUS
 62
     7
100
AcDbCircle
 10
3.499983
 20
-44.249941
 40
0.500000
  0
ENDBLK
  5
5B2
100
AcDbEntity
  8
0
100
AcDbBlockEnd
  0
BLOCK
  5
5B3
100
AcDbEntity
  8
SCHRAFF
100
AcDbBlockBegin
  2
B-53
 70
    66
 10
0.000000
 20
0.000000
 30
0.000000
  0
HATCH
  5
5B4
100
AcDbEntity
  8
SCHRAFF
 62
     7
440
     0
100
AcDbHatch
 10
0.000000
 20
0.000000
 30
0.000000
210
0.000000
220
0.000000
230
1.000000
  2
SOLID
 70
     1
 71
     1
 91
     1
 92
    18
 72
     1
 73
     0
 93
     3
 10
23.999982
 20
-41.249941
 42
1.000000
 10
22.999982
 20
-41.249941
 42
1.000000
 10
23.999982
 20
-41.249941
 42
0.000000
 97
     0
 75
     0
 76
     1
 98
     0
  0
CIRCLE
  5
5B5
100
AcDbEntity
  8
Detail
  6
CONTINUOUS
 62
     7
100
AcDbCircle
 10
23.499982
 20
-41.249941
 40
0.500000
  0
ENDBLK
  5
5B6
100
AcDbEntity
  8
0
100
AcDbBlockEnd
  0
BLOCK
  5
5B7
100
AcDbEntity
  8
SCHRAFF
100
AcDbBlockBegin
  2
B-54
 70
    66
 10
0.000000
 20
0.000000
 30
0.000000
  0
HATCH
  5
5B8
100
AcDbEntity
  8
SCHRAFF
 62
     7
440
     0
100
AcDbHatch
 10
0.000000
 20
0.000000
 30
0.000000
210
0.000000
220
0.000000
230
1.000000
  2
SOLID
 70
     1
 71
     1
 91
     1
 92
    18
 72
     1
 73
     0
 93
     3
 10
43.999982
 20
-35.249941
 42
1.000000
 10
42.999982
 20
-35.249941
 42
1.000000
 10
43.999982
 20
-35.249941
 42
0.000000
 97
     0
 75
     0
 76
     1
 98
     0
  0
CIRCLE
  5
5B9
100
AcDbEntity
  8
Detail
  6
CONTINUOUS
 62
     7
100
AcDbCircle
 10
43.499982
 20
-35.249941
 40
0.500000
  0
ENDBLK
  5
5BA
100
AcDbEntity
  8
0
100
AcDbBlockEnd
  0
BLOCK
  5
5BB
100
AcDbEntity
  8
SCHRAFF
100
AcDbBlockBegin
  2
B-55
 70
    66
 10
0.000000
 20
0.000000
 30
0.000000
  0
HATCH
  5
5BC
100
AcDbEntity
  8
SCHRAFF
 62
     7
440
     0
100
AcDbHatch
 10
0.000000
 20
0.000000
 30
0.000000
210
0.000000
220
0.000000
230
1.000000
  2
SOLID
 70
     1
 71
     1
 91
     1
 92
    18
 72
     1
 73
     0
 93
     3
 10
160.999982
 20
-36.249941
 42
1.000000
 10
159.999982
 20
-36.249941
 42
1.000000
 10
160.999982
 20
-36.249941
 42
0.000000
 97
     0
 75
     0
 76
     1
 98
     0
  0
CIRCLE
  5
5BD
100
AcDbEntity
  8
Detail
  6
CONTINUOUS
 62
     7
100
AcDbCircle
 10
160.499982
 20
-36.249941
 40
0.500000
  0
ENDBLK
  5
5BE
100
AcDbEntity
  8
0
100
AcDbBlockEnd
  0
BLOCK
  5
5BF
100
AcDbEntity
  8
SCHRAFF
100
AcDbBlockBegin
  2
B-56
 70
    66
 10
0.000000
 20
0.000000
 30
0.000000
  0
HATCH
  5
5C0
100
AcDbEntity
  8
SCHRAFF
  6
CONTINUOUS
 62
     9
100
AcDbHatch
 10
0.000000
 20
0.000000
 30
0.000000
210
0.000000
220
0.000000
230
1.000000
  2
_U
 70
     0
 71
     1
 91
     1
 92
    18
 72
     1
 73
     0
 93
     5
 10
-152.500018
 20
-116.249941
 42
0.000000
 10
-152.500018
 20
296.250078
 42
0.000000
 10
-212.500018
 20
296.250078
 42
0.000000
 10
-212.500018
 20
-116.249941
 42
0.000000
 10
-152.500018
 20
-116.249941
 42
0.000000
 97
     0
 75
     0
 76
     0
 52
0.000000
 41
1.000000
 77
     0
 78
     1
 53
45.000000
 43
-0.000000
 44
0.000000
 45
-17.677670
 46
17.677670
 79
     0
 98
     0
  0
ENDBLK
  5
5C1
100
AcDbEntity
  8
0
100
AcDbBlockEnd
  0
BLOCK
  5
5C2
100
AcDbEntity
  8
L
100
AcDbBlockBegin
  2
B-57
 70
    66
 10
0.000000
 20
0.000000
 30
0.000000
  0
LWPOLYLINE
  5
5C3
100
AcDbEntity
  8
L
  6
CONTINUOUS
 62
     2
100
AcDbPolyline
 90
     3
 10
-212.500018
 20
-116.249941
 42
0.000000
 10
-152.500018
 20
-116.249941
 42
0.000000
 10
-152.500018
 20
296.250078
 42
0.000000
  0
ENDBLK
  5
5C7
100
AcDbEntity
  8
0
100
AcDbBlockEnd
  0
BLOCK
  5
5C8
100
AcDbEntity
  8
Detail
100
AcDbBlockBegin
  2
B-58
 70
    66
 10
0.000000
 20
0.000000
 30
0.000000
  0
LWPOLYLINE
  5
5C9
100
AcDbEntity
  8
Detail
  6
CONTINUOUS
 62
     4
100
AcDbPolyline
 90
     5
 10
-63.500018
 20
-21.249941
 42
0.000000
 10
-73.500018
 20
-21.249941
 42
0.000000
 10
-73.500018
 20
-31.249941
 42
0.000000
 10
-63.500018
 20
-31.249941
 42
0.000000
 10
-63.500018
 20
-21.249941
 42
0.000000
  0
ENDBLK
  5
5CF
100
AcDbEntity
  8
0
100
AcDbBlockEnd
  0
BLOCK
  5
5D0
100
AcDbEntity
  8
L
100
AcDbBlockBegin
  2
B-59
 70
    66
 10
0.000000
 20
0.000000
 30
0.000000
  0
LWPOLYLINE
  5
5D1
100
AcDbEntity
  8
L
  6
CONTINUOUS
 62
     3
100
AcDbPolyline
 90
     5
 10
-73.500018
 20
-31.249941
 42
0.000000
 10
-152.500018
 20
-31.249941
 42
0.000000
 10
-152.500018
 20
-21.249941
 42
0.000000
 10
-73.500018
 20
-21.249941
 42
0.000000
 10
-73.500018
 20
-31.249941
 42
0.000000
  0
ENDBLK
  5
5D7
100
AcDbEntity
  8
0
100
AcDbBlockEnd
  0
BLOCK
  5
5D8
100
AcDbEntity
  8
SCHRAFF
100
AcDbBlockBegin
  2
B-60
 70
    66
 10
0.000000
 20
0.000000
 30
0.000000
  0
HATCH
  5
5D9
100
AcDbEntity
  8
SCHRAFF
 62
     7
440
     0
100
AcDbHatch
 10
0.000000
 20
0.000000
 30
0.000000
210
0.000000
220
0.000000
230
1.000000
  2
SOLID
 70
     1
 71
     1
 91
     1
 92
    18
 72
     1
 73
     0
 93
     3
 10
-107.000018
 20
-26.249941
 42
1.000000
 10
-108.000018
 20
-26.249941
 42
1.000000
 10
-107.000018
 20
-26.249941
 42
0.000000
 97
     0
 75
     0
 76
     1
 98
     0
  0
CIRCLE
  5
5DA
100
AcDbEntity
  8
Detail
  6
CONTINUOUS
 62
     7
100
AcDbCircle
 10
-107.500018
 20
-26.249941
 40
0.500000
  0
ENDBLK
  5
5DB
100
AcDbEntity
  8
0
100
AcDbBlockEnd
  0
BLOCK
  5
5DC
100
AcDbEntity
  8
Detail
100
AcDbBlockBegin
  2
B-61
 70
    66
 10
0.000000
 20
0.000000
 30
0.000000
  0
MTEXT
  5
5DD
100
AcDbEntity
  8
Detail
 62
     7
100
AcDbMText
 10
79.375019
 20
286.250056
 30
0.000000
 40
4.999990
 41
38.902407
 71
     1
 72
     5
  1
Klebemörtel
  7
Arial
 50
0.000000
  0
ENDBLK
  5
5DE
100
AcDbEntity
  8
0
100
AcDbBlockEnd
  0
BLOCK
  5
5DF
100
AcDbEntity
  8
SCHRAFF
100
AcDbBlockBegin
  2
B-62
 70
    66
 10
0.000000
 20
0.000000
 30
0.000000
  0
HATCH
  5
5E0
100
AcDbEntity
  8
SCHRAFF
 62
     7
440
     0
100
AcDbHatch
 10
0.000000
 20
0.000000
 30
0.000000
210
0.000000
220
0.000000
230
1.000000
  2
SOLID
 70
     1
 71
     1
 91
     1
 92
    18
 72
     1
 73
     0
 93
     3
 10
-149.500018
 20
283.750056
 42
1.000000
 10
-150.500018
 20
283.750056
 42
1.000000
 10
-149.500018
 20
283.750056
 42
0.000000
 97
     0
 75
     0
 76
     1
 98
     0
  0
CIRCLE
  5
5E1
100
AcDbEntity
  8
Detail
  6
CONTINUOUS
 62
     7
100
AcDbCircle
 10
-150.000018
 20
283.750056
 40
0.500000
  0
ENDBLK
  5
5E2
100
AcDbEntity
  8
0
100
AcDbBlockEnd
  0
BLOCK
  5
5E3
100
AcDbEntity
  8
Detail
100
AcDbBlockBegin
  2
B-63
 70
    66
 10
0.000000
 20
0.000000
 30
0.000000
  0
MTEXT
  5
5E4
100
AcDbEntity
  8
Detail
 62
     7
100
AcDbMText
 10
79.375019
 20
-13.749946
 30
0.000000
 40
4.999990
 41
40.897402
 71
     1
 72
     5
  1
Fugenmörtel
  7
Arial
 50
0.000000
  0
ENDBLK
  5
5E5
100
AcDbEntity
  8
0
100
AcDbBlockEnd
  0
BLOCK
  5
5E6
100
AcDbEntity
  8
L
100
AcDbBlockBegin
  2
B-64
 70
    66
 10
0.000000
 20
0.000000
 30
0.000000
  0
LWPOLYLINE
  5
5E7
100
AcDbEntity
  8
L
  6
HIDDEN
 62
     9
100
AcDbPolyline
 90
     2
 10
-66.500018
 20
-1.249941
 42
0.000000
 10
-66.500018
 20
78.750059
 42
0.000000
  0
ENDBLK
  5
5EA
100
AcDbEntity
  8
0
100
AcDbBlockEnd
  0
BLOCK
  5
5EB
100
AcDbEntity
  8
Detail
100
AcDbBlockBegin
  2
B-65
 70
    66
 10
0.000000
 20
0.000000
 30
0.000000
  0
LWPOLYLINE
  5
5EC
100
AcDbEntity
  8
Detail
  6
CONTINUOUS
 62
     9
100
AcDbPolyline
 90
     2
 10
-116.014215
 20
190.750056
 42
0.000000
 10
-116.014215
 20
176.770644
 42
0.000000
  0
LWPOLYLINE
  5
5EF
100
AcDbEntity
  8
Detail
  6
CONTINUOUS
 62
     9
100
AcDbPolyline
 90
    83
 10
-87.514215
 20
153.750056
 42
0.000000
 10
-87.014215
 20
153.750056
 42
0.000000
 10
-86.014215
 20
158.750056
 42
0.000000
 10
-86.014215
 20
208.750056
 42
0.000000
 10
-87.014215
 20
213.750056
 42
0.000000
 10
-87.514215
 20
213.750056
 42
0.000000
 10
-87.514215
 20
196.750056
 42
0.000000
 10
-88.764215
 20
193.000056
 42
0.000000
 10
-92.514215
 20
191.750056
 42
0.000000
 10
-116.014215
 20
190.750056
 42
0.000000
 10
-122.014215
 20
188.250056
 42
0.000000
 10
-164.476412
 20
187.710056
 42
0.000000
 10
-165.842354
 20
187.463047
 42
0.000000
 10
-165.918108
 20
187.710056
 42
0.000000
 10
-168.700412
 20
187.710056
 42
0.000000
 10
-170.066354
 20
187.463047
 42
0.000000
 10
-170.142108
 20
187.710056
 42
0.000000
 10
-172.924412
 20
187.710056
 42
0.000000
 10
-174.290354
 20
187.463047
 42
0.000000
 10
-174.366024
 20
187.705256
 42
0.000000
 10
-177.148412
 20
187.710056
 42
0.000000
 10
-178.514354
 20
187.463047
 42
0.000000
 10
-178.590108
 20
187.710056
 42
0.000000
 10
-181.372412
 20
187.710056
 42
0.000000
 10
-182.738354
 20
187.463047
 42
0.000000
 10
-182.814108
 20
187.710056
 42
0.000000
 10
-185.596412
 20
187.710056
 42
0.000000
 10
-186.962354
 20
187.463047
 42
0.000000
 10
-187.038108
 20
187.710056
 42
0.000000
 10
-189.820412
 20
187.710056
 42
0.000000
 10
-191.186354
 20
187.463047
 42
0.000000
 10
-191.262108
 20
187.710056
 42
0.000000
 10
-194.044412
 20
187.710056
 42
0.000000
 10
-195.410354
 20
187.463047
 42
0.000000
 10
-195.486108
 20
187.710056
 42
0.000000
 10
-198.268412
 20
187.710056
 42
0.000000
 10
-199.472568
 20
187.427624
 42
0.000000
 10
-199.931551
 20
187.590056
 42
0.000000
 10
-200.908412
 20
187.155800
 42
0.000000
 10
-201.148412
 20
186.630056
 42
0.000000
 10
-201.916412
 20
186.630056
 42
0.000000
 10
-203.434305
 20
186.089088
 42
0.000000
 10
-204.267922
 20
184.710056
 42
0.000000
 10
-206.014215
 20
183.750056
 42
0.000000
 10
-204.267922
 20
182.790056
 42
0.000000
 10
-203.434305
 20
181.411024
 42
0.000000
 10
-202.171611
 20
180.883663
 42
0.000000
 10
-201.148412
 20
180.870056
 42
0.000000
 10
-200.908412
 20
180.344313
 42
0.000000
 10
-200.156256
 20
179.910056
 42
0.000000
 10
-199.706843
 20
179.910056
 42
0.000000
 10
-199.472568
 20
180.072489
 42
0.000000
 10
-198.268412
 20
179.790056
 42
0.000000
 10
-195.486108
 20
179.790056
 42
0.000000
 10
-195.410354
 20
180.037066
 42
0.000000
 10
-194.044412
 20
179.790056
 42
0.000000
 10
-191.262108
 20
179.790056
 42
0.000000
 10
-191.186354
 20
180.037066
 42
0.000000
 10
-189.820412
 20
179.790056
 42
0.000000
 10
-187.038108
 20
179.790056
 42
0.000000
 10
-186.962354
 20
180.037066
 42
0.000000
 10
-185.596412
 20
179.790056
 42
0.000000
 10
-182.814108
 20
179.790056
 42
0.000000
 10
-182.738354
 20
180.037066
 42
0.000000
 10
-181.372412
 20
179.790056
 42
0.000000
 10
-178.590108
 20
179.790056
 42
0.000000
 10
-178.514354
 20
180.037066
 42
0.000000
 10
-177.148412
 20
179.790056
 42
0.000000
 10
-174.366024
 20
179.794856
 42
0.000000
 10
-174.290354
 20
180.037066
 42
0.000000
 10
-172.924412
 20
179.790056
 42
0.000000
 10
-170.142108
 20
179.790056
 42
0.000000
 10
-170.066354
 20
180.037066
 42
0.000000
 10
-168.700412
 20
179.790056
 42
0.000000
 10
-165.918108
 20
179.790056
 42
0.000000
 10
-165.842354
 20
180.037066
 42
0.000000
 10
-164.476412
 20
179.790056
 42
0.000000
 10
-122.014215
 20
179.250056
 42
0.000000
 10
-116.014215
 20
176.750056
 42
0.000000
 10
-92.514215
 20
175.750056
 42
0.000000
 10
-88.764215
 20
174.500056
 42
0.000000
 10
-87.514215
 20
170.750056
 42
0.000000
 10
-87.514215
 20
153.750056
 42
0.000000
  0
LWPOLYLINE
  5
643
100
AcDbEntity
  8
Detail
  6
CONTINUOUS
 62
     9
100
AcDbPolyline
 90
   203
 10
-206.014215
 20
183.750056
 42
0.000000
 10
-203.901139
 20
184.625321
 42
0.000000
 10
-203.399564
 20
185.494075
 42
0.000000
 10
-203.010889
 20
184.994075
 42
0.000000
 10
-201.930552
 20
185.441565
 42
0.000000
 10
-201.428977
 20
186.310319
 42
0.000000
 10
-201.040302
 20
185.810319
 42
0.000000
 10
-200.461525
 20
186.050056
 42
0.000000
 10
-199.860486
 20
186.050056
 42
0.000000
 10
-199.571811
 20
186.550056
 42
0.000000
 10
-199.183136
 20
186.050056
 42
0.000000
 10
-198.050486
 20
186.050056
 42
0.000000
 10
-197.761811
 20
186.550056
 42
0.000000
 10
-197.373136
 20
186.050056
 42
0.000000
 10
-196.240486
 20
186.050056
 42
0.000000
 10
-195.951811
 20
186.550056
 42
0.000000
 10
-195.563136
 20
186.050056
 42
0.000000
 10
-194.430486
 20
186.050056
 42
0.000000
 10
-194.141811
 20
186.550056
 42
0.000000
 10
-193.753136
 20
186.050056
 42
0.000000
 10
-192.620486
 20
186.050056
 42
0.000000
 10
-192.331811
 20
186.550056
 42
0.000000
 10
-191.943136
 20
186.050056
 42
0.000000
 10
-190.810486
 20
186.050056
 42
0.000000
 10
-190.521811
 20
186.550056
 42
0.000000
 10
-190.133136
 20
186.050056
 42
0.000000
 10
-189.000486
 20
186.050056
 42
0.000000
 10
-188.711811
 20
186.550056
 42
0.000000
 10
-188.323136
 20
186.050056
 42
0.000000
 10
-187.190486
 20
186.050056
 42
0.000000
 10
-186.901811
 20
186.550056
 42
0.000000
 10
-186.513136
 20
186.050056
 42
0.000000
 10
-185.380486
 20
186.050056
 42
0.000000
 10
-185.091811
 20
186.550056
 42
0.000000
 10
-184.703136
 20
186.050056
 42
0.000000
 10
-183.570486
 20
186.050056
 42
0.000000
 10
-183.281811
 20
186.550056
 42
0.000000
 10
-182.893136
 20
186.050056
 42
0.000000
 10
-181.760486
 20
186.050056
 42
0.000000
 10
-181.471811
 20
186.550056
 42
0.000000
 10
-181.083136
 20
186.050056
 42
0.000000
 10
-179.950486
 20
186.050056
 42
0.000000
 10
-179.661811
 20
186.550056
 42
0.000000
 10
-179.273136
 20
186.050056
 42
0.000000
 10
-178.140486
 20
186.050056
 42
0.000000
 10
-177.851811
 20
186.550056
 42
0.000000
 10
-177.463136
 20
186.050056
 42
0.000000
 10
-176.330486
 20
186.050056
 42
0.000000
 10
-176.041811
 20
186.550056
 42
0.000000
 10
-175.653136
 20
186.050056
 42
0.000000
 10
-174.520486
 20
186.050056
 42
0.000000
 10
-174.231811
 20
186.550056
 42
0.000000
 10
-173.843136
 20
186.050056
 42
0.000000
 10
-172.710486
 20
186.050056
 42
0.000000
 10
-172.421811
 20
186.550056
 42
0.000000
 10
-172.033136
 20
186.050056
 42
0.000000
 10
-170.900486
 20
186.050056
 42
0.000000
 10
-170.611811
 20
186.550056
 42
0.000000
 10
-170.200622
 20
186.050056
 42
0.000000
 10
-169.090486
 20
186.050056
 42
0.000000
 10
-168.801811
 20
186.550056
 42
0.000000
 10
-168.413136
 20
186.050056
 42
0.000000
 10
-167.280486
 20
186.050056
 42
0.000000
 10
-166.991811
 20
186.550056
 42
0.000000
 10
-166.603136
 20
186.050056
 42
0.000000
 10
-165.470486
 20
186.050056
 42
0.000000
 10
-165.181811
 20
186.550056
 42
0.000000
 10
-164.793136
 20
186.050056
 42
0.000000
 10
-163.660486
 20
186.050056
 42
0.000000
 10
-163.371811
 20
186.550056
 42
0.000000
 10
-162.983136
 20
186.050056
 42
0.000000
 10
-161.850486
 20
186.050056
 42
0.000000
 10
-161.561811
 20
186.550056
 42
0.000000
 10
-161.173136
 20
186.050056
 42
0.000000
 10
-160.040486
 20
186.050056
 42
0.000000
 10
-159.751811
 20
186.550056
 42
0.000000
 10
-159.363136
 20
186.050056
 42
0.000000
 10
-158.230486
 20
186.050056
 42
0.000000
 10
-157.941811
 20
186.550056
 42
0.000000
 10
-157.553136
 20
186.050056
 42
0.000000
 10
-156.420486
 20
186.050056
 42
0.000000
 10
-156.131811
 20
186.550056
 42
0.000000
 10
-155.743136
 20
186.050056
 42
0.000000
 10
-154.610486
 20
186.050056
 42
0.000000
 10
-154.321811
 20
186.550056
 42
0.000000
 10
-153.933136
 20
186.050056
 42
0.000000
 10
-152.800486
 20
186.050056
 42
0.000000
 10
-152.511811
 20
186.550056
 42
0.000000
 10
-152.123136
 20
186.050056
 42
0.000000
 10
-150.990486
 20
186.050056
 42
0.000000
 10
-150.701811
 20
186.550056
 42
0.000000
 10
-150.313136
 20
186.050056
 42
0.000000
 10
-149.180486
 20
186.050056
 42
0.000000
 10
-148.891811
 20
186.550056
 42
0.000000
 10
-148.503136
 20
186.050056
 42
0.000000
 10
-147.370486
 20
186.050056
 42
0.000000
 10
-147.081811
 20
186.550056
 42
0.000000
 10
-146.693136
 20
186.050056
 42
0.000000
 10
-146.014215
 20
186.050056
 42
0.000000
 10
-145.841010
 20
186.150056
 42
0.000000
 10
-122.014215
 20
188.250056
 42
0.000000
 10
-122.014215
 20
179.250056
 42
0.000000
 10
-145.841010
 20
181.350056
 42
0.000000
 10
-146.014215
 20
181.450056
 42
0.000000
 10
-146.176811
 20
180.950056
 42
0.000000
 10
-146.465486
 20
181.450056
 42
0.000000
 10
-147.598136
 20
181.450056
 42
0.000000
 10
-147.986811
 20
180.950056
 42
0.000000
 10
-148.275486
 20
181.450056
 42
0.000000
 10
-149.408136
 20
181.450056
 42
0.000000
 10
-149.796811
 20
180.950056
 42
0.000000
 10
-150.085486
 20
181.450056
 42
0.000000
 10
-151.218136
 20
181.450056
 42
0.000000
 10
-151.606811
 20
180.950056
 42
0.000000
 10
-151.895486
 20
181.450056
 42
0.000000
 10
-153.028136
 20
181.450056
 42
0.000000
 10
-153.416811
 20
180.950056
 42
0.000000
 10
-153.705486
 20
181.450056
 42
0.000000
 10
-154.838136
 20
181.450056
 42
0.000000
 10
-155.226811
 20
180.950056
 42
0.000000
 10
-155.515486
 20
181.450056
 42
0.000000
 10
-156.648136
 20
181.450056
 42
0.000000
 10
-157.036811
 20
180.950056
 42
0.000000
 10
-157.325486
 20
181.450056
 42
0.000000
 10
-158.458136
 20
181.450056
 42
0.000000
 10
-158.846811
 20
180.950056
 42
0.000000
 10
-159.135486
 20
181.450056
 42
0.000000
 10
-160.268136
 20
181.450056
 42
0.000000
 10
-160.656811
 20
180.950056
 42
0.000000
 10
-160.945486
 20
181.450056
 42
0.000000
 10
-162.078136
 20
181.450056
 42
0.000000
 10
-162.466811
 20
180.950056
 42
0.000000
 10
-162.755486
 20
181.450056
 42
0.000000
 10
-163.888136
 20
181.450056
 42
0.000000
 10
-164.276811
 20
180.950056
 42
0.000000
 10
-164.565486
 20
181.450056
 42
0.000000
 10
-165.698136
 20
181.450056
 42
0.000000
 10
-166.086811
 20
180.950056
 42
0.000000
 10
-166.375486
 20
181.450056
 42
0.000000
 10
-167.508136
 20
181.450056
 42
0.000000
 10
-167.896811
 20
180.950056
 42
0.000000
 10
-168.185486
 20
181.450056
 42
0.000000
 10
-169.318136
 20
181.450056
 42
0.000000
 10
-169.706811
 20
180.950056
 42
0.000000
 10
-169.995486
 20
181.450056
 42
0.000000
 10
-171.128136
 20
181.450056
 42
0.000000
 10
-171.516811
 20
180.950056
 42
0.000000
 10
-171.805486
 20
181.450056
 42
0.000000
 10
-172.938136
 20
181.450056
 42
0.000000
 10
-173.326811
 20
180.950056
 42
0.000000
 10
-173.615486
 20
181.450056
 42
0.000000
 10
-174.748136
 20
181.450056
 42
0.000000
 10
-175.136811
 20
180.950056
 42
0.000000
 10
-175.425486
 20
181.450056
 42
0.000000
 10
-176.558136
 20
181.450056
 42
0.000000
 10
-176.946811
 20
180.950056
 42
0.000000
 10
-177.235486
 20
181.450056
 42
0.000000
 10
-178.368136
 20
181.450056
 42
0.000000
 10
-178.756811
 20
180.950056
 42
0.000000
 10
-179.045486
 20
181.450056
 42
0.000000
 10
-180.178136
 20
181.450056
 42
0.000000
 10
-180.566811
 20
180.950056
 42
0.000000
 10
-180.855486
 20
181.450056
 42
0.000000
 10
-181.988136
 20
181.450056
 42
0.000000
 10
-182.376811
 20
180.950056
 42
0.000000
 10
-182.665486
 20
181.450056
 42
0.000000
 10
-183.798136
 20
181.450056
 42
0.000000
 10
-184.186811
 20
180.950056
 42
0.000000
 10
-184.475486
 20
181.450056
 42
0.000000
 10
-185.608136
 20
181.450056
 42
0.000000
 10
-185.996811
 20
180.950056
 42
0.000000
 10
-186.285486
 20
181.450056
 42
0.000000
 10
-187.418136
 20
181.450056
 42
0.000000
 10
-187.806811
 20
180.950056
 42
0.000000
 10
-188.095486
 20
181.450056
 42
0.000000
 10
-189.228136
 20
181.450056
 42
0.000000
 10
-189.616811
 20
180.950056
 42
0.000000
 10
-189.905486
 20
181.450056
 42
0.000000
 10
-191.038136
 20
181.450056
 42
0.000000
 10
-191.426811
 20
180.950056
 42
0.000000
 10
-191.715486
 20
181.450056
 42
0.000000
 10
-192.848136
 20
181.450056
 42
0.000000
 10
-193.236811
 20
180.950056
 42
0.000000
 10
-193.525486
 20
181.450056
 42
0.000000
 10
-194.658136
 20
181.450056
 42
0.000000
 10
-195.046811
 20
180.950056
 42
0.000000
 10
-195.335486
 20
181.450056
 42
0.000000
 10
-196.468136
 20
181.450056
 42
0.000000
 10
-196.856811
 20
180.950056
 42
0.000000
 10
-197.145486
 20
181.450056
 42
0.000000
 10
-198.278136
 20
181.450056
 42
0.000000
 10
-198.666811
 20
180.950056
 42
0.000000
 10
-198.955486
 20
181.450056
 42
0.000000
 10
-200.088136
 20
181.450056
 42
0.000000
 10
-200.476811
 20
180.950056
 42
0.000000
 10
-200.861026
 20
181.615536
 42
0.000000
 10
-201.789885
 20
182.000282
 42
0.000000
 10
-202.178560
 20
181.500282
 42
0.000000
 10
-202.680135
 20
182.369036
 42
0.000000
 10
-203.463499
 20
182.693515
 42
0.000000
 10
-203.852174
 20
182.193515
 42
0.000000
 10
-204.353749
 20
183.062269
 42
0.000000
 10
-206.014215
 20
183.750056
 42
0.000000
  0
ENDBLK
  5
70F
100
AcDbEntity
  8
0
100
AcDbBlockEnd
  0
BLOCK
  5
710
100
AcDbEntity
  8
Detail
100
AcDbBlockBegin
  2
B-67
 70
    66
 10
0.000000
 20
0.000000
 30
0.000000
  0
LWPOLYLINE
  5
711
100
AcDbEntity
  8
Detail
  6
CONTINUOUS
 62
     3
100
AcDbPolyline
 90
     5
 10
-67.500018
 20
213.750056
 42
0.000000
 10
-87.514215
 20
213.750056
 42
0.000000
 10
-87.514215
 20
153.750056
 42
0.000000
 10
-67.500018
 20
153.750056
 42
0.000000
 10
-67.500018
 20
213.750056
 42
0.000000
  0
ENDBLK
  5
717
100
AcDbEntity
  8
0
100
AcDbBlockEnd
  0
BLOCK
  5
718
100
AcDbEntity
  8
L
100
AcDbBlockBegin
  2
B-68
 70
    66
 10
0.000000
 20
0.000000
 30
0.000000
  0
LWPOLYLINE
  5
719
100
AcDbEntity
  8
L
  6
CONTINUOUS
 62
     3
100
AcDbPolyline
 90
     4
 10
212.500023
 20
-131.249941
 42
0.000000
 10
-150.500018
 20
-131.249941
 42
0.000000
 10
-150.500018
 20
-51.249941
 42
0.000000
 10
212.500023
 20
-51.249941
 42
0.000000
  0
LWPOLYLINE
  5
71E
100
AcDbEntity
  8
L
  6
CONTINUOUS
 62
     3
100
AcDbPolyline
 90
     4
 10
-67.500018
 20
296.250078
 42
0.000000
 10
-67.500018
 20
-19.249941
 42
0.000000
 10
-147.500018
 20
-19.249941
 42
0.000000
 10
-147.500018
 20
296.250078
 42
0.000000
  0
ENDBLK
  5
723
100
AcDbEntity
  8
0
100
AcDbBlockEnd
  0
BLOCK
  5
724
100
AcDbEntity
  8
SCHRAFF
100
AcDbBlockBegin
  2
B-69
 70
    66
 10
0.000000
 20
0.000000
 30
0.000000
  0
HATCH
  5
725
100
AcDbEntity
  8
SCHRAFF
 62
   250
440
     0
100
AcDbHatch
 10
0.000000
 20
0.000000
 30
0.000000
210
0.000000
220
0.000000
230
1.000000
  2
SOLID
 70
     1
 71
     1
 91
     1
 92
    18
 72
     1
 73
     0
 93
     9
 10
-147.500018
 20
-19.249941
 42
0.000000
 10
-67.500018
 20
-19.249941
 42
0.000000
 10
-67.500018
 20
-1.249941
 42
0.000000
 10
-65.500018
 20
-1.249941
 42
0.000000
 10
-65.500018
 20
-21.249941
 42
0.000000
 10
-149.500018
 20
-21.249941
 42
0.000000
 10
-149.500018
 20
28.750059
 42
0.000000
 10
-147.500018
 20
28.750059
 42
0.000000
 10
-147.500018
 20
-19.249941
 42
0.000000
 97
     0
 75
     0
 76
     1
 98
     0
  0
ENDBLK
  5
726
100
AcDbEntity
  8
0
100
AcDbBlockEnd
  0
BLOCK
  5
727
100
AcDbEntity
  8
Detail
100
AcDbBlockBegin
  2
B-70
 70
    66
 10
0.000000
 20
0.000000
 30
0.000000
  0
LWPOLYLINE
  5
728
100
AcDbEntity
  8
Detail
  6
CONTINUOUS
 62
     4
100
AcDbPolyline
 90
     9
 10
-149.500018
 20
-21.249941
 42
0.000000
 10
-65.500018
 20
-21.249941
 42
0.000000
 10
-65.500018
 20
-1.249941
 42
0.000000
 10
-67.500018
 20
-1.249941
 42
0.000000
 10
-67.500018
 20
-19.249941
 42
0.000000
 10
-147.500018
 20
-19.249941
 42
0.000000
 10
-147.500018
 20
28.750059
 42
0.000000
 10
-149.500018
 20
28.750059
 42
0.000000
 10
-149.500018
 20
-21.249941
 42
0.000000
  0
ENDBLK
  5
732
100
AcDbEntity
  8
0
100
AcDbBlockEnd
  0
BLOCK
  5
733
100
AcDbEntity
  8
Detail
100
AcDbBlockBegin
  2
B-71
 70
    66
 10
0.000000
 20
0.000000
 30
0.000000
  0
LWPOLYLINE
  5
734
100
AcDbEntity
  8
Detail
  6
CONTINUOUS
 62
     7
100
AcDbPolyline
 90
     2
 10
77.500022
 20
258.750060
 42
0.000000
 10
-107.500018
 20
258.750056
 42
0.000000
  0
ENDBLK
  5
737
100
AcDbEntity
  8
0
100
AcDbBlockEnd
  0
BLOCK
  5
738
100
AcDbEntity
  8
Detail
100
AcDbBlockBegin
  2
B-72
 70
    66
 10
0.000000
 20
0.000000
 30
0.000000
  0
LWPOLYLINE
  5
739
100
AcDbEntity
  8
Detail
  6
CONTINUOUS
 62
     7
100
AcDbPolyline
 90
     2
 10
77.500022
 20
233.750060
 42
0.000000
 10
-65.500018
 20
233.750057
 42
0.000000
  0
ENDBLK
  5
73C
100
AcDbEntity
  8
0
100
AcDbBlockEnd
  0
BLOCK
  5
73D
100
AcDbEntity
  8
Detail
100
AcDbBlockBegin
  2
B-73
 70
    66
 10
0.000000
 20
0.000000
 30
0.000000
  0
LWPOLYLINE
  5
73E
100
AcDbEntity
  8
Detail
  6
CONTINUOUS
 62
     7
100
AcDbPolyline
 90
     2
 10
77.500022
 20
208.750060
 42
0.000000
 10
-62.500018
 20
208.750059
 42
0.000000
  0
ENDBLK
  5
741
100
AcDbEntity
  8
0
100
AcDbBlockEnd
  0
BLOCK
  5
742
100
AcDbEntity
  8
Detail
100
AcDbBlockBegin
  2
B-74
 70
    66
 10
0.000000
 20
0.000000
 30
0.000000
  0
LWPOLYLINE
  5
743
100
AcDbEntity
  8
Detail
  6
CONTINUOUS
 62
     7
100
AcDbPolyline
 90
     2
 10
77.500022
 20
183.750060
 42
0.000000
 10
-86.014215
 20
183.750056
 42
0.000000
  0
ENDBLK
  5
746
100
AcDbEntity
  8
0
100
AcDbBlockEnd
  0
BLOCK
  5
747
100
AcDbEntity
  8
Detail
100
AcDbBlockBegin
  2
B-75
 70
    66
 10
0.000000
 20
0.000000
 30
0.000000
  0
LWPOLYLINE
  5
748
100
AcDbEntity
  8
Detail
  6
CONTINUOUS
 62
     7
100
AcDbPolyline
 90
     3
 10
77.500022
 20
58.750056
 42
0.000000
 10
3.499982
 20
58.750055
 42
0.000000
 10
3.499983
 20
-44.249941
 42
0.000000
  0
ENDBLK
  5
74C
100
AcDbEntity
  8
0
100
AcDbBlockEnd
  0
BLOCK
  5
74D
100
AcDbEntity
  8
Detail
100
AcDbBlockBegin
  2
B-76
 70
    66
 10
0.000000
 20
0.000000
 30
0.000000
  0
LWPOLYLINE
  5
74E
100
AcDbEntity
  8
Detail
  6
CONTINUOUS
 62
     7
100
AcDbPolyline
 90
     3
 10
77.500022
 20
33.750056
 42
0.000000
 10
23.499982
 20
33.750056
 42
0.000000
 10
23.499982
 20
-41.249941
 42
0.000000
  0
ENDBLK
  5
752
100
AcDbEntity
  8
0
100
AcDbBlockEnd
  0
BLOCK
  5
753
100
AcDbEntity
  8
Detail
100
AcDbBlockBegin
  2
B-77
 70
    66
 10
0.000000
 20
0.000000
 30
0.000000
  0
LWPOLYLINE
  5
754
100
AcDbEntity
  8
Detail
  6
CONTINUOUS
 62
     7
100
AcDbPolyline
 90
     3
 10
77.500022
 20
8.750056
 42
0.000000
 10
43.499982
 20
8.750056
 42
0.000000
 10
43.499982
 20
-35.249941
 42
0.000000
  0
ENDBLK
  5
758
100
AcDbEntity
  8
0
100
AcDbBlockEnd
  0
BLOCK
  5
759
100
AcDbEntity
  8
Detail
100
AcDbBlockBegin
  2
B-78
 70
    66
 10
0.000000
 20
0.000000
 30
0.000000
  0
LWPOLYLINE
  5
75A
100
AcDbEntity
  8
Detail
  6
CONTINUOUS
 62
     7
100
AcDbPolyline
 90
     4
 10
77.500022
 20
108.750055
 42
0.000000
 10
-36.500018
 20
108.750054
 42
0.000000
 10
-36.500018
 20
-26.249941
 42
0.000000
 10
-68.500018
 20
-26.249941
 42
0.000000
  0
LWPOLYLINE
  5
75F
100
AcDbEntity
  8
Detail
  6
CONTINUOUS
 62
     7
100
AcDbPolyline
 90
     3
 10
77.500022
 20
83.750055
 42
0.000000
 10
-16.500018
 20
83.750055
 42
0.000000
 10
-16.500017
 20
-48.249941
 42
0.000000
  0
LWPOLYLINE
  5
763
100
AcDbEntity
  8
Detail
  6
CONTINUOUS
 62
     7
100
AcDbPolyline
 90
     3
 10
77.500022
 20
133.750055
 42
0.000000
 10
-107.500018
 20
133.750054
 42
0.000000
 10
-107.500018
 20
-26.249941
 42
0.000000
  0
LWPOLYLINE
  5
767
100
AcDbEntity
  8
Detail
  6
CONTINUOUS
 62
     7
100
AcDbPolyline
 90
     2
 10
77.500022
 20
283.750059
 42
0.000000
 10
-150.000018
 20
283.750056
 42
0.000000
  0
LWPOLYLINE
  5
76A
100
AcDbEntity
  8
Detail
  6
CONTINUOUS
 62
     7
100
AcDbPolyline
 90
     4
 10
77.500023
 20
-16.249941
 42
0.000000
 10
63.499982
 20
-16.249941
 42
0.000000
 10
63.499982
 20
-36.249794
 42
0.000000
 10
160.499982
 20
-36.249794
 42
0.000000
  0
ENDBLK
  5
76F
100
AcDbEntity
  8
0
100
AcDbBlockEnd
  0
BLOCK
  5
770
100
AcDbEntity
  8
Detail
100
AcDbBlockBegin
  2
B-79
 70
    66
 10
0.000000
 20
0.000000
 30
0.000000
  0
LWPOLYLINE
  5
771
100
AcDbEntity
  8
Detail
  6
CONTINUOUS
 62
     7
100
AcDbPolyline
 90
     4
 10
77.500023
 20
158.750060
 42
0.000000
 10
-118.500018
 20
158.750059
 42
0.000000
 10
-118.500018
 20
3.750059
 42
0.000000
 10
-146.000018
 20
3.750059
 42
0.000000
  0
ENDBLK
  5
776
100
AcDbEntity
  8
0
100
AcDbBlockEnd
  0
BLOCK
  5
777
100
AcDbEntity
  8
Detail
100
AcDbBlockBegin
  2
B-80
 70
    66
 10
0.000000
 20
0.000000
 30
0.000000
  0
LWPOLYLINE
  5
778
100
AcDbEntity
  8
Detail
  6
CONTINUOUS
 62
     9
100
AcDbPolyline
 90
   171
 10
-203.764215
 20
3.750059
 42
0.000000
 10
-201.651139
 20
4.125324
 42
0.000000
 10
-201.149564
 20
4.994078
 42
0.000000
 10
-200.760889
 20
4.494078
 42
0.000000
 10
-199.680552
 20
4.941568
 42
0.000000
 10
-199.178977
 20
5.810322
 42
0.000000
 10
-198.790302
 20
5.310322
 42
0.000000
 10
-198.211525
 20
5.550059
 42
0.000000
 10
-197.610486
 20
5.550059
 42
0.000000
 10
-197.321811
 20
6.050059
 42
0.000000
 10
-196.933136
 20
5.550059
 42
0.000000
 10
-195.800486
 20
5.550059
 42
0.000000
 10
-195.511811
 20
6.050059
 42
0.000000
 10
-195.123136
 20
5.550059
 42
0.000000
 10
-193.990486
 20
5.550059
 42
0.000000
 10
-193.701811
 20
6.050059
 42
0.000000
 10
-193.313136
 20
5.550059
 42
0.000000
 10
-192.180486
 20
5.550059
 42
0.000000
 10
-191.891811
 20
6.050059
 42
0.000000
 10
-191.503136
 20
5.550059
 42
0.000000
 10
-190.370486
 20
5.550059
 42
0.000000
 10
-190.081811
 20
6.050059
 42
0.000000
 10
-189.693136
 20
5.550059
 42
0.000000
 10
-188.560486
 20
5.550059
 42
0.000000
 10
-188.271811
 20
6.050059
 42
0.000000
 10
-187.883136
 20
5.550059
 42
0.000000
 10
-186.750486
 20
5.550059
 42
0.000000
 10
-186.461811
 20
6.050059
 42
0.000000
 10
-186.073136
 20
5.550059
 42
0.000000
 10
-184.940486
 20
5.550059
 42
0.000000
 10
-184.651811
 20
6.050059
 42
0.000000
 10
-184.263136
 20
5.550059
 42
0.000000
 10
-183.130486
 20
5.550059
 42
0.000000
 10
-182.841811
 20
6.050059
 42
0.000000
 10
-182.453136
 20
5.550059
 42
0.000000
 10
-181.320486
 20
5.550059
 42
0.000000
 10
-181.031811
 20
6.050059
 42
0.000000
 10
-180.643136
 20
5.550059
 42
0.000000
 10
-179.510486
 20
5.550059
 42
0.000000
 10
-179.221811
 20
6.050059
 42
0.000000
 10
-178.833136
 20
5.550059
 42
0.000000
 10
-177.700486
 20
5.550059
 42
0.000000
 10
-177.411811
 20
6.050059
 42
0.000000
 10
-177.023136
 20
5.550059
 42
0.000000
 10
-175.890486
 20
5.550059
 42
0.000000
 10
-175.601811
 20
6.050059
 42
0.000000
 10
-175.213136
 20
5.550059
 42
0.000000
 10
-174.080486
 20
5.550059
 42
0.000000
 10
-173.791811
 20
6.050059
 42
0.000000
 10
-173.403136
 20
5.550059
 42
0.000000
 10
-172.270486
 20
5.550059
 42
0.000000
 10
-171.981811
 20
6.050059
 42
0.000000
 10
-171.593136
 20
5.550059
 42
0.000000
 10
-170.460486
 20
5.550059
 42
0.000000
 10
-170.171811
 20
6.050059
 42
0.000000
 10
-169.783136
 20
5.550059
 42
0.000000
 10
-168.650486
 20
5.550059
 42
0.000000
 10
-168.361811
 20
6.050059
 42
0.000000
 10
-167.950622
 20
5.550059
 42
0.000000
 10
-166.840486
 20
5.550059
 42
0.000000
 10
-166.551811
 20
6.050059
 42
0.000000
 10
-166.163136
 20
5.550059
 42
0.000000
 10
-165.030486
 20
5.550059
 42
0.000000
 10
-164.741811
 20
6.050059
 42
0.000000
 10
-164.353136
 20
5.550059
 42
0.000000
 10
-163.220486
 20
5.550059
 42
0.000000
 10
-162.931811
 20
6.050059
 42
0.000000
 10
-162.543136
 20
5.550059
 42
0.000000
 10
-161.410486
 20
5.550059
 42
0.000000
 10
-161.121811
 20
6.050059
 42
0.000000
 10
-160.733136
 20
5.550059
 42
0.000000
 10
-159.600486
 20
5.550059
 42
0.000000
 10
-159.311811
 20
6.050059
 42
0.000000
 10
-158.923136
 20
5.550059
 42
0.000000
 10
-157.790486
 20
5.550059
 42
0.000000
 10
-157.501811
 20
6.050059
 42
0.000000
 10
-157.113136
 20
5.550059
 42
0.000000
 10
-155.980486
 20
5.550059
 42
0.000000
 10
-155.691811
 20
6.050059
 42
0.000000
 10
-155.303136
 20
5.550059
 42
0.000000
 10
-154.170486
 20
5.550059
 42
0.000000
 10
-153.881811
 20
6.050059
 42
0.000000
 10
-153.493136
 20
5.550059
 42
0.000000
 10
-152.792525
 20
5.550059
 42
0.000000
 10
-147.500018
 20
7.629948
 42
0.000000
 10
-147.500018
 20
-0.129830
 42
0.000000
 10
-152.588136
 20
1.950059
 42
0.000000
 10
-152.976811
 20
1.450059
 42
0.000000
 10
-153.265486
 20
1.950059
 42
0.000000
 10
-154.398136
 20
1.950059
 42
0.000000
 10
-154.786811
 20
1.450059
 42
0.000000
 10
-155.075486
 20
1.950059
 42
0.000000
 10
-156.208136
 20
1.950059
 42
0.000000
 10
-156.596811
 20
1.450059
 42
0.000000
 10
-156.885486
 20
1.950059
 42
0.000000
 10
-158.018136
 20
1.950059
 42
0.000000
 10
-158.406811
 20
1.450059
 42
0.000000
 10
-158.695486
 20
1.950059
 42
0.000000
 10
-159.828136
 20
1.950059
 42
0.000000
 10
-160.216811
 20
1.450059
 42
0.000000
 10
-160.505486
 20
1.950059
 42
0.000000
 10
-161.638136
 20
1.950059
 42
0.000000
 10
-162.026811
 20
1.450059
 42
0.000000
 10
-162.315486
 20
1.950059
 42
0.000000
 10
-163.448136
 20
1.950059
 42
0.000000
 10
-163.836811
 20
1.450059
 42
0.000000
 10
-164.125486
 20
1.950059
 42
0.000000
 10
-165.258136
 20
1.950059
 42
0.000000
 10
-165.646811
 20
1.450059
 42
0.000000
 10
-165.935486
 20
1.950059
 42
0.000000
 10
-167.068136
 20
1.950059
 42
0.000000
 10
-167.456811
 20
1.450059
 42
0.000000
 10
-167.745486
 20
1.950059
 42
0.000000
 10
-168.878136
 20
1.950059
 42
0.000000
 10
-169.266811
 20
1.450059
 42
0.000000
 10
-169.555486
 20
1.950059
 42
0.000000
 10
-170.688136
 20
1.950059
 42
0.000000
 10
-171.076811
 20
1.450059
 42
0.000000
 10
-171.365486
 20
1.950059
 42
0.000000
 10
-172.498136
 20
1.950059
 42
0.000000
 10
-172.886811
 20
1.450059
 42
0.000000
 10
-173.175486
 20
1.950059
 42
0.000000
 10
-174.308136
 20
1.950059
 42
0.000000
 10
-174.696811
 20
1.450059
 42
0.000000
 10
-174.985486
 20
1.950059
 42
0.000000
 10
-176.118136
 20
1.950059
 42
0.000000
 10
-176.506811
 20
1.450059
 42
0.000000
 10
-176.795486
 20
1.950059
 42
0.000000
 10
-177.928136
 20
1.950059
 42
0.000000
 10
-178.316811
 20
1.450059
 42
0.000000
 10
-178.605486
 20
1.950059
 42
0.000000
 10
-179.738136
 20
1.950059
 42
0.000000
 10
-180.126811
 20
1.450059
 42
0.000000
 10
-180.415486
 20
1.950059
 42
0.000000
 10
-181.548136
 20
1.950059
 42
0.000000
 10
-181.936811
 20
1.450059
 42
0.000000
 10
-182.225486
 20
1.950059
 42
0.000000
 10
-183.358136
 20
1.950059
 42
0.000000
 10
-183.746811
 20
1.450059
 42
0.000000
 10
-184.035486
 20
1.950059
 42
0.000000
 10
-185.168136
 20
1.950059
 42
0.000000
 10
-185.556811
 20
1.450059
 42
0.000000
 10
-185.845486
 20
1.950059
 42
0.000000
 10
-186.978136
 20
1.950059
 42
0.000000
 10
-187.366811
 20
1.450059
 42
0.000000
 10
-187.655486
 20
1.950059
 42
0.000000
 10
-188.788136
 20
1.950059
 42
0.000000
 10
-189.176811
 20
1.450059
 42
0.000000
 10
-189.465486
 20
1.950059
 42
0.000000
 10
-190.598136
 20
1.950059
 42
0.000000
 10
-190.986811
 20
1.450059
 42
0.000000
 10
-191.275486
 20
1.950059
 42
0.000000
 10
-192.408136
 20
1.950059
 42
0.000000
 10
-192.796811
 20
1.450059
 42
0.000000
 10
-193.085486
 20
1.950059
 42
0.000000
 10
-194.218136
 20
1.950059
 42
0.000000
 10
-194.606811
 20
1.450059
 42
0.000000
 10
-194.895486
 20
1.950059
 42
0.000000
 10
-196.028136
 20
1.950059
 42
0.000000
 10
-196.416811
 20
1.450059
 42
0.000000
 10
-196.705486
 20
1.950059
 42
0.000000
 10
-197.838136
 20
1.950059
 42
0.000000
 10
-198.226811
 20
1.450059
 42
0.000000
 10
-198.611026
 20
2.115538
 42
0.000000
 10
-199.539885
 20
2.500285
 42
0.000000
 10
-199.928560
 20
2.000285
 42
0.000000
 10
-200.430135
 20
2.869038
 42
0.000000
 10
-201.213499
 20
3.193518
 42
0.000000
 10
-201.602174
 20
2.693518
 42
0.000000
 10
-202.103749
 20
3.562272
 42
0.000000
 10
-203.764215
 20
3.750059
 42
0.000000
  0
LWPOLYLINE
  5
824
100
AcDbEntity
  8
Detail
  6
CONTINUOUS
 62
     9
100
AcDbPolyline
 90
    73
 10
-147.500018
 20
-3.149063
 42
0.000000
 10
-146.000018
 20
-0.884638
 42
0.000000
 10
-146.000018
 20
8.384756
 42
0.000000
 10
-147.500018
 20
10.649182
 42
0.000000
 10
-147.500018
 20
7.629948
 42
0.000000
 10
-162.212215
 20
7.210059
 42
0.000000
 10
-163.578158
 20
6.963050
 42
0.000000
 10
-163.653911
 20
7.210059
 42
0.000000
 10
-166.436215
 20
7.210059
 42
0.000000
 10
-167.802158
 20
6.963050
 42
0.000000
 10
-167.877911
 20
7.210059
 42
0.000000
 10
-170.660215
 20
7.210059
 42
0.000000
 10
-172.026158
 20
6.963050
 42
0.000000
 10
-172.101827
 20
7.205259
 42
0.000000
 10
-174.884215
 20
7.210059
 42
0.000000
 10
-176.250158
 20
6.963050
 42
0.000000
 10
-176.325911
 20
7.210059
 42
0.000000
 10
-179.108215
 20
7.210059
 42
0.000000
 10
-180.474158
 20
6.963050
 42
0.000000
 10
-180.549911
 20
7.210059
 42
0.000000
 10
-183.332215
 20
7.210059
 42
0.000000
 10
-184.698158
 20
6.963050
 42
0.000000
 10
-184.773911
 20
7.210059
 42
0.000000
 10
-187.556215
 20
7.210059
 42
0.000000
 10
-188.922158
 20
6.963050
 42
0.000000
 10
-188.997911
 20
7.210059
 42
0.000000
 10
-191.780215
 20
7.210059
 42
0.000000
 10
-193.146158
 20
6.963050
 42
0.000000
 10
-193.221911
 20
7.210059
 42
0.000000
 10
-196.004215
 20
7.210059
 42
0.000000
 10
-197.208372
 20
6.927627
 42
0.000000
 10
-197.667355
 20
7.090059
 42
0.000000
 10
-198.644215
 20
6.655803
 42
0.000000
 10
-198.884215
 20
6.130059
 42
0.000000
 10
-199.652215
 20
6.130059
 42
0.000000
 10
-201.170108
 20
5.589091
 42
0.000000
 10
-202.003725
 20
4.210059
 42
0.000000
 10
-203.764215
 20
3.750059
 42
0.000000
 10
-202.003725
 20
3.290059
 42
0.000000
 10
-201.170108
 20
1.911027
 42
0.000000
 10
-199.907414
 20
1.383666
 42
0.000000
 10
-198.884215
 20
1.370059
 42
0.000000
 10
-198.644215
 20
0.844315
 42
0.000000
 10
-197.892059
 20
0.410059
 42
0.000000
 10
-197.442646
 20
0.410059
 42
0.000000
 10
-197.208372
 20
0.572491
 42
0.000000
 10
-196.004215
 20
0.290059
 42
0.000000
 10
-193.221911
 20
0.290059
 42
0.000000
 10
-193.146158
 20
0.537068
 42
0.000000
 10
-191.780215
 20
0.290059
 42
0.000000
 10
-188.997911
 20
0.290059
 42
0.000000
 10
-188.922158
 20
0.537068
 42
0.000000
 10
-187.556215
 20
0.290059
 42
0.000000
 10
-184.773911
 20
0.290059
 42
0.000000
 10
-184.698158
 20
0.537068
 42
0.000000
 10
-183.332215
 20
0.290059
 42
0.000000
 10
-180.549911
 20
0.290059
 42
0.000000
 10
-180.474158
 20
0.537068
 42
0.000000
 10
-179.108215
 20
0.290059
 42
0.000000
 10
-176.325911
 20
0.290059
 42
0.000000
 10
-176.250158
 20
0.537068
 42
0.000000
 10
-174.884215
 20
0.290059
 42
0.000000
 10
-172.101827
 20
0.294859
 42
0.000000
 10
-172.026158
 20
0.537068
 42
0.000000
 10
-170.660215
 20
0.290059
 42
0.000000
 10
-167.877911
 20
0.290059
 42
0.000000
 10
-167.802158
 20
0.537068
 42
0.000000
 10
-166.436215
 20
0.290059
 42
0.000000
 10
-163.653911
 20
0.290059
 42
0.000000
 10
-163.578158
 20
0.537068
 42
0.000000
 10
-162.212215
 20
0.290059
 42
0.000000
 10
-147.500018
 20
-0.129830
 42
0.000000
 10
-147.500018
 20
-3.149063
 42
0.000000
  0
ENDBLK
  5
86E
100
AcDbEntity
  8
0
100
AcDbBlockEnd
  0
BLOCK
  5
86F
100
AcDbEntity
  8
Detail
100
AcDbBlockBegin
  2
B-82
 70
    66
 10
0.000000
 20
0.000000
 30
0.000000
  0
MTEXT
  5
870
100
AcDbEntity
  8
Detail
 62
     7
100
AcDbMText
 10
-211.093768
 20
-225.937528
 30
0.000000
 40
3.749990
 41
353.428963
 71
     7
 72
     5
  1
Capatect Details sind allgemeine planerische Vorschläge. Sie stellen schematisch die Ausführung dar. Ihnen zugrunde liegen die entsprechenden 
  7
Arial
 50
0.000000
  0
MTEXT
  5
871
100
AcDbEntity
  8
Detail
 62
     7
100
AcDbMText
 10
-211.093768
 20
-231.562513
 30
0.000000
 40
3.749990
 41
392.764473
 71
     7
 72
     5
  1
Produktdatenblätter sowie Systemzulassungen. Die Möglichkeit der Detailanwendung sowie deren Vollständigkeit sind im speziellen Anwendungsfall vom Planer / 
  7
Arial
 50
0.000000
  0
MTEXT
  5
872
100
AcDbEntity
  8
Detail
 62
     7
100
AcDbMText
 10
-211.093768
 20
-237.187498
 30
0.000000
 40
3.749990
 41
107.887184
 71
     7
 72
     5
  1
Unternehmer eigenverantwortlich zu prüfen. 
  7
Arial
 50
0.000000
  0
ENDBLK
  5
873
100
AcDbEntity
  8
0
100
AcDbBlockEnd
  0
BLOCK
  5
874
100
AcDbEntity
  8
Detail
100
AcDbBlockBegin
  2
B-83
 70
    66
 10
0.000000
 20
0.000000
 30
0.000000
  0
LWPOLYLINE
  5
875
100
AcDbEntity
  8
Detail
  6
CONTINUOUS
 62
     6
100
AcDbPolyline
 90
     2
 10
237.500023
 20
-246.249941
 42
0.000000
 10
-237.500018
 20
-246.249941
 42
0.000000
  0
ENDBLK
  5
878
100
AcDbEntity
  8
0
100
AcDbBlockEnd
  0
BLOCK
  5
879
100
AcDbEntity
  8
Detail
100
AcDbBlockBegin
  2
B-84
 70
    66
 10
0.000000
 20
0.000000
 30
0.000000
  0
MTEXT
  5
87A
100
AcDbEntity
  8
Detail
 62
     7
100
AcDbMText
 10
-210.625002
 20
-258.281291
 30
0.000000
 40
5.625000
 41
125.744063
 71
     7
 72
     5
  1
System:	Kombinationsfassade
  7
Arial
 50
0.000000
  0
MTEXT
  5
87B
100
AcDbEntity
  8
Detail
 62
     7
100
AcDbMText
 10
-210.625002
 20
-266.718791
 30
0.000000
 40
5.625000
 41
158.287500
 71
     7
 72
     5
  1
	WDVS Putz / WDVS Hartbekleidung 
  7
Arial
 50
0.000000
  0
ENDBLK
  5
87C
100
AcDbEntity
  8
0
100
AcDbBlockEnd
  0
BLOCK
  5
87D
100
AcDbEntity
  8
Detail
100
AcDbBlockBegin
  2
B-85
 70
    66
 10
0.000000
 20
0.000000
 30
0.000000
  0
MTEXT
  5
87E
100
AcDbEntity
  8
Detail
 62
     7
100
AcDbMText
 10
-210.625002
 20
-295.781291
 30
0.000000
 40
5.625000
 41
125.625938
 71
     7
 72
     5
  1
Detail:	Systemübergang Innenecke
  7
Arial
 50
0.000000
  0
MTEXT
  5
87F
100
AcDbEntity
  8
Detail
 62
     7
100
AcDbMText
 10
-210.625002
 20
-304.218791
 30
0.000000
 40
5.625000
 41
72.410625
 71
     7
 72
     5
  1
	mit Dehnfuge
  7
Arial
 50
0.000000
  0
MTEXT
  5
880
100
AcDbEntity
  8
Detail
 62
     7
100
AcDbMText
 10
-210.625002
 20
-312.656291
 30
0.000000
 40
5.625000
 41
89.775000
 71
     7
 72
     5
  1
	(Horizontalschnitt)
  7
Arial
 50
0.000000
  0
ENDBLK
  5
881
100
AcDbEntity
  8
0
100
AcDbBlockEnd
  0
BLOCK
  5
882
100
AcDbEntity
  8
Detail
100
AcDbBlockBegin
  2
B-86
 70
    66
 10
0.000000
 20
0.000000
 30
0.000000
  0
MTEXT
  5
883
100
AcDbEntity
  8
Detail
 62
     7
100
AcDbMText
 10
6.314834
 20
-252.500041
 30
0.000000
 40
5.000000
 41
93.712500
 71
     1
 72
     5
  1
Plannummer:	310-1316
  7
Arial
 50
0.000000
  0
ENDBLK
  5
884
100
AcDbEntity
  8
0
100
AcDbBlockEnd
  0
BLOCK
  5
885
100
AcDbEntity
  8
Detail
100
AcDbBlockBegin
  2
B-87
 70
    66
 10
0.000000
 20
0.000000
 30
0.000000
  0
MTEXT
  5
886
100
AcDbEntity
  8
Detail
 62
     7
100
AcDbMText
 10
6.314834
 20
-277.500041
 30
0.000000
 40
5.000000
 41
91.035000
 71
     1
 72
     5
  1
Massstab:		ca. 1:2,5
  7
Arial
 50
0.000000
  0
ENDBLK
  5
887
100
AcDbEntity
  8
0
100
AcDbBlockEnd
  0
BLOCK
  5
888
100
AcDbEntity
  8
Detail
100
AcDbBlockBegin
  2
B-88
 70
    66
 10
0.000000
 20
0.000000
 30
0.000000
  0
MTEXT
  5
889
100
AcDbEntity
  8
Detail
 62
     7
100
AcDbMText
 10
6.314834
 20
-302.500041
 30
0.000000
 40
5.000000
 41
99.435000
 71
     1
 72
     5
  1
Aktualisierung:	14.07.2016
  7
Arial
 50
0.000000
  0
ENDBLK
  5
88A
100
AcDbEntity
  8
0
100
AcDbBlockEnd
  0
BLOCK
  5
88B
100
AcDbEntity
  8
Detail
100
AcDbBlockBegin
  2
B-89
 70
    66
 10
0.000000
 20
0.000000
 30
0.000000
  0
LWPOLYLINE
  5
88C
100
AcDbEntity
  8
Detail
  6
CONTINUOUS
 62
     6
100
AcDbPolyline
 90
     2
 10
-20.560166
 20
-321.249941
 42
0.000000
 10
-20.560166
 20
-246.249941
 42
0.000000
  0
LWPOLYLINE
  5
88F
100
AcDbEntity
  8
Detail
  6
CONTINUOUS
 62
     6
100
AcDbPolyline
 90
     2
 10
-237.500018
 20
-321.249941
 42
0.000000
 10
120.969928
 20
-321.249941
 42
0.000000
  0
LWPOLYLINE
  5
892
100
AcDbEntity
  8
Detail
  6
CONTINUOUS
 62
     6
100
AcDbPolyline
 90
     2
 10
-20.560166
 20
-271.249941
 42
0.000000
 10
120.969928
 20
-271.249941
 42
0.000000
  0
LWPOLYLINE
  5
895
100
AcDbEntity
  8
Detail
  6
CONTINUOUS
 62
     6
100
AcDbPolyline
 90
     2
 10
-20.560166
 20
-296.249941
 42
0.000000
 10
120.969928
 20
-296.249941
 42
0.000000
  0
ENDBLK
  5
898
100
AcDbEntity
  8
0
100
AcDbBlockEnd
  0
BLOCK
  5
899
100
AcDbEntity
  8
Detail
100
AcDbBlockBegin
  2
B-90
 70
    66
 10
0.000000
 20
0.000000
 30
0.000000
  0
LWPOLYLINE
  5
89A
100
AcDbEntity
  8
Detail
  6
CONTINUOUS
 62
     6
100
AcDbPolyline
 90
     2
 10
-20.560166
 20
-283.749941
 42
0.000000
 10
-237.500018
 20
-283.749941
 42
0.000000
  0
ENDBLK
  5
89D
100
AcDbEntity
  8
0
100
AcDbBlockEnd
  0
BLOCK
  5
89E
100
AcDbEntity
  8
Detail
100
AcDbBlockBegin
  2
B-91
 70
    66
 10
0.000000
 20
0.000000
 30
0.000000
  0
LWPOLYLINE
  5
89F
100
AcDbEntity
  8
Detail
  6
CONTINUOUS
 62
     6
100
AcDbPolyline
 90
     2
 10
120.969928
 20
-346.249941
 42
0.000000
 10
120.969928
 20
-246.249941
 42
0.000000
  0
ENDBLK
  5
8A2
100
AcDbEntity
  8
0
100
AcDbBlockEnd
  0
BLOCK
  5
8A3
100
AcDbEntity
  8
Detail
100
AcDbBlockBegin
  2
B-92
 70
    66
 10
0.000000
 20
0.000000
 30
0.000000
  0
LWPOLYLINE
  5
8A4
100
AcDbEntity
  8
Detail
  6
CONTINUOUS
 62
     6
100
AcDbPolyline
 90
     5
 10
-237.500018
 20
-346.249941
 42
0.000000
 10
237.500023
 20
-346.249941
 42
0.000000
 10
237.500023
 20
346.250078
 42
0.000000
 10
-237.500018
 20
346.250078
 42
0.000000
 10
-237.500018
 20
-346.249941
 42
0.000000
  0
ENDBLK
  5
8AA
100
AcDbEntity
  8
0
100
AcDbBlockEnd
  0
BLOCK
  5
8AB
100
AcDbEntity
  8
Detail
100
AcDbBlockBegin
  2
B-93
 70
    66
 10
0.000000
 20
0.000000
 30
0.000000
  0
LWPOLYLINE
  5
8AC
100
AcDbEntity
  8
Detail
  6
CONTINUOUS
 62
     9
100
AcDbPolyline
 90
     2
 10
90.499982
 20
-74.749941
 42
0.000000
 10
104.479395
 20
-74.749941
 42
0.000000
  0
LWPOLYLINE
  5
8AF
100
AcDbEntity
  8
Detail
  6
CONTINUOUS
 62
     9
100
AcDbPolyline
 90
    83
 10
127.499982
 20
-46.249941
 42
0.000000
 10
127.499982
 20
-45.749941
 42
0.000000
 10
122.499982
 20
-44.749941
 42
0.000000
 10
72.499982
 20
-44.749941
 42
0.000000
 10
67.499982
 20
-45.749941
 42
0.000000
 10
67.499982
 20
-46.249941
 42
0.000000
 10
84.499982
 20
-46.249941
 42
0.000000
 10
88.249982
 20
-47.499941
 42
0.000000
 10
89.499982
 20
-51.249941
 42
0.000000
 10
90.499982
 20
-74.749941
 42
0.000000
 10
92.999982
 20
-80.749941
 42
0.000000
 10
93.539982
 20
-143.212138
 42
0.000000
 10
93.786992
 20
-144.578081
 42
0.000000
 10
93.539982
 20
-144.653834
 42
0.000000
 10
93.539982
 20
-147.436138
 42
0.000000
 10
93.786992
 20
-148.802081
 42
0.000000
 10
93.539982
 20
-148.877834
 42
0.000000
 10
93.539982
 20
-151.660138
 42
0.000000
 10
93.786992
 20
-153.026081
 42
0.000000
 10
93.544782
 20
-153.101750
 42
0.000000
 10
93.539982
 20
-155.884138
 42
0.000000
 10
93.786992
 20
-157.250081
 42
0.000000
 10
93.539982
 20
-157.325834
 42
0.000000
 10
93.539982
 20
-160.108138
 42
0.000000
 10
93.786992
 20
-161.474081
 42
0.000000
 10
93.539982
 20
-161.549834
 42
0.000000
 10
93.539982
 20
-164.332138
 42
0.000000
 10
93.786992
 20
-165.698081
 42
0.000000
 10
93.539982
 20
-165.773834
 42
0.000000
 10
93.539982
 20
-168.556138
 42
0.000000
 10
93.786992
 20
-169.922081
 42
0.000000
 10
93.539982
 20
-169.997834
 42
0.000000
 10
93.539982
 20
-172.780138
 42
0.000000
 10
93.786992
 20
-174.146081
 42
0.000000
 10
93.539982
 20
-174.221834
 42
0.000000
 10
93.539982
 20
-177.004138
 42
0.000000
 10
93.822415
 20
-178.208294
 42
0.000000
 10
93.659983
 20
-178.667277
 42
0.000000
 10
94.094239
 20
-179.644138
 42
0.000000
 10
94.619982
 20
-179.884138
 42
0.000000
 10
94.619982
 20
-180.652138
 42
0.000000
 10
95.160950
 20
-182.170031
 42
0.000000
 10
96.539982
 20
-183.003648
 42
0.000000
 10
97.499982
 20
-184.749941
 42
0.000000
 10
98.459982
 20
-183.003648
 42
0.000000
 10
99.839014
 20
-182.170031
 42
0.000000
 10
100.366376
 20
-180.907337
 42
0.000000
 10
100.379982
 20
-179.884138
 42
0.000000
 10
100.905726
 20
-179.644138
 42
0.000000
 10
101.339982
 20
-178.891982
 42
0.000000
 10
101.339982
 20
-178.442569
 42
0.000000
 10
101.177550
 20
-178.208294
 42
0.000000
 10
101.459982
 20
-177.004138
 42
0.000000
 10
101.459982
 20
-174.221834
 42
0.000000
 10
101.212973
 20
-174.146081
 42
0.000000
 10
101.459982
 20
-172.780138
 42
0.000000
 10
101.459982
 20
-169.997834
 42
0.000000
 10
101.212973
 20
-169.922081
 42
0.000000
 10
101.459982
 20
-168.556138
 42
0.000000
 10
101.459982
 20
-165.773834
 42
0.000000
 10
101.212973
 20
-165.698081
 42
0.000000
 10
101.459982
 20
-164.332138
 42
0.000000
 10
101.459982
 20
-161.549834
 42
0.000000
 10
101.212973
 20
-161.474081
 42
0.000000
 10
101.459982
 20
-160.108138
 42
0.000000
 10
101.459982
 20
-157.325834
 42
0.000000
 10
101.212973
 20
-157.250081
 42
0.000000
 10
101.459982
 20
-155.884138
 42
0.000000
 10
101.455182
 20
-153.101750
 42
0.000000
 10
101.212973
 20
-153.026081
 42
0.000000
 10
101.459982
 20
-151.660138
 42
0.000000
 10
101.459982
 20
-148.877834
 42
0.000000
 10
101.212973
 20
-148.802081
 42
0.000000
 10
101.459982
 20
-147.436138
 42
0.000000
 10
101.459982
 20
-144.653834
 42
0.000000
 10
101.212973
 20
-144.578081
 42
0.000000
 10
101.459982
 20
-143.212138
 42
0.000000
 10
101.999982
 20
-80.749941
 42
0.000000
 10
104.499982
 20
-74.749941
 42
0.000000
 10
105.499982
 20
-51.249941
 42
0.000000
 10
106.749982
 20
-47.499941
 42
0.000000
 10
110.499982
 20
-46.249941
 42
0.000000
 10
127.499982
 20
-46.249941
 42
0.000000
  0
LWPOLYLINE
  5
903
100
AcDbEntity
  8
Detail
  6
CONTINUOUS
 62
     9
100
AcDbPolyline
 90
   203
 10
97.499982
 20
-184.749941
 42
0.000000
 10
96.624718
 20
-182.636865
 42
0.000000
 10
95.755964
 20
-182.135290
 42
0.000000
 10
96.255964
 20
-181.746615
 42
0.000000
 10
95.808474
 20
-180.666278
 42
0.000000
 10
94.939720
 20
-180.164703
 42
0.000000
 10
95.439720
 20
-179.776028
 42
0.000000
 10
95.199982
 20
-179.197251
 42
0.000000
 10
95.199982
 20
-178.596212
 42
0.000000
 10
94.699982
 20
-178.307537
 42
0.000000
 10
95.199982
 20
-177.918862
 42
0.000000
 10
95.199982
 20
-176.786212
 42
0.000000
 10
94.699982
 20
-176.497537
 42
0.000000
 10
95.199982
 20
-176.108862
 42
0.000000
 10
95.199982
 20
-174.976212
 42
0.000000
 10
94.699982
 20
-174.687537
 42
0.000000
 10
95.199982
 20
-174.298862
 42
0.000000
 10
95.199982
 20
-173.166212
 42
0.000000
 10
94.699982
 20
-172.877537
 42
0.000000
 10
95.199982
 20
-172.488862
 42
0.000000
 10
95.199982
 20
-171.356212
 42
0.000000
 10
94.699982
 20
-171.067537
 42
0.000000
 10
95.199982
 20
-170.678862
 42
0.000000
 10
95.199982
 20
-169.546212
 42
0.000000
 10
94.699982
 20
-169.257537
 42
0.000000
 10
95.199982
 20
-168.868862
 42
0.000000
 10
95.199982
 20
-167.736212
 42
0.000000
 10
94.699982
 20
-167.447537
 42
0.000000
 10
95.199982
 20
-167.058862
 42
0.000000
 10
95.199982
 20
-165.926212
 42
0.000000
 10
94.699982
 20
-165.637537
 42
0.000000
 10
95.199982
 20
-165.248862
 42
0.000000
 10
95.199982
 20
-164.116212
 42
0.000000
 10
94.699982
 20
-163.827537
 42
0.000000
 10
95.199982
 20
-163.438862
 42
0.000000
 10
95.199982
 20
-162.306212
 42
0.000000
 10
94.699982
 20
-162.017537
 42
0.000000
 10
95.199982
 20
-161.628862
 42
0.000000
 10
95.199982
 20
-160.496212
 42
0.000000
 10
94.699982
 20
-160.207537
 42
0.000000
 10
95.199982
 20
-159.818862
 42
0.000000
 10
95.199982
 20
-158.686212
 42
0.000000
 10
94.699982
 20
-158.397537
 42
0.000000
 10
95.199982
 20
-158.008862
 42
0.000000
 10
95.199982
 20
-156.876212
 42
0.000000
 10
94.699982
 20
-156.587537
 42
0.000000
 10
95.199982
 20
-156.198862
 42
0.000000
 10
95.199982
 20
-155.066212
 42
0.000000
 10
94.699982
 20
-154.777537
 42
0.000000
 10
95.199982
 20
-154.388862
 42
0.000000
 10
95.199982
 20
-153.256212
 42
0.000000
 10
94.699982
 20
-152.967537
 42
0.000000
 10
95.199982
 20
-152.578862
 42
0.000000
 10
95.199982
 20
-151.446212
 42
0.000000
 10
94.699982
 20
-151.157537
 42
0.000000
 10
95.199982
 20
-150.768862
 42
0.000000
 10
95.199982
 20
-149.636212
 42
0.000000
 10
94.699982
 20
-149.347537
 42
0.000000
 10
95.199982
 20
-148.936348
 42
0.000000
 10
95.199982
 20
-147.826212
 42
0.000000
 10
94.699982
 20
-147.537537
 42
0.000000
 10
95.199982
 20
-147.148862
 42
0.000000
 10
95.199982
 20
-146.016212
 42
0.000000
 10
94.699982
 20
-145.727537
 42
0.000000
 10
95.199982
 20
-145.338862
 42
0.000000
 10
95.199982
 20
-144.206212
 42
0.000000
 10
94.699982
 20
-143.917537
 42
0.000000
 10
95.199982
 20
-143.528862
 42
0.000000
 10
95.199982
 20
-142.396212
 42
0.000000
 10
94.699982
 20
-142.107537
 42
0.000000
 10
95.199982
 20
-141.718862
 42
0.000000
 10
95.199982
 20
-140.586212
 42
0.000000
 10
94.699982
 20
-140.297537
 42
0.000000
 10
95.199982
 20
-139.908862
 42
0.000000
 10
95.199982
 20
-138.776212
 42
0.000000
 10
94.699982
 20
-138.487537
 42
0.000000
 10
95.199982
 20
-138.098862
 42
0.000000
 10
95.199982
 20
-136.966212
 42
0.000000
 10
94.699982
 20
-136.677537
 42
0.000000
 10
95.199982
 20
-136.288862
 42
0.000000
 10
95.199982
 20
-135.156212
 42
0.000000
 10
94.699982
 20
-134.867537
 42
0.000000
 10
95.199982
 20
-134.478862
 42
0.000000
 10
95.199982
 20
-133.346212
 42
0.000000
 10
94.699982
 20
-133.057537
 42
0.000000
 10
95.199982
 20
-132.668862
 42
0.000000
 10
95.199982
 20
-131.536212
 42
0.000000
 10
94.699982
 20
-131.247537
 42
0.000000
 10
95.199982
 20
-130.858862
 42
0.000000
 10
95.199982
 20
-129.726212
 42
0.000000
 10
94.699982
 20
-129.437537
 42
0.000000
 10
95.199982
 20
-129.048862
 42
0.000000
 10
95.199982
 20
-127.916212
 42
0.000000
 10
94.699982
 20
-127.627537
 42
0.000000
 10
95.199982
 20
-127.238862
 42
0.000000
 10
95.199982
 20
-126.106212
 42
0.000000
 10
94.699982
 20
-125.817537
 42
0.000000
 10
95.199982
 20
-125.428862
 42
0.000000
 10
95.199982
 20
-124.749941
 42
0.000000
 10
95.099982
 20
-124.576736
 42
0.000000
 10
92.999982
 20
-80.749941
 42
0.000000
 10
101.999982
 20
-80.749941
 42
0.000000
 10
99.899982
 20
-124.576736
 42
0.000000
 10
99.799982
 20
-124.749941
 42
0.000000
 10
100.299982
 20
-124.912537
 42
0.000000
 10
99.799982
 20
-125.201212
 42
0.000000
 10
99.799982
 20
-126.333862
 42
0.000000
 10
100.299982
 20
-126.722537
 42
0.000000
 10
99.799982
 20
-127.011212
 42
0.000000
 10
99.799982
 20
-128.143862
 42
0.000000
 10
100.299982
 20
-128.532537
 42
0.000000
 10
99.799982
 20
-128.821212
 42
0.000000
 10
99.799982
 20
-129.953862
 42
0.000000
 10
100.299982
 20
-130.342537
 42
0.000000
 10
99.799982
 20
-130.631212
 42
0.000000
 10
99.799982
 20
-131.763862
 42
0.000000
 10
100.299982
 20
-132.152537
 42
0.000000
 10
99.799982
 20
-132.441212
 42
0.000000
 10
99.799982
 20
-133.573862
 42
0.000000
 10
100.299982
 20
-133.962537
 42
0.000000
 10
99.799982
 20
-134.251212
 42
0.000000
 10
99.799982
 20
-135.383862
 42
0.000000
 10
100.299982
 20
-135.772537
 42
0.000000
 10
99.799982
 20
-136.061212
 42
0.000000
 10
99.799982
 20
-137.193862
 42
0.000000
 10
100.299982
 20
-137.582537
 42
0.000000
 10
99.799982
 20
-137.871212
 42
0.000000
 10
99.799982
 20
-139.003862
 42
0.000000
 10
100.299982
 20
-139.392537
 42
0.000000
 10
99.799982
 20
-139.681212
 42
0.000000
 10
99.799982
 20
-140.813862
 42
0.000000
 10
100.299982
 20
-141.202537
 42
0.000000
 10
99.799982
 20
-141.491212
 42
0.000000
 10
99.799982
 20
-142.623862
 42
0.000000
 10
100.299982
 20
-143.012537
 42
0.000000
 10
99.799982
 20
-143.301212
 42
0.000000
 10
99.799982
 20
-144.433862
 42
0.000000
 10
100.299982
 20
-144.822537
 42
0.000000
 10
99.799982
 20
-145.111212
 42
0.000000
 10
99.799982
 20
-146.243862
 42
0.000000
 10
100.299982
 20
-146.632537
 42
0.000000
 10
99.799982
 20
-146.921212
 42
0.000000
 10
99.799982
 20
-148.053862
 42
0.000000
 10
100.299982
 20
-148.442537
 42
0.000000
 10
99.799982
 20
-148.731212
 42
0.000000
 10
99.799982
 20
-149.863862
 42
0.000000
 10
100.299982
 20
-150.252537
 42
0.000000
 10
99.799982
 20
-150.541212
 42
0.000000
 10
99.799982
 20
-151.673862
 42
0.000000
 10
100.299982
 20
-152.062537
 42
0.000000
 10
99.799982
 20
-152.351212
 42
0.000000
 10
99.799982
 20
-153.483862
 42
0.000000
 10
100.299982
 20
-153.872537
 42
0.000000
 10
99.799982
 20
-154.161212
 42
0.000000
 10
99.799982
 20
-155.293862
 42
0.000000
 10
100.299982
 20
-155.682537
 42
0.000000
 10
99.799982
 20
-155.971212
 42
0.000000
 10
99.799982
 20
-157.103862
 42
0.000000
 10
100.299982
 20
-157.492537
 42
0.000000
 10
99.799982
 20
-157.781212
 42
0.000000
 10
99.799982
 20
-158.913862
 42
0.000000
 10
100.299982
 20
-159.302537
 42
0.000000
 10
99.799982
 20
-159.591212
 42
0.000000
 10
99.799982
 20
-160.723862
 42
0.000000
 10
100.299982
 20
-161.112537
 42
0.000000
 10
99.799982
 20
-161.401212
 42
0.000000
 10
99.799982
 20
-162.533862
 42
0.000000
 10
100.299982
 20
-162.922537
 42
0.000000
 10
99.799982
 20
-163.211212
 42
0.000000
 10
99.799982
 20
-164.343862
 42
0.000000
 10
100.299982
 20
-164.732537
 42
0.000000
 10
99.799982
 20
-165.021212
 42
0.000000
 10
99.799982
 20
-166.153862
 42
0.000000
 10
100.299982
 20
-166.542537
 42
0.000000
 10
99.799982
 20
-166.831212
 42
0.000000
 10
99.799982
 20
-167.963862
 42
0.000000
 10
100.299982
 20
-168.352537
 42
0.000000
 10
99.799982
 20
-168.641212
 42
0.000000
 10
99.799982
 20
-169.773862
 42
0.000000
 10
100.299982
 20
-170.162537
 42
0.000000
 10
99.799982
 20
-170.451212
 42
0.000000
 10
99.799982
 20
-171.583862
 42
0.000000
 10
100.299982
 20
-171.972537
 42
0.000000
 10
99.799982
 20
-172.261212
 42
0.000000
 10
99.799982
 20
-173.393862
 42
0.000000
 10
100.299982
 20
-173.782537
 42
0.000000
 10
99.799982
 20
-174.071212
 42
0.000000
 10
99.799982
 20
-175.203862
 42
0.000000
 10
100.299982
 20
-175.592537
 42
0.000000
 10
99.799982
 20
-175.881212
 42
0.000000
 10
99.799982
 20
-177.013862
 42
0.000000
 10
100.299982
 20
-177.402537
 42
0.000000
 10
99.799982
 20
-177.691212
 42
0.000000
 10
99.799982
 20
-178.823862
 42
0.000000
 10
100.299982
 20
-179.212537
 42
0.000000
 10
99.634503
 20
-179.596752
 42
0.000000
 10
99.249757
 20
-180.525612
 42
0.000000
 10
99.749757
 20
-180.914287
 42
0.000000
 10
98.881003
 20
-181.415861
 42
0.000000
 10
98.556523
 20
-182.199225
 42
0.000000
 10
99.056523
 20
-182.587900
 42
0.000000
 10
98.187770
 20
-183.089475
 42
0.000000
 10
97.499982
 20
-184.749941
 42
0.000000
  0
ENDBLK
  5
9CF
100
AcDbEntity
  8
0
100
AcDbBlockEnd
  0
BLOCK
  5
9D0
100
AcDbEntity
  8
SCHRAFF
100
AcDbBlockBegin
  2
B-95
 70
    66
 10
0.000000
 20
0.000000
 30
0.000000
  0
HATCH
  5
9D1
100
AcDbEntity
  8
SCHRAFF
  6
CONTINUOUS
 62
     9
100
AcDbHatch
 10
0.000000
 20
0.000000
 30
0.000000
210
0.000000
220
0.000000
230
1.000000
  2
_U
 70
     0
 71
     1
 91
     1
 92
    18
 72
     1
 73
     0
 93
     5
 10
-67.500018
 20
153.750056
 42
0.000000
 10
-67.500018
 20
213.750056
 42
0.000000
 10
-87.500018
 20
213.750056
 42
0.000000
 10
-87.500018
 20
153.750056
 42
0.000000
 10
-67.500018
 20
153.750056
 42
0.000000
 97
     0
 75
     0
 76
     0
 52
0.000000
 41
1.000000
 77
     0
 78
     1
 53
90.000000
 43
-0.000000
 44
0.000000
 45
-6.875000
 46
0.000000
 79
     0
 98
     0
  0
ENDBLK
  5
9D2
100
AcDbEntity
  8
0
100
AcDbBlockEnd
  0
BLOCK
  5
9D3
100
AcDbEntity
  8
Detail
100
AcDbBlockBegin
  2
B-96
 70
    66
 10
0.000000
 20
0.000000
 30
0.000000
  0
MTEXT
  5
9D4
100
AcDbEntity
  8
Detail
 62
     7
100
AcDbMText
 10
39.374975
 20
-332.500019
 30
0.000000
 40
4.999982
 41
51.922313
 71
     7
 72
     5
  1
info@daw.swiss
  7
Arial
 50
0.000000
  0
MTEXT
  5
9D5
100
AcDbEntity
  8
Detail
 62
     7
100
AcDbMText
 10
39.374975
 20
-339.999993
 30
0.000000
 40
4.999982
 41
54.599803
 71
     7
 72
     5
  1
www.capatect.ch
  7
Arial
 50
0.000000
  0
ENDBLK
  5
9D6
100
AcDbEntity
  8
0
100
AcDbBlockEnd
  0
BLOCK
  5
9D7
100
AcDbEntity
  8
Detail
100
AcDbBlockBegin
  2
B-97
 70
    66
 10
0.000000
 20
0.000000
 30
0.000000
  0
MTEXT
  5
9D8
100
AcDbEntity
  8
Detail
 62
     7
100
AcDbMText
 10
-85.625025
 20
-332.500016
 30
0.000000
 40
4.999980
 41
72.134711
 71
     7
 72
     5
  1
Telefon 043 399 42 22
  7
Arial
 50
0.000000
  0
MTEXT
  5
9D9
100
AcDbEntity
  8
Detail
 62
     7
100
AcDbMText
 10
-85.625025
 20
-339.999986
 30
0.000000
 40
4.999980
 41
71.767213
 71
     7
 72
     5
  1
Telefax 043 399 42 23
  7
Arial
 50
0.000000
  0
ENDBLK
  5
9DA
100
AcDbEntity
  8
0
100
AcDbBlockEnd
  0
BLOCK
  5
9DB
100
AcDbEntity
  8
Detail
100
AcDbBlockBegin
  2
B-98
 70
    66
 10
0.000000
 20
0.000000
 30
0.000000
  0
MTEXT
  5
9DC
100
AcDbEntity
  8
Detail
 62
     7
100
AcDbMText
 10
-210.625009
 20
-332.500016
 30
0.000000
 40
4.999980
 41
58.117268
 71
     7
 72
     5
  1
DAW Schweiz AG
  7
Arial
 50
0.000000
  0
MTEXT
  5
9DD
100
AcDbEntity
  8
Detail
 62
     7
100
AcDbMText
 10
-210.625009
 20
-339.999986
 30
0.000000
 40
4.999980
 41
108.149567
 71
     7
 72
     5
  1
Gewerbestrasse 6, 8606 Nänikon
  7
Arial
 50
0.000000
  0
ENDBLK
  5
9DE
100
AcDbEntity
  8
0
100
AcDbBlockEnd
  0
BLOCK
  5
9DF
100
AcDbEntity
  8
SCHRAFF
100
AcDbBlockBegin
  2
B-99
 70
    66
 10
0.000000
 20
0.000000
 30
0.000000
  0
HATCH
  5
9E0
100
AcDbEntity
  8
SCHRAFF
 62
     7
440
     0
100
AcDbHatch
 10
0.000000
 20
0.000000
 30
0.000000
210
0.000000
220
0.000000
230
1.000000
  2
SOLID
 70
     1
 71
     1
 91
     1
 92
    18
 72
     1
 73
     0
 93
     3
 10
-145.500018
 20
3.750059
 42
1.000000
 10
-146.500018
 20
3.750059
 42
1.000000
 10
-145.500018
 20
3.750059
 42
0.000000
 97
     0
 75
     0
 76
     1
 98
     0
  0
ENDBLK
  5
9E1
100
AcDbEntity
  8
0
100
AcDbBlockEnd
  0
BLOCK
  5
9E2
100
AcDbEntity
  8
Detail
100
AcDbBlockBegin
  2
B-100
 70
    66
 10
0.000000
 20
0.000000
 30
0.000000
  0
CIRCLE
  5
9E3
100
AcDbEntity
  8
Detail
  6
CONTINUOUS
 62
     7
100
AcDbCircle
 10
-146.000018
 20
3.750059
 40
0.500000
  0
ENDBLK
  5
9E4
100
AcDbEntity
  8
0
100
AcDbBlockEnd
  0
BLOCK
  5
9E5
100
AcDbEntity
  8
Detail
100
AcDbBlockBegin
  2
B-101
 70
    66
 10
0.000000
 20
0.000000
 30
0.000000
  0
LWPOLYLINE
  5
9E6
100
AcDbEntity
  8
Detail
  6
CONTINUOUS
 62
     4
100
AcDbPolyline
 90
     2
 10
155.499982
 20
-31.249941
 42
0.400000
 10
165.499982
 20
-31.249941
 42
0.000000
  0
ENDBLK
  5
9E9
100
AcDbEntity
  8
0
100
AcDbBlockEnd
  0
ENDSEC
  0
SECTION
  2
ENTITIES
  0
INSERT
  5
9EA
100
AcDbEntity
  8
0
100
AcDbBlockReference
  2
B
 10
0.000000
 20
0.000000
 30
0.000000
 41
1.000000
 42
1.000000
 43
1.000000
 50
0.000000
  0
INSERT
  5
9EB
100
AcDbEntity
  8
0
100
AcDbBlockReference
  2
B-2
 10
0.000000
 20
0.000000
 30
0.000000
 41
1.000000
 42
1.000000
 43
1.000000
 50
0.000000
  0
INSERT
  5
9EC
100
AcDbEntity
  8
Detail
100
AcDbBlockReference
  2
B-3
 10
0.000000
 20
0.000000
 30
0.000000
 41
1.000000
 42
1.000000
 43
1.000000
 50
0.000000
  0
INSERT
  5
9ED
100
AcDbEntity
  8
0
100
AcDbBlockReference
  2
B-4
 10
0.000000
 20
0.000000
 30
0.000000
 41
1.000000
 42
1.000000
 43
1.000000
 50
0.000000
  0
INSERT
  5
9EE
100
AcDbEntity
  8
0
100
AcDbBlockReference
  2
B-5
 10
0.000000
 20
0.000000
 30
0.000000
 41
1.000000
 42
1.000000
 43
1.000000
 50
0.000000
  0
INSERT
  5
9EF
100
AcDbEntity
  8
0
100
AcDbBlockReference
  2
B-6
 10
0.000000
 20
0.000000
 30
0.000000
 41
1.000000
 42
1.000000
 43
1.000000
 50
0.000000
  0
INSERT
  5
9F0
100
AcDbEntity
  8
Detail
100
AcDbBlockReference
  2
B-7
 10
0.000000
 20
0.000000
 30
0.000000
 41
1.000000
 42
1.000000
 43
1.000000
 50
0.000000
  0
INSERT
  5
9F1
100
AcDbEntity
  8
0
100
AcDbBlockReference
  2
B-8
 10
0.000000
 20
0.000000
 30
0.000000
 41
1.000000
 42
1.000000
 43
1.000000
 50
0.000000
  0
INSERT
  5
9F2
100
AcDbEntity
  8
0
100
AcDbBlockReference
  2
B-9
 10
0.000000
 20
0.000000
 30
0.000000
 41
1.000000
 42
1.000000
 43
1.000000
 50
0.000000
  0
INSERT
  5
9F3
100
AcDbEntity
  8
Detail
100
AcDbBlockReference
  2
B-10
 10
0.000000
 20
0.000000
 30
0.000000
 41
1.000000
 42
1.000000
 43
1.000000
 50
0.000000
  0
INSERT
  5
9F4
100
AcDbEntity
  8
0
100
AcDbBlockReference
  2
B-11
 10
0.000000
 20
0.000000
 30
0.000000
 41
1.000000
 42
1.000000
 43
1.000000
 50
0.000000
  0
INSERT
  5
9F5
100
AcDbEntity
  8
0
100
AcDbBlockReference
  2
B-12
 10
0.000000
 20
0.000000
 30
0.000000
 41
1.000000
 42
1.000000
 43
1.000000
 50
0.000000
  0
INSERT
  5
9F6
100
AcDbEntity
  8
0
100
AcDbBlockReference
  2
B-13
 10
0.000000
 20
0.000000
 30
0.000000
 41
1.000000
 42
1.000000
 43
1.000000
 50
0.000000
  0
INSERT
  5
9F7
100
AcDbEntity
  8
0
100
AcDbBlockReference
  2
B-14
 10
0.000000
 20
0.000000
 30
0.000000
 41
1.000000
 42
1.000000
 43
1.000000
 50
0.000000
  0
INSERT
  5
9F8
100
AcDbEntity
  8
0
100
AcDbBlockReference
  2
B-15
 10
0.000000
 20
0.000000
 30
0.000000
 41
1.000000
 42
1.000000
 43
1.000000
 50
0.000000
  0
INSERT
  5
9F9
100
AcDbEntity
  8
0
100
AcDbBlockReference
  2
B-16
 10
0.000000
 20
0.000000
 30
0.000000
 41
1.000000
 42
1.000000
 43
1.000000
 50
0.000000
  0
INSERT
  5
9FA
100
AcDbEntity
  8
Detail
100
AcDbBlockReference
  2
B-17
 10
0.000000
 20
0.000000
 30
0.000000
 41
1.000000
 42
1.000000
 43
1.000000
 50
0.000000
  0
INSERT
  5
9FB
100
AcDbEntity
  8
L
100
AcDbBlockReference
  2
B-18
 10
0.000000
 20
0.000000
 30
0.000000
 41
1.000000
 42
1.000000
 43
1.000000
 50
0.000000
  0
INSERT
  5
9FC
100
AcDbEntity
  8
0
100
AcDbBlockReference
  2
B-19
 10
0.000000
 20
0.000000
 30
0.000000
 41
1.000000
 42
1.000000
 43
1.000000
 50
0.000000
  0
INSERT
  5
9FD
100
AcDbEntity
  8
0
100
AcDbBlockReference
  2
B-20
 10
0.000000
 20
0.000000
 30
0.000000
 41
1.000000
 42
1.000000
 43
1.000000
 50
0.000000
  0
INSERT
  5
9FE
100
AcDbEntity
  8
0
100
AcDbBlockReference
  2
B-21
 10
0.000000
 20
0.000000
 30
0.000000
 41
1.000000
 42
1.000000
 43
1.000000
 50
0.000000
  0
INSERT
  5
9FF
100
AcDbEntity
  8
0
100
AcDbBlockReference
  2
B-22
 10
0.000000
 20
0.000000
 30
0.000000
 41
1.000000
 42
1.000000
 43
1.000000
 50
0.000000
  0
INSERT
  5
A00
100
AcDbEntity
  8
0
100
AcDbBlockReference
  2
B-23
 10
0.000000
 20
0.000000
 30
0.000000
 41
1.000000
 42
1.000000
 43
1.000000
 50
0.000000
  0
INSERT
  5
A01
100
AcDbEntity
  8
0
100
AcDbBlockReference
  2
B-24
 10
0.000000
 20
0.000000
 30
0.000000
 41
1.000000
 42
1.000000
 43
1.000000
 50
0.000000
  0
INSERT
  5
A02
100
AcDbEntity
  8
Detail
100
AcDbBlockReference
  2
B-25
 10
0.000000
 20
0.000000
 30
0.000000
 41
1.000000
 42
1.000000
 43
1.000000
 50
0.000000
  0
INSERT
  5
A03
100
AcDbEntity
  8
Detail
100
AcDbBlockReference
  2
B-26
 10
0.000000
 20
0.000000
 30
0.000000
 41
1.000000
 42
1.000000
 43
1.000000
 50
0.000000
  0
INSERT
  5
A04
100
AcDbEntity
  8
0
100
AcDbBlockReference
  2
B-27
 10
0.000000
 20
0.000000
 30
0.000000
 41
1.000000
 42
1.000000
 43
1.000000
 50
0.000000
  0
INSERT
  5
A05
100
AcDbEntity
  8
Detail
100
AcDbBlockReference
  2
B-28
 10
0.000000
 20
0.000000
 30
0.000000
 41
1.000000
 42
1.000000
 43
1.000000
 50
0.000000
  0
INSERT
  5
A06
100
AcDbEntity
  8
Detail
100
AcDbBlockReference
  2
B-29
 10
0.000000
 20
0.000000
 30
0.000000
 41
1.000000
 42
1.000000
 43
1.000000
 50
0.000000
  0
INSERT
  5
A07
100
AcDbEntity
  8
Detail
100
AcDbBlockReference
  2
B-30
 10
0.000000
 20
0.000000
 30
0.000000
 41
1.000000
 42
1.000000
 43
1.000000
 50
0.000000
  0
INSERT
  5
A08
100
AcDbEntity
  8
Detail
100
AcDbBlockReference
  2
B-31
 10
0.000000
 20
0.000000
 30
0.000000
 41
1.000000
 42
1.000000
 43
1.000000
 50
0.000000
  0
INSERT
  5
A09
100
AcDbEntity
  8
Detail
100
AcDbBlockReference
  2
B-32
 10
0.000000
 20
0.000000
 30
0.000000
 41
1.000000
 42
1.000000
 43
1.000000
 50
0.000000
  0
INSERT
  5
A0A
100
AcDbEntity
  8
Detail
100
AcDbBlockReference
  2
B-33
 10
0.000000
 20
0.000000
 30
0.000000
 41
1.000000
 42
1.000000
 43
1.000000
 50
0.000000
  0
INSERT
  5
A0B
100
AcDbEntity
  8
Detail
100
AcDbBlockReference
  2
B-34
 10
0.000000
 20
0.000000
 30
0.000000
 41
1.000000
 42
1.000000
 43
1.000000
 50
0.000000
  0
INSERT
  5
A0C
100
AcDbEntity
  8
Detail
100
AcDbBlockReference
  2
B-35
 10
0.000000
 20
0.000000
 30
0.000000
 41
1.000000
 42
1.000000
 43
1.000000
 50
0.000000
  0
INSERT
  5
A0D
100
AcDbEntity
  8
Detail
100
AcDbBlockReference
  2
B-36
 10
0.000000
 20
0.000000
 30
0.000000
 41
1.000000
 42
1.000000
 43
1.000000
 50
0.000000
  0
INSERT
  5
A0E
100
AcDbEntity
  8
Detail
100
AcDbBlockReference
  2
B-37
 10
0.000000
 20
0.000000
 30
0.000000
 41
1.000000
 42
1.000000
 43
1.000000
 50
0.000000
  0
INSERT
  5
A0F
100
AcDbEntity
  8
Detail
100
AcDbBlockReference
  2
B-38
 10
0.000000
 20
0.000000
 30
0.000000
 41
1.000000
 42
1.000000
 43
1.000000
 50
0.000000
  0
INSERT
  5
A10
100
AcDbEntity
  8
Detail
100
AcDbBlockReference
  2
B-39
 10
0.000000
 20
0.000000
 30
0.000000
 41
1.000000
 42
1.000000
 43
1.000000
 50
0.000000
  0
INSERT
  5
A11
100
AcDbEntity
  8
Detail
100
AcDbBlockReference
  2
B-40
 10
0.000000
 20
0.000000
 30
0.000000
 41
1.000000
 42
1.000000
 43
1.000000
 50
0.000000
  0
INSERT
  5
A12
100
AcDbEntity
  8
Detail
100
AcDbBlockReference
  2
B-41
 10
0.000000
 20
0.000000
 30
0.000000
 41
1.000000
 42
1.000000
 43
1.000000
 50
0.000000
  0
INSERT
  5
A13
100
AcDbEntity
  8
Detail
100
AcDbBlockReference
  2
B-42
 10
0.000000
 20
0.000000
 30
0.000000
 41
1.000000
 42
1.000000
 43
1.000000
 50
0.000000
  0
INSERT
  5
A14
100
AcDbEntity
  8
Detail
100
AcDbBlockReference
  2
B-43
 10
0.000000
 20
0.000000
 30
0.000000
 41
1.000000
 42
1.000000
 43
1.000000
 50
0.000000
  0
INSERT
  5
A15
100
AcDbEntity
  8
Detail
100
AcDbBlockReference
  2
B-44
 10
0.000000
 20
0.000000
 30
0.000000
 41
1.000000
 42
1.000000
 43
1.000000
 50
0.000000
  0
INSERT
  5
A16
100
AcDbEntity
  8
Detail
100
AcDbBlockReference
  2
B-45
 10
0.000000
 20
0.000000
 30
0.000000
 41
1.000000
 42
1.000000
 43
1.000000
 50
0.000000
  0
INSERT
  5
A17
100
AcDbEntity
  8
0
100
AcDbBlockReference
  2
B-46
 10
0.000000
 20
0.000000
 30
0.000000
 41
1.000000
 42
1.000000
 43
1.000000
 50
0.000000
  0
INSERT
  5
A18
100
AcDbEntity
  8
0
100
AcDbBlockReference
  2
B-47
 10
0.000000
 20
0.000000
 30
0.000000
 41
1.000000
 42
1.000000
 43
1.000000
 50
0.000000
  0
INSERT
  5
A19
100
AcDbEntity
  8
0
100
AcDbBlockReference
  2
B-48
 10
0.000000
 20
0.000000
 30
0.000000
 41
1.000000
 42
1.000000
 43
1.000000
 50
0.000000
  0
INSERT
  5
A1A
100
AcDbEntity
  8
0
100
AcDbBlockReference
  2
B-49
 10
0.000000
 20
0.000000
 30
0.000000
 41
1.000000
 42
1.000000
 43
1.000000
 50
0.000000
  0
INSERT
  5
A1B
100
AcDbEntity
  8
0
100
AcDbBlockReference
  2
B-50
 10
0.000000
 20
0.000000
 30
0.000000
 41
1.000000
 42
1.000000
 43
1.000000
 50
0.000000
  0
INSERT
  5
A1C
100
AcDbEntity
  8
0
100
AcDbBlockReference
  2
B-51
 10
0.000000
 20
0.000000
 30
0.000000
 41
1.000000
 42
1.000000
 43
1.000000
 50
0.000000
  0
INSERT
  5
A1D
100
AcDbEntity
  8
0
100
AcDbBlockReference
  2
B-52
 10
0.000000
 20
0.000000
 30
0.000000
 41
1.000000
 42
1.000000
 43
1.000000
 50
0.000000
  0
INSERT
  5
A1E
100
AcDbEntity
  8
0
100
AcDbBlockReference
  2
B-53
 10
0.000000
 20
0.000000
 30
0.000000
 41
1.000000
 42
1.000000
 43
1.000000
 50
0.000000
  0
INSERT
  5
A1F
100
AcDbEntity
  8
0
100
AcDbBlockReference
  2
B-54
 10
0.000000
 20
0.000000
 30
0.000000
 41
1.000000
 42
1.000000
 43
1.000000
 50
0.000000
  0
INSERT
  5
A20
100
AcDbEntity
  8
0
100
AcDbBlockReference
  2
B-55
 10
0.000000
 20
0.000000
 30
0.000000
 41
1.000000
 42
1.000000
 43
1.000000
 50
0.000000
  0
INSERT
  5
A21
100
AcDbEntity
  8
0
100
AcDbBlockReference
  2
B-56
 10
0.000000
 20
0.000000
 30
0.000000
 41
1.000000
 42
1.000000
 43
1.000000
 50
0.000000
  0
INSERT
  5
A22
100
AcDbEntity
  8
L
100
AcDbBlockReference
  2
B-57
 10
0.000000
 20
0.000000
 30
0.000000
 41
1.000000
 42
1.000000
 43
1.000000
 50
0.000000
  0
INSERT
  5
A23
100
AcDbEntity
  8
Detail
100
AcDbBlockReference
  2
B-58
 10
0.000000
 20
0.000000
 30
0.000000
 41
1.000000
 42
1.000000
 43
1.000000
 50
0.000000
  0
INSERT
  5
A24
100
AcDbEntity
  8
L
100
AcDbBlockReference
  2
B-59
 10
0.000000
 20
0.000000
 30
0.000000
 41
1.000000
 42
1.000000
 43
1.000000
 50
0.000000
  0
INSERT
  5
A25
100
AcDbEntity
  8
0
100
AcDbBlockReference
  2
B-60
 10
0.000000
 20
0.000000
 30
0.000000
 41
1.000000
 42
1.000000
 43
1.000000
 50
0.000000
  0
INSERT
  5
A26
100
AcDbEntity
  8
Detail
100
AcDbBlockReference
  2
B-61
 10
0.000000
 20
0.000000
 30
0.000000
 41
1.000000
 42
1.000000
 43
1.000000
 50
0.000000
  0
INSERT
  5
A27
100
AcDbEntity
  8
0
100
AcDbBlockReference
  2
B-62
 10
0.000000
 20
0.000000
 30
0.000000
 41
1.000000
 42
1.000000
 43
1.000000
 50
0.000000
  0
INSERT
  5
A28
100
AcDbEntity
  8
Detail
100
AcDbBlockReference
  2
B-63
 10
0.000000
 20
0.000000
 30
0.000000
 41
1.000000
 42
1.000000
 43
1.000000
 50
0.000000
  0
INSERT
  5
A29
100
AcDbEntity
  8
L
100
AcDbBlockReference
  2
B-64
 10
0.000000
 20
0.000000
 30
0.000000
 41
1.000000
 42
1.000000
 43
1.000000
 50
0.000000
  0
INSERT
  5
A2A
100
AcDbEntity
  8
Detail
100
AcDbBlockReference
  2
B-65
 10
0.000000
 20
0.000000
 30
0.000000
 41
1.000000
 42
1.000000
 43
1.000000
 50
0.000000
  0
INSERT
  5
A2B
100
AcDbEntity
  8
Detail
100
AcDbBlockReference
  2
B-67
 10
0.000000
 20
0.000000
 30
0.000000
 41
1.000000
 42
1.000000
 43
1.000000
 50
0.000000
  0
INSERT
  5
A2C
100
AcDbEntity
  8
L
100
AcDbBlockReference
  2
B-68
 10
0.000000
 20
0.000000
 30
0.000000
 41
1.000000
 42
1.000000
 43
1.000000
 50
0.000000
  0
INSERT
  5
A2D
100
AcDbEntity
  8
0
100
AcDbBlockReference
  2
B-69
 10
0.000000
 20
0.000000
 30
0.000000
 41
1.000000
 42
1.000000
 43
1.000000
 50
0.000000
  0
INSERT
  5
A2E
100
AcDbEntity
  8
Detail
100
AcDbBlockReference
  2
B-70
 10
0.000000
 20
0.000000
 30
0.000000
 41
1.000000
 42
1.000000
 43
1.000000
 50
0.000000
  0
INSERT
  5
A2F
100
AcDbEntity
  8
Detail
100
AcDbBlockReference
  2
B-71
 10
0.000000
 20
0.000000
 30
0.000000
 41
1.000000
 42
1.000000
 43
1.000000
 50
0.000000
  0
INSERT
  5
A30
100
AcDbEntity
  8
Detail
100
AcDbBlockReference
  2
B-72
 10
0.000000
 20
0.000000
 30
0.000000
 41
1.000000
 42
1.000000
 43
1.000000
 50
0.000000
  0
INSERT
  5
A31
100
AcDbEntity
  8
Detail
100
AcDbBlockReference
  2
B-73
 10
0.000000
 20
0.000000
 30
0.000000
 41
1.000000
 42
1.000000
 43
1.000000
 50
0.000000
  0
INSERT
  5
A32
100
AcDbEntity
  8
Detail
100
AcDbBlockReference
  2
B-74
 10
0.000000
 20
0.000000
 30
0.000000
 41
1.000000
 42
1.000000
 43
1.000000
 50
0.000000
  0
INSERT
  5
A33
100
AcDbEntity
  8
Detail
100
AcDbBlockReference
  2
B-75
 10
0.000000
 20
0.000000
 30
0.000000
 41
1.000000
 42
1.000000
 43
1.000000
 50
0.000000
  0
INSERT
  5
A34
100
AcDbEntity
  8
Detail
100
AcDbBlockReference
  2
B-76
 10
0.000000
 20
0.000000
 30
0.000000
 41
1.000000
 42
1.000000
 43
1.000000
 50
0.000000
  0
INSERT
  5
A35
100
AcDbEntity
  8
Detail
100
AcDbBlockReference
  2
B-77
 10
0.000000
 20
0.000000
 30
0.000000
 41
1.000000
 42
1.000000
 43
1.000000
 50
0.000000
  0
INSERT
  5
A36
100
AcDbEntity
  8
Detail
100
AcDbBlockReference
  2
B-78
 10
0.000000
 20
0.000000
 30
0.000000
 41
1.000000
 42
1.000000
 43
1.000000
 50
0.000000
  0
INSERT
  5
A37
100
AcDbEntity
  8
Detail
100
AcDbBlockReference
  2
B-79
 10
0.000000
 20
0.000000
 30
0.000000
 41
1.000000
 42
1.000000
 43
1.000000
 50
0.000000
  0
INSERT
  5
A38
100
AcDbEntity
  8
Detail
100
AcDbBlockReference
  2
B-80
 10
0.000000
 20
0.000000
 30
0.000000
 41
1.000000
 42
1.000000
 43
1.000000
 50
0.000000
  0
INSERT
  5
A39
100
AcDbEntity
  8
Detail
100
AcDbBlockReference
  2
B-82
 10
0.000000
 20
0.000000
 30
0.000000
 41
1.000000
 42
1.000000
 43
1.000000
 50
0.000000
  0
INSERT
  5
A3A
100
AcDbEntity
  8
Detail
100
AcDbBlockReference
  2
B-83
 10
0.000000
 20
0.000000
 30
0.000000
 41
1.000000
 42
1.000000
 43
1.000000
 50
0.000000
  0
INSERT
  5
A3B
100
AcDbEntity
  8
Detail
100
AcDbBlockReference
  2
B-84
 10
0.000000
 20
0.000000
 30
0.000000
 41
1.000000
 42
1.000000
 43
1.000000
 50
0.000000
  0
INSERT
  5
A3C
100
AcDbEntity
  8
Detail
100
AcDbBlockReference
  2
B-85
 10
0.000000
 20
0.000000
 30
0.000000
 41
1.000000
 42
1.000000
 43
1.000000
 50
0.000000
  0
INSERT
  5
A3D
100
AcDbEntity
  8
Detail
100
AcDbBlockReference
  2
B-86
 10
0.000000
 20
0.000000
 30
0.000000
 41
1.000000
 42
1.000000
 43
1.000000
 50
0.000000
  0
INSERT
  5
A3E
100
AcDbEntity
  8
Detail
100
AcDbBlockReference
  2
B-87
 10
0.000000
 20
0.000000
 30
0.000000
 41
1.000000
 42
1.000000
 43
1.000000
 50
0.000000
  0
INSERT
  5
A3F
100
AcDbEntity
  8
Detail
100
AcDbBlockReference
  2
B-88
 10
0.000000
 20
0.000000
 30
0.000000
 41
1.000000
 42
1.000000
 43
1.000000
 50
0.000000
  0
INSERT
  5
A40
100
AcDbEntity
  8
Detail
100
AcDbBlockReference
  2
B-89
 10
0.000000
 20
0.000000
 30
0.000000
 41
1.000000
 42
1.000000
 43
1.000000
 50
0.000000
  0
INSERT
  5
A41
100
AcDbEntity
  8
Detail
100
AcDbBlockReference
  2
B-90
 10
0.000000
 20
0.000000
 30
0.000000
 41
1.000000
 42
1.000000
 43
1.000000
 50
0.000000
  0
INSERT
  5
A42
100
AcDbEntity
  8
Detail
100
AcDbBlockReference
  2
B-91
 10
0.000000
 20
0.000000
 30
0.000000
 41
1.000000
 42
1.000000
 43
1.000000
 50
0.000000
  0
INSERT
  5
A43
100
AcDbEntity
  8
Detail
100
AcDbBlockReference
  2
B-92
 10
0.000000
 20
0.000000
 30
0.000000
 41
1.000000
 42
1.000000
 43
1.000000
 50
0.000000
  0
INSERT
  5
A44
100
AcDbEntity
  8
Detail
100
AcDbBlockReference
  2
B-93
 10
0.000000
 20
0.000000
 30
0.000000
 41
1.000000
 42
1.000000
 43
1.000000
 50
0.000000
  0
INSERT
  5
A45
100
AcDbEntity
  8
0
100
AcDbBlockReference
  2
B-95
 10
0.000000
 20
0.000000
 30
0.000000
 41
1.000000
 42
1.000000
 43
1.000000
 50
0.000000
  0
INSERT
  5
A46
100
AcDbEntity
  8
Detail
100
AcDbBlockReference
  2
B-96
 10
0.000000
 20
0.000000
 30
0.000000
 41
1.000000
 42
1.000000
 43
1.000000
 50
0.000000
  0
INSERT
  5
A47
100
AcDbEntity
  8
Detail
100
AcDbBlockReference
  2
B-97
 10
0.000000
 20
0.000000
 30
0.000000
 41
1.000000
 42
1.000000
 43
1.000000
 50
0.000000
  0
INSERT
  5
A48
100
AcDbEntity
  8
Detail
100
AcDbBlockReference
  2
B-98
 10
0.000000
 20
0.000000
 30
0.000000
 41
1.000000
 42
1.000000
 43
1.000000
 50
0.000000
  0
INSERT
  5
A49
100
AcDbEntity
  8
0
100
AcDbBlockReference
  2
B-99
 10
0.000000
 20
0.000000
 30
0.000000
 41
1.000000
 42
1.000000
 43
1.000000
 50
0.000000
  0
INSERT
  5
A4A
100
AcDbEntity
  8
Detail
100
AcDbBlockReference
  2
B-100
 10
0.000000
 20
0.000000
 30
0.000000
 41
1.000000
 42
1.000000
 43
1.000000
 50
0.000000
  0
INSERT
  5
A4B
100
AcDbEntity
  8
Detail
100
AcDbBlockReference
  2
B-101
 10
0.000000
 20
0.000000
 30
0.000000
 41
1.000000
 42
1.000000
 43
1.000000
 50
0.000000
  0
ENDSEC
  0
SECTION
  2
OBJECTS
  0
DICTIONARY
  5
C
330
0
100
AcDbDictionary
281
     1
  3
ACAD_COLOR
350
6B
  3
ACAD_GROUP
350
D
  3
ACAD_IMAGE_DICT
350
1E2
  3
ACAD_IMAGE_VARS
350
1E3
  3
ACAD_MATERIAL
350
6A
  3
ACAD_MLINESTYLE
350
17
  3
ACAD_PLOTSETTINGS
350
19
  3
ACAD_PLOTSTYLENAME
350
E
  3
ACAD_SCALELIST
350
10C
  3
ACAD_TABLESTYLE
350
7E
  3
ACAD_VISUALSTYLE
350
EF
  3
ACDB_RECOMPOSE_DATA
350
15D
  3
AcDbVariableDictionary
350
5E
  0
DICTIONARY
  5
13C
330
10
100
AcDbDictionary
280
     1
281
     1
  0
DICTIONARY
  5
203
330
202
100
AcDbDictionary
280
     1
281
     1
  0
DICTIONARY
  5
6B
102
{ACAD_REACTORS
330
C
102
}
330
C
100
AcDbDictionary
281
     1
  0
DICTIONARY
  5
D
102
{ACAD_REACTORS
330
C
102
}
330
C
100
AcDbDictionary
281
     1
  0
DICTIONARY
  5
1E2
102
{ACAD_REACTORS
330
C
102
}
330
C
100
AcDbDictionary
281
     1
  3
Kombinationsfassde_Systemübergang Innenecke mit Dehnfuge_10_1.tif
350
22B
  0
RASTERVARIABLES
  5
1E3
102
{ACAD_REACTORS
330
C
102
}
330
C
100
AcDbRasterVariables
 90
        0
 70
     1
 71
     1
 72
     1
  0
DICTIONARY
  5
6A
102
{ACAD_REACTORS
330
C
102
}
330
C
100
AcDbDictionary
281
     1
  3
ByBlock
350
ED
  3
ByLayer
350
EC
  3
Global
350
EE
  0
DICTIONARY
  5
12D
102
{ACAD_REACTORS
330
C
102
}
330
C
100
AcDbDictionary
281
     1
  3
Annotative
350
13B
  3
Standard
350
12E
  0
DICTIONARY
  5
17
102
{ACAD_REACTORS
330
C
102
}
330
C
100
AcDbDictionary
281
     1
  3
Standard
350
18
  0
DICTIONARY
  5
19
102
{ACAD_REACTORS
330
C
102
}
330
C
100
AcDbDictionary
281
     1
  0
ACDBDICTIONARYWDFLT
  5
E
102
{ACAD_REACTORS
330
C
102
}
330
C
100
AcDbDictionary
281
     1
  3
Normal
350
F
100
AcDbDictionaryWithDefault
340
F
  0
DICTIONARY
  5
10C
102
{ACAD_REACTORS
330
C
102
}
330
C
100
AcDbDictionary
281
     1
  3
A0
350
10D
  3
A1
350
1BE
  3
A2
350
1BF
  3
A3
350
1C0
  3
A4
350
1C1
  3
A5
350
1C2
  3
A6
350
1C3
  3
A7
350
1C4
  3
A8
350
1C5
  3
A9
350
1C6
  3
B0
350
1C7
  3
B1
350
1C8
  3
B2
350
1C9
  3
B3
350
1CA
  3
B4
350
1CB
  3
B5
350
1CC
  3
B6
350
1CD
  0
DICTIONARY
  5
7E
102
{ACAD_REACTORS
330
C
102
}
330
C
100
AcDbDictionary
281
     1
  3
Standard
350
7F
  0
DICTIONARY
  5
EF
102
{ACAD_REACTORS
330
C
102
}
330
C
100
AcDbDictionary
281
     1
  3
2dWireframe
350
F5
  3
3D Hidden
350
F7
  3
3dWireframe
350
F6
  3
Basic
350
F4
  3
Brighten
350
FB
  3
ColorChange
350
FF
  3
Conceptual
350
F8
  3
Dim
350
FA
  3
Facepattern
350
FE
  3
Flat
350
F0
  3
FlatWithEdges
350
F1
  3
Gouraud
350
F2
  3
GouraudWithEdges
350
F3
  3
Linepattern
350
FD
  3
Realistic
350
F9
  3
Thicken
350
FC
  0
XRECORD
  5
15D
102
{ACAD_REACTORS
330
C
102
}
330
C
100
AcDbXrecord
280
     1
 90
        1
330
7F
  0
DICTIONARY
  5
5E
102
{ACAD_REACTORS
330
C
102
}
330
C
100
AcDbDictionary
281
     1
  3
CANNOSCALE
350
146
  3
CMLEADERSTYLE
350
145
  3
CTABLESTYLE
350
84
  3
DIMASSOC
350
5F
  3
HIDETEXT
350
63
  3
LAYEREVAL
350
1AE
  3
LAYERNOTIFY
350
1AF
  0
MATERIAL
  5
ED
102
{ACAD_REACTORS
330
6A
102
}
330
6A
100
AcDbMaterial
  1
ByBlock
 94
       63
  0
MATERIAL
  5
EC
102
{ACAD_REACTORS
330
6A
102
}
330
6A
100
AcDbMaterial
  1
ByLayer
 94
       63
  0
MATERIAL
  5
EE
102
{ACAD_XDICTIONARY
360
173
102
}
102
{ACAD_REACTORS
330
6A
102
}
330
6A
100
AcDbMaterial
  1
Global
 43
0.0007999999797903
 43
0.0
 43
0.0
 43
0.0
 43
0.0
 43
0.0007999999797903
 43
0.0
 43
0.0
 43
0.0
 43
0.0
 43
1.0
 43
0.0
 43
0.0
 43
0.0
 43
0.0
 43
1.0
 49
0.0007999999797903
 49
0.0
 49
0.0
 49
0.0
 49
0.0
 49
0.0007999999797903
 49
0.0
 49
0.0
 49
0.0
 49
0.0
 49
1.0
 49
0.0
 49
0.0
 49
0.0
 49
0.0
 49
1.0
142
0.0007999999797903
142
0.0
142
0.0
142
0.0
142
0.0
142
0.0007999999797903
142
0.0
142
0.0
142
0.0
142
0.0
142
1.0
142
0.0
142
0.0
142
0.0
142
0.0
142
1.0
144
0.0007999999797903
144
0.0
144
0.0
144
0.0
144
0.0
144
0.0007999999797903
144
0.0
144
0.0
144
0.0
144
0.0
144
1.0
144
0.0
144
0.0
144
0.0
144
0.0
144
1.0
 94
       63
1001
ACAD
1070
    -1
1070
     3
1070
     0
1000

1071
        0
1070
     0
  0
MLINESTYLE
  5
18
102
{ACAD_REACTORS
330
17
102
}
330
17
100
AcDbMlineStyle
  2
STANDARD
 70
     0
  3

 62
   256
 51
90.0
 52
90.0
 71
     2
 49
0.5
 62
   256
  6
BYLAYER
 49
-0.5
 62
   256
  6
BYLAYER
  0
ACDBPLACEHOLDER
  5
F
102
{ACAD_REACTORS
330
E
102
}
330
E
  0
SCALE
  5
10D
102
{ACAD_REACTORS
330
10C
102
}
330
10C
100
AcDbScale
 70
     0
300
1:1
140
1.0
141
1.0
290
     1
  0
SCALE
  5
1BE
102
{ACAD_REACTORS
330
10C
102
}
330
10C
100
AcDbScale
 70
     0
300
1:2
140
1.0
141
2.0
290
     0
  0
SCALE
  5
1BF
102
{ACAD_REACTORS
330
10C
102
}
330
10C
100
AcDbScale
 70
     0
300
1:4
140
1.0
141
4.0
290
     0
  0
SCALE
  5
1C0
102
{ACAD_REACTORS
330
10C
102
}
330
10C
100
AcDbScale
 70
     0
300
1:5
140
1.0
141
5.0
290
     0
  0
SCALE
  5
1C1
102
{ACAD_REACTORS
330
10C
102
}
330
10C
100
AcDbScale
 70
     0
300
1:8
140
1.0
141
8.0
290
     0
  0
SCALE
  5
1C2
102
{ACAD_REACTORS
330
10C
102
}
330
10C
100
AcDbScale
 70
     0
300
1:10
140
1.0
141
10.0
290
     0
  0
SCALE
  5
1C3
102
{ACAD_REACTORS
330
10C
102
}
330
10C
100
AcDbScale
 70
     0
300
1:16
140
1.0
141
16.0
290
     0
  0
SCALE
  5
1C4
102
{ACAD_REACTORS
330
10C
102
}
330
10C
100
AcDbScale
 70
     0
300
1:20
140
1.0
141
20.0
290
     0
  0
SCALE
  5
1C5
102
{ACAD_REACTORS
330
10C
102
}
330
10C
100
AcDbScale
 70
     0
300
1:30
140
1.0
141
30.0
290
     0
  0
SCALE
  5
1C6
102
{ACAD_REACTORS
330
10C
102
}
330
10C
100
AcDbScale
 70
     0
300
1:40
140
1.0
141
40.0
290
     0
  0
SCALE
  5
1C7
102
{ACAD_REACTORS
330
10C
102
}
330
10C
100
AcDbScale
 70
     0
300
1:50
140
1.0
141
50.0
290
     0
  0
SCALE
  5
1C8
102
{ACAD_REACTORS
330
10C
102
}
330
10C
100
AcDbScale
 70
     0
300
1:100
140
1.0
141
100.0
290
     0
  0
SCALE
  5
1C9
102
{ACAD_REACTORS
330
10C
102
}
330
10C
100
AcDbScale
 70
     0
300
2:1
140
2.0
141
1.0
290
     0
  0
SCALE
  5
1CA
102
{ACAD_REACTORS
330
10C
102
}
330
10C
100
AcDbScale
 70
     0
300
4:1
140
4.0
141
1.0
290
     0
  0
SCALE
  5
1CB
102
{ACAD_REACTORS
330
10C
102
}
330
10C
100
AcDbScale
 70
     0
300
8:1
140
8.0
141
1.0
290
     0
  0
SCALE
  5
1CC
102
{ACAD_REACTORS
330
10C
102
}
330
10C
100
AcDbScale
 70
     0
300
10:1
140
10.0
141
1.0
290
     0
  0
SCALE
  5
1CD
102
{ACAD_REACTORS
330
10C
102
}
330
10C
100
AcDbScale
 70
     0
300
100:1
140
100.0
141
1.0
290
     0
  0
TABLESTYLE
  5
7F
102
{ACAD_XDICTIONARY
360
162
102
}
102
{ACAD_REACTORS
330
7E
102
}
330
7E
100
AcDbTableStyle
  3
Standard
 70
     0
 71
     0
 40
1.5
 41
1.5
280
     0
281
     0
  7
Standard
140
4.5
170
     2
 62
     0
 63
     7
283
     0
 90
      512
 91
        0
  1

274
    -2
284
     1
 64
     0
275
    -2
285
     1
 65
     0
276
    -2
286
     1
 66
     0
277
    -2
287
     1
 67
     0
278
    -2
288
     1
 68
     0
279
    -2
289
     1
 69
     0
  7
Standard
140
6.0
170
     5
 62
     0
 63
     7
283
     0
 90
      512
 91
        0
  1

274
    -2
284
     1
 64
     0
275
    -2
285
     1
 65
     0
276
    -2
286
     1
 66
     0
277
    -2
287
     1
 67
     0
278
    -2
288
     1
 68
     0
279
    -2
289
     1
 69
     0
  7
Standard
140
4.5
170
     5
 62
     0
 63
     7
283
     0
 90
      512
 91
        0
  1

274
    -2
284
     1
 64
     0
275
    -2
285
     1
 65
     0
276
    -2
286
     1
 66
     0
277
    -2
287
     1
 67
     0
278
    -2
288
     1
 68
     0
279
    -2
289
     1
 69
     0
  0
VISUALSTYLE
  5
F5
102
{ACAD_REACTORS
330
EF
102
}
330
EF
100
AcDbVisualStyle
  2
2dWireframe
 70
     4
 71
     0
 72
     2
 73
     1
 90
        0
 40
-0.6
 41
-30.0
 62
     5
 63
     7
421
 16777215
 74
     1
 91
        4
 64
     7
 65
   257
 75
     1
175
     1
 42
1.0
 92
        0
 66
   257
 43
1.0
 76
     1
 77
     6
 78
     2
 67
     7
 79
     5
170
     0
171
     0
290
     0
174
     0
 93
        1
 44
0.0
173
     0
291
     0
 45
0.0
  0
VISUALSTYLE
  5
F7
102
{ACAD_REACTORS
330
EF
102
}
330
EF
100
AcDbVisualStyle
  2
3D Hidden
 70
     6
 71
     1
 72
     2
 73
     2
 90
        0
 40
-0.6
 41
-30.0
 62
     5
 63
     7
421
 16777215
 74
     2
 91
        2
 64
     7
 65
   257
 75
     2
175
     1
 42
40.0
 92
        0
 66
   257
 43
1.0
 76
     1
 77
     6
 78
     2
 67
     7
 79
     3
170
     0
171
     0
290
     0
174
     0
 93
        1
 44
0.0
173
     0
291
     0
 45
0.0
  0
VISUALSTYLE
  5
F6
102
{ACAD_REACTORS
330
EF
102
}
330
EF
100
AcDbVisualStyle
  2
3dWireframe
 70
     5
 71
     0
 72
     2
 73
     1
 90
        0
 40
-0.6
 41
-30.0
 62
     5
 63
     7
421
 16777215
 74
     1
 91
        4
 64
     7
 65
   257
 75
     1
175
     1
 42
1.0
 92
        0
 66
   257
 43
1.0
 76
     1
 77
     6
 78
     2
 67
     7
 79
     5
170
     0
171
     0
290
     0
174
     0
 93
        1
 44
0.0
173
     0
291
     0
 45
0.0
  0
VISUALSTYLE
  5
F4
102
{ACAD_REACTORS
330
EF
102
}
330
EF
100
AcDbVisualStyle
  2
Basic
 70
     7
 71
     1
 72
     0
 73
     1
 90
        0
 40
-0.6
 41
-30.0
 62
     5
 63
     7
421
 16777215
 74
     0
 91
        4
 64
     7
 65
   257
 75
     1
175
     1
 42
1.0
 92
        8
 66
     7
 43
1.0
 76
     1
 77
     6
 78
     2
 67
     7
 79
     5
170
     0
171
     0
290
     0
174
     0
 93
        1
 44
0.0
173
     0
291
     1
 45
0.0
  0
VISUALSTYLE
  5
FB
102
{ACAD_REACTORS
330
EF
102
}
330
EF
100
AcDbVisualStyle
  2
Brighten
 70
    12
 71
     2
 72
     2
 73
     1
 90
        0
 40
-0.6
 41
-30.0
 62
     5
 63
     7
421
 16777215
 74
     1
 91
        4
 64
     7
 65
   257
 75
     1
175
     1
 42
1.0
 92
        8
 66
     7
 43
1.0
 76
     1
 77
     6
 78
     2
 67
     7
 79
     5
170
     0
171
     0
290
     0
174
     0
 93
        1
 44
50.0
173
     0
291
     1
 45
0.0
  0
VISUALSTYLE
  5
FF
102
{ACAD_REACTORS
330
EF
102
}
330
EF
100
AcDbVisualStyle
  2
ColorChange
 70
    16
 71
     2
 72
     2
 73
     3
 90
        0
 40
-0.6
 41
-30.0
 62
     5
 63
     8
421
  8421504
 74
     1
 91
        4
 64
     7
 65
   257
 75
     1
175
     1
 42
1.0
 92
        8
 66
     8
424
  8421504
 43
1.0
 76
     1
 77
     6
 78
     2
 67
     7
 79
     5
170
     0
171
     0
290
     0
174
     0
 93
        1
 44
0.0
173
     0
291
     1
 45
0.0
  0
VISUALSTYLE
  5
F8
102
{ACAD_REACTORS
330
EF
102
}
330
EF
100
AcDbVisualStyle
  2
Conceptual
 70
     9
 71
     3
 72
     2
 73
     1
 90
        0
 40
-0.6
 41
-30.0
 62
     5
 63
     7
421
 16777215
 74
     2
 91
        2
 64
     7
 65
   257
 75
     1
175
     1
 42
40.0
 92
        8
 66
     7
 43
1.0
 76
     1
 77
     6
 78
     2
 67
     7
 79
     3
170
     0
171
     0
290
     0
174
     0
 93
        1
 44
0.0
173
     0
291
     0
 45
0.0
  0
VISUALSTYLE
  5
FA
102
{ACAD_REACTORS
330
EF
102
}
330
EF
100
AcDbVisualStyle
  2
Dim
 70
    11
 71
     2
 72
     2
 73
     1
 90
        0
 40
-0.6
 41
-30.0
 62
     5
 63
     7
421
 16777215
 74
     1
 91
        4
 64
     7
 65
   257
 75
     1
175
     1
 42
1.0
 92
        8
 66
     7
 43
1.0
 76
     1
 77
     6
 78
     2
 67
     7
 79
     5
170
     0
171
     0
290
     0
174
     0
 93
        1
 44
-50.0
173
     0
291
     1
 45
0.0
  0
VISUALSTYLE
  5
FE
102
{ACAD_REACTORS
330
EF
102
}
330
EF
100
AcDbVisualStyle
  2
Facepattern
 70
    15
 71
     2
 72
     2
 73
     1
 90
        0
 40
-0.6
 41
-30.0
 62
     5
 63
     7
421
 16777215
 74
     1
 91
        4
 64
     7
 65
   257
 75
     1
175
     1
 42
1.0
 92
        8
 66
     7
 43
1.0
 76
     1
 77
     6
 78
     2
 67
     7
 79
     5
170
     0
171
     0
290
     0
174
     0
 93
        1
 44
0.0
173
     0
291
     1
 45
0.0
  0
VISUALSTYLE
  5
F0
102
{ACAD_REACTORS
330
EF
102
}
330
EF
100
AcDbVisualStyle
  2
Flat
 70
     0
 71
     2
 72
     1
 73
     1
 90
        2
 40
-0.6
 41
30.0
 62
     5
 63
     7
421
 16777215
 74
     0
 91
        4
 64
     7
 65
   257
 75
     1
175
     1
 42
1.0
 92
        8
 66
     7
 43
1.0
 76
     1
 77
     6
 78
     2
 67
     7
 79
     5
170
     0
171
     0
290
     0
174
     0
 93
        1
 44
0.0
173
     0
291
     1
 45
0.0
  0
VISUALSTYLE
  5
F1
102
{ACAD_REACTORS
330
EF
102
}
330
EF
100
AcDbVisualStyle
  2
FlatWithEdges
 70
     1
 71
     2
 72
     1
 73
     1
 90
        2
 40
-0.6
 41
30.0
 62
     5
 63
     7
421
 16777215
 74
     1
 91
        4
 64
     7
 65
   257
 75
     1
175
     1
 42
1.0
 92
        0
 66
   257
 43
1.0
 76
     1
 77
     6
 78
     2
 67
     7
 79
     5
170
     0
171
     0
290
     0
174
     0
 93
        1
 44
0.0
173
     0
291
     1
 45
0.0
  0
VISUALSTYLE
  5
F2
102
{ACAD_REACTORS
330
EF
102
}
330
EF
100
AcDbVisualStyle
  2
Gouraud
 70
     2
 71
     2
 72
     2
 73
     1
 90
        2
 40
-0.6
 41
30.0
 62
     5
 63
     7
421
 16777215
 74
     0
 91
        4
 64
     7
 65
   257
 75
     1
175
     1
 42
1.0
 92
        0
 66
     7
 43
1.0
 76
     1
 77
     6
 78
     2
 67
     7
 79
     5
170
     0
171
     0
290
     0
174
     0
 93
        1
 44
0.0
173
     0
291
     1
 45
0.0
  0
VISUALSTYLE
  5
F3
102
{ACAD_REACTORS
330
EF
102
}
330
EF
100
AcDbVisualStyle
  2
GouraudWithEdges
 70
     3
 71
     2
 72
     2
 73
     1
 90
        2
 40
-0.6
 41
30.0
 62
     5
 63
     7
421
 16777215
 74
     1
 91
        4
 64
     7
 65
   257
 75
     1
175
     1
 42
1.0
 92
        0
 66
   257
 43
1.0
 76
     1
 77
     6
 78
     2
 67
     7
 79
     5
170
     0
171
     0
290
     0
174
     0
 93
        1
 44
0.0
173
     0
291
     1
 45
0.0
  0
VISUALSTYLE
  5
FD
102
{ACAD_REACTORS
330
EF
102
}
330
EF
100
AcDbVisualStyle
  2
Linepattern
 70
    14
 71
     2
 72
     2
 73
     1
 90
        0
 40
-0.6
 41
-30.0
 62
     5
 63
     7
421
 16777215
 74
     1
 91
        4
 64
     7
 65
   257
 75
     7
175
     7
 42
1.0
 92
        8
 66
     7
 43
1.0
 76
     1
 77
     6
 78
     2
 67
     7
 79
     5
170
     0
171
     0
290
     0
174
     0
 93
        1
 44
0.0
173
     0
291
     1
 45
0.0
  0
VISUALSTYLE
  5
F9
102
{ACAD_REACTORS
330
EF
102
}
330
EF
100
AcDbVisualStyle
  2
Realistic
 70
     8
 71
     2
 72
     2
 73
     1
 90
        0
 40
-0.6
 41
-30.0
 62
     5
 63
     7
421
 16777215
 74
     1
 91
        0
 64
     7
 65
   257
 75
     1
175
     1
 42
1.0
 92
        8
 66
     8
424
  7895160
 43
1.0
 76
     1
 77
     6
 78
     2
 67
     7
 79
     5
170
     0
171
     0
290
     0
174
     0
 93
       13
 44
0.0
173
     0
291
     0
 45
0.0
  0
VISUALSTYLE
  5
FC
102
{ACAD_REACTORS
330
EF
102
}
330
EF
100
AcDbVisualStyle
  2
Thicken
 70
    13
 71
     2
 72
     2
 73
     1
 90
        0
 40
-0.6
 41
-30.0
 62
     5
 63
     7
421
 16777215
 74
     1
 91
        4
 64
     7
 65
   257
 75
     1
175
     1
 42
1.0
 92
       12
 66
     7
 43
1.0
 76
     1
 77
     6
 78
     2
 67
     7
 79
     5
170
     0
171
     0
290
     0
174
     0
 93
        1
 44
0.0
173
     0
291
     1
 45
0.0
  0
DICTIONARYVAR
  5
146
102
{ACAD_REACTORS
330
5E
102
}
330
5E
100
DictionaryVariables
280
     0
  1
1:1
  0
DICTIONARYVAR
  5
145
102
{ACAD_REACTORS
330
5E
102
}
330
5E
100
DictionaryVariables
280
     0
  1
STANDARD
  0
DICTIONARYVAR
  5
84
102
{ACAD_REACTORS
330
5E
102
}
330
5E
100
DictionaryVariables
280
     0
  1
STANDARD
  0
DICTIONARYVAR
  5
5F
102
{ACAD_REACTORS
330
5E
102
}
330
5E
100
DictionaryVariables
280
     0
  1
2
  0
DICTIONARYVAR
  5
63
102
{ACAD_REACTORS
330
5E
102
}
330
5E
100
DictionaryVariables
280
     0
  1
1
  0
DICTIONARYVAR
  5
1AE
102
{ACAD_REACTORS
330
5E
102
}
330
5E
100
DictionaryVariables
280
     0
  1
0
  0
DICTIONARYVAR
  5
1AF
102
{ACAD_REACTORS
330
5E
102
}
330
5E
100
DictionaryVariables
280
     0
  1
0
  0
DICTIONARY
  5
173
330
EE
100
AcDbDictionary
280
     1
281
     1
  3
BUMPTILE
360
175
  3
DIFFUSETILE
360
174
  3
OPACITYTILE
360
176
  3
REFLECTIONTILE
360
177
  0
DICTIONARY
  5
162
330
7F
100
AcDbDictionary
280
     1
281
     1
  3
ACAD_ROUNDTRIP_2008_TABLESTYLE_CELLSTYLEMAP
360
1E7
  0
XRECORD
  5
175
102
{ACAD_REACTORS
330
173
102
}
330
173
100
AcDbXrecord
280
     1
270
     1
271
     1
  0
XRECORD
  5
174
102
{ACAD_REACTORS
330
173
102
}
330
173
100
AcDbXrecord
280
     1
270
     1
271
     1
  0
XRECORD
  5
176
102
{ACAD_REACTORS
330
173
102
}
330
173
100
AcDbXrecord
280
     1
270
     1
271
     1
  0
XRECORD
  5
177
102
{ACAD_REACTORS
330
173
102
}
330
173
100
AcDbXrecord
280
     1
270
     1
271
     1
  0
CELLSTYLEMAP
  5
1E7
102
{ACAD_REACTORS
330
162
102
}
330
162
100
AcDbCellStyleMap
 90
        3
300
CELLSTYLE
  1
TABLEFORMAT_BEGIN
 90
        5
170
     1
 91
        0
 92
    32768
 62
   257
 93
        1
300
CONTENTFORMAT
  1
CONTENTFORMAT_BEGIN
 90
        0
 91
        0
 92
      512
 93
        0
300

 40
0.0
140
1.0
 94
        5
 62
     0
340
11
144
6.0
309
CONTENTFORMAT_END
171
     1
301
MARGIN
  1
CELLMARGIN_BEGIN
 40
1.5
 40
1.5
 40
1.5
 40
1.5
 40
4.5
 40
4.5
309
CELLMARGIN_END
 94
        6
 95
        1
302
GRIDFORMAT
  1
GRIDFORMAT_BEGIN
 90
        0
 91
        1
 62
     0
 92
       -2
340
77D
 93
        0
 40
1.125
309
GRIDFORMAT_END
 95
        2
302
GRIDFORMAT
  1
GRIDFORMAT_BEGIN
 90
        0
 91
        1
 62
     0
 92
       -2
340
77D
 93
        0
 40
1.125
309
GRIDFORMAT_END
 95
        4
302
GRIDFORMAT
  1
GRIDFORMAT_BEGIN
 90
        0
 91
        1
 62
     0
 92
       -2
340
77D
 93
        0
 40
1.125
309
GRIDFORMAT_END
 95
        8
302
GRIDFORMAT
  1
GRIDFORMAT_BEGIN
 90
        0
 91
        1
 62
     0
 92
       -2
340
77D
 93
        0
 40
1.125
309
GRIDFORMAT_END
 95
       16
302
GRIDFORMAT
  1
GRIDFORMAT_BEGIN
 90
        0
 91
        1
 62
     0
 92
       -2
340
77D
 93
        0
 40
1.125
309
GRIDFORMAT_END
 95
       32
302
GRIDFORMAT
  1
GRIDFORMAT_BEGIN
 90
        0
 91
        1
 62
     0
 92
       -2
340
77D
 93
        0
 40
1.125
309
GRIDFORMAT_END
309
TABLEFORMAT_END
  1
CELLSTYLE_BEGIN
 90
        1
 91
        1
300
_TITLE
309
CELLSTYLE_END
300
CELLSTYLE
  1
TABLEFORMAT_BEGIN
 90
        5
170
     1
 91
        0
 92
        0
 62
   257
 93
        1
300
CONTENTFORMAT
  1
CONTENTFORMAT_BEGIN
 90
        0
 91
        0
 92
      512
 93
        0
300

 40
0.0
140
1.0
 94
        5
 62
     0
340
11
144
4.5
309
CONTENTFORMAT_END
171
     1
301
MARGIN
  1
CELLMARGIN_BEGIN
 40
1.5
 40
1.5
 40
1.5
 40
1.5
 40
4.5
 40
4.5
309
CELLMARGIN_END
 94
        6
 95
        1
302
GRIDFORMAT
  1
GRIDFORMAT_BEGIN
 90
        0
 91
        1
 62
     0
 92
       -2
340
77D
 93
        0
 40
1.125
309
GRIDFORMAT_END
 95
        2
302
GRIDFORMAT
  1
GRIDFORMAT_BEGIN
 90
        0
 91
        1
 62
     0
 92
       -2
340
77D
 93
        0
 40
1.125
309
GRIDFORMAT_END
 95
        4
302
GRIDFORMAT
  1
GRIDFORMAT_BEGIN
 90
        0
 91
        1
 62
     0
 92
       -2
340
77D
 93
        0
 40
1.125
309
GRIDFORMAT_END
 95
        8
302
GRIDFORMAT
  1
GRIDFORMAT_BEGIN
 90
        0
 91
        1
 62
     0
 92
       -2
340
77D
 93
        0
 40
1.125
309
GRIDFORMAT_END
 95
       16
302
GRIDFORMAT
  1
GRIDFORMAT_BEGIN
 90
        0
 91
        1
 62
     0
 92
       -2
340
77D
 93
        0
 40
1.125
309
GRIDFORMAT_END
 95
       32
302
GRIDFORMAT
  1
GRIDFORMAT_BEGIN
 90
        0
 91
        1
 62
     0
 92
       -2
340
77D
 93
        0
 40
1.125
309
GRIDFORMAT_END
309
TABLEFORMAT_END
  1
CELLSTYLE_BEGIN
 90
        2
 91
        1
300
_HEADER
309
CELLSTYLE_END
300
CELLSTYLE
  1
TABLEFORMAT_BEGIN
 90
        5
170
     1
 91
        0
 92
        0
 62
   257
 93
        1
300
CONTENTFORMAT
  1
CONTENTFORMAT_BEGIN
 90
        0
 91
        0
 92
      512
 93
        0
300

 40
0.0
140
1.0
 94
        2
 62
     0
340
11
144
4.5
309
CONTENTFORMAT_END
171
     1
301
MARGIN
  1
CELLMARGIN_BEGIN
 40
1.5
 40
1.5
 40
1.5
 40
1.5
 40
4.5
 40
4.5
309
CELLMARGIN_END
 94
        6
 95
        1
302
GRIDFORMAT
  1
GRIDFORMAT_BEGIN
 90
        0
 91
        1
 62
     0
 92
       -2
340
77D
 93
        0
 40
1.125
309
GRIDFORMAT_END
 95
        2
302
GRIDFORMAT
  1
GRIDFORMAT_BEGIN
 90
        0
 91
        1
 62
     0
 92
       -2
340
77D
 93
        0
 40
1.125
309
GRIDFORMAT_END
 95
        4
302
GRIDFORMAT
  1
GRIDFORMAT_BEGIN
 90
        0
 91
        1
 62
     0
 92
       -2
340
77D
 93
        0
 40
1.125
309
GRIDFORMAT_END
 95
        8
302
GRIDFORMAT
  1
GRIDFORMAT_BEGIN
 90
        0
 91
        1
 62
     0
 92
       -2
340
77D
 93
        0
 40
1.125
309
GRIDFORMAT_END
 95
       16
302
GRIDFORMAT
  1
GRIDFORMAT_BEGIN
 90
        0
 91
        1
 62
     0
 92
       -2
340
77D
 93
        0
 40
1.125
309
GRIDFORMAT_END
 95
       32
302
GRIDFORMAT
  1
GRIDFORMAT_BEGIN
 90
        0
 91
        1
 62
     0
 92
       -2
340
77D
 93
        0
 40
1.125
309
GRIDFORMAT_END
309
TABLEFORMAT_END
  1
CELLSTYLE_BEGIN
 90
        3
 91
        2
300
_DATA
309
CELLSTYLE_END
  0
IMAGEDEF_REACTOR
  5
22C
330
22A
100
AcDbRasterImageDefReactor
 90
     2
330
22A
  0
IMAGEDEF
  5
22B
102
{ACAD_REACTORS
330
5E
330
22C
102
}
330
5E
100
AcDbRasterImageDef
 90
     0
  1
Kombinationsfassde_Systemübergang Innenecke mit Dehnfuge_10_1.tif
 10
395.000000
 20
405.000000
 11
0.002532
 21
0.002469
280
     1
281
     0
  0
ENDSEC
  0
EOF
