  0
SECTION
  2
HEADER
  9
$ACADVER
  1
AC1024
  9
$ACADMAINTVER
 70
     6
  9
$DWGCODEPAGE
  3
ANSI_1252
  9
$INSBASE
 10
0.0
 20
0.0
 30
0.0
  9
$EXTMIN
 10
-262.500018
 20
-371.249941
 30
0.000000
  9
$EXTMAX
 10
237.500023
 20
346.250078
 30
0.000000
  9
$LIMMIN
 10
0.0
 20
0.0
  9
$LIMMAX
 10
420.0
 20
297.0
  9
$ORTHOMODE
 70
     0
  9
$REGENMODE
 70
     1
  9
$FILLMODE
 70
     1
  9
$QTEXTMODE
 70
     0
  9
$MIRRTEXT
 70
     0
  9
$LTSCALE
 40
25.000000
  9
$ATTMODE
 70
     1
  9
$TEXTSIZE
 40
2.5
  9
$TRACEWID
 40
1.0
  9
$TEXTSTYLE
  7
Standard
  9
$CLAYER
  8
0
  9
$CELTYPE
  6
ByLayer
  9
$CECOLOR
 62
   256
  9
$CELTSCALE
 40
1.0
  9
$DISPSILH
 70
     0
  9
$DIMSCALE
 40
1.0
  9
$DIMASZ
 40
2.5
  9
$DIMEXO
 40
0.625
  9
$DIMDLI
 40
3.75
  9
$DIMRND
 40
0.0
  9
$DIMDLE
 40
0.0
  9
$DIMEXE
 40
1.25
  9
$DIMTP
 40
0.0
  9
$DIMTM
 40
0.0
  9
$DIMTXT
 40
2.5
  9
$DIMCEN
 40
2.5
  9
$DIMTSZ
 40
0.0
  9
$DIMTOL
 70
     0
  9
$DIMLIM
 70
     0
  9
$DIMTIH
 70
     0
  9
$DIMTOH
 70
     0
  9
$DIMSE1
 70
     0
  9
$DIMSE2
 70
     0
  9
$DIMTAD
 70
     1
  9
$DIMZIN
 70
     8
  9
$DIMBLK
  1

  9
$DIMASO
 70
     1
  9
$DIMSHO
 70
     1
  9
$DIMPOST
  1

  9
$DIMAPOST
  1

  9
$DIMALT
 70
     0
  9
$DIMALTD
 70
     3
  9
$DIMALTF
 40
0.03937007874016
  9
$DIMLFAC
 40
1.0
  9
$DIMTOFL
 70
     1
  9
$DIMTVP
 40
0.0
  9
$DIMTIX
 70
     0
  9
$DIMSOXD
 70
     0
  9
$DIMSAH
 70
     0
  9
$DIMBLK1
  1

  9
$DIMBLK2
  1

  9
$DIMSTYLE
  2
ISO-25
  9
$DIMCLRD
 70
     0
  9
$DIMCLRE
 70
     0
  9
$DIMCLRT
 70
     0
  9
$DIMTFAC
 40
1.0
  9
$DIMGAP
 40
0.625
  9
$DIMJUST
 70
     0
  9
$DIMSD1
 70
     0
  9
$DIMSD2
 70
     0
  9
$DIMTOLJ
 70
     0
  9
$DIMTZIN
 70
     8
  9
$DIMALTZ
 70
     0
  9
$DIMALTTZ
 70
     0
  9
$DIMUPT
 70
     0
  9
$DIMDEC
 70
     2
  9
$DIMTDEC
 70
     2
  9
$DIMALTU
 70
     2
  9
$DIMALTTD
 70
     3
  9
$DIMTXSTY
  7
Standard
  9
$DIMAUNIT
 70
     0
  9
$DIMADEC
 70
     0
  9
$DIMALTRND
 40
0.0
  9
$DIMAZIN
 70
     0
  9
$DIMDSEP
 70
    44
  9
$DIMATFIT
 70
     3
  9
$DIMFRAC
 70
     0
  9
$DIMLDRBLK
  1

  9
$DIMLUNIT
 70
     2
  9
$DIMLWD
 70
    -2
  9
$DIMLWE
 70
    -2
  9
$DIMTMOVE
 70
     0
  9
$DIMFXL
 40
1.0
  9
$DIMFXLON
 70
     0
  9
$DIMJOGANG
 40
0.7853981633974483
  9
$DIMTFILL
 70
     0
  9
$DIMTFILLCLR
 70
     0
  9
$DIMARCSYM
 70
     0
  9
$DIMLTYPE
  6

  9
$DIMLTEX1
  6

  9
$DIMLTEX2
  6

  9
$DIMTXTDIRECTION
 70
     0
  9
$LUNITS
 70
     2
  9
$LUPREC
 70
     4
  9
$SKETCHINC
 40
1.0
  9
$FILLETRAD
 40
10.0
  9
$AUNITS
 70
     0
  9
$AUPREC
 70
     0
  9
$MENU
  1
.
  9
$ELEVATION
 40
0.0
  9
$PELEVATION
 40
0.0
  9
$THICKNESS
 40
0.0
  9
$LIMCHECK
 70
     0
  9
$CHAMFERA
 40
10.0
  9
$CHAMFERB
 40
10.0
  9
$CHAMFERC
 40
20.0
  9
$CHAMFERD
 40
0.0
  9
$SKPOLY
 70
     0
  9
$TDCREATE
 40
2452006.439837951
  9
$TDUCREATE
 40
2452006.356504618
  9
$TDUPDATE
 40
2452006.439963946
  9
$TDUUPDATE
 40
2452006.356630613
  9
$TDINDWG
 40
0.0001273843
  9
$TDUSRTIMER
 40
0.0001272685
  9
$USRTIMER
 70
     1
  9
$ANGBASE
 50
0.0
  9
$ANGDIR
 70
     0
  9
$PDMODE
 70
     0
  9
$PDSIZE
 40
0.0
  9
$PLINEWID
 40
0.0
  9
$SPLFRAME
 70
     0
  9
$SPLINETYPE
 70
     6
  9
$SPLINESEGS
 70
     8
  9
$HANDSEED
  5
7CE
  9
$SURFTAB1
 70
     6
  9
$SURFTAB2
 70
     6
  9
$SURFTYPE
 70
     6
  9
$SURFU
 70
     6
  9
$SURFV
 70
     6
  9
$UCSBASE
  2

  9
$UCSNAME
  2

  9
$UCSORG
 10
0.0
 20
0.0
 30
0.0
  9
$UCSXDIR
 10
1.0
 20
0.0
 30
0.0
  9
$UCSYDIR
 10
0.0
 20
1.0
 30
0.0
  9
$UCSORTHOREF
  2

  9
$UCSORTHOVIEW
 70
     0
  9
$UCSORGTOP
 10
0.0
 20
0.0
 30
0.0
  9
$UCSORGBOTTOM
 10
0.0
 20
0.0
 30
0.0
  9
$UCSORGLEFT
 10
0.0
 20
0.0
 30
0.0
  9
$UCSORGRIGHT
 10
0.0
 20
0.0
 30
0.0
  9
$UCSORGFRONT
 10
0.0
 20
0.0
 30
0.0
  9
$UCSORGBACK
 10
0.0
 20
0.0
 30
0.0
  9
$PUCSBASE
  2

  9
$PUCSNAME
  2

  9
$PUCSORG
 10
0.0
 20
0.0
 30
0.0
  9
$PUCSXDIR
 10
1.0
 20
0.0
 30
0.0
  9
$PUCSYDIR
 10
0.0
 20
1.0
 30
0.0
  9
$PUCSORTHOREF
  2

  9
$PUCSORTHOVIEW
 70
     0
  9
$PUCSORGTOP
 10
0.0
 20
0.0
 30
0.0
  9
$PUCSORGBOTTOM
 10
0.0
 20
0.0
 30
0.0
  9
$PUCSORGLEFT
 10
0.0
 20
0.0
 30
0.0
  9
$PUCSORGRIGHT
 10
0.0
 20
0.0
 30
0.0
  9
$PUCSORGFRONT
 10
0.0
 20
0.0
 30
0.0
  9
$PUCSORGBACK
 10
0.0
 20
0.0
 30
0.0
  9
$USERI1
 70
     0
  9
$USERI2
 70
     0
  9
$USERI3
 70
     0
  9
$USERI4
 70
     0
  9
$USERI5
 70
     0
  9
$USERR1
 40
0.0
  9
$USERR2
 40
0.0
  9
$USERR3
 40
0.0
  9
$USERR4
 40
0.0
  9
$USERR5
 40
0.0
  9
$WORLDVIEW
 70
     1
  9
$SHADEDGE
 70
     3
  9
$SHADEDIF
 70
    70
  9
$TILEMODE
 70
     1
  9
$MAXACTVP
 70
    64
  9
$PINSBASE
 10
0.0
 20
0.0
 30
0.0
  9
$PLIMCHECK
 70
     0
  9
$PEXTMIN
 10
1.000000000000000E+20
 20
1.000000000000000E+20
 30
1.000000000000000E+20
  9
$PEXTMAX
 10
-1.000000000000000E+20
 20
-1.000000000000000E+20
 30
-1.000000000000000E+20
  9
$PLIMMIN
 10
0.0
 20
0.0
  9
$PLIMMAX
 10
420.0
 20
297.0
  9
$UNITMODE
 70
     0
  9
$VISRETAIN
 70
     1
  9
$PLINEGEN
 70
     0
  9
$PSLTSCALE
 70
     1
  9
$TREEDEPTH
 70
  3020
  9
$CMLSTYLE
  2
Standard
  9
$CMLJUST
 70
     0
  9
$CMLSCALE
 40
20.0
  9
$PROXYGRAPHICS
 70
     1
  9
$MEASUREMENT
 70
     1
  9
$CELWEIGHT
370
    -1
  9
$ENDCAPS
280
     0
  9
$JOINSTYLE
280
     0
  9
$LWDISPLAY
290
     0
  9
$INSUNITS
 70
     4
  9
$HYPERLINKBASE
  1

  9
$STYLESHEET
  1

  9
$XEDIT
290
     1
  9
$CEPSNTYPE
380
     0
  9
$PSTYLEMODE
290
     1
  9
$FINGERPRINTGUID
  2

  9
$VERSIONGUID
  2

  9
$EXTNAMES
290
     1
  9
$PSVPSCALE
 40
0.0
  9
$OLESTARTUP
290
     0
  9
$SORTENTS
280
   127
  9
$INDEXCTL
280
     0
  9
$HIDETEXT
280
     1
  9
$XCLIPFRAME
280
     2
  9
$HALOGAP
280
     0
  9
$OBSCOLOR
 70
   257
  9
$OBSLTYPE
280
     0
  9
$INTERSECTIONDISPLAY
280
     0
  9
$INTERSECTIONCOLOR
 70
   257
  9
$DIMASSOC
280
     2
  9
$PROJECTNAME
  1

  9
$CAMERADISPLAY
290
     0
  9
$LENSLENGTH
 40
50.0
  9
$CAMERAHEIGHT
 40
0.0
  9
$STEPSPERSEC
 40
2.0
  9
$STEPSIZE
 40
6.0
  9
$3DDWFPREC
 40
2.0
  9
$PSOLWIDTH
 40
5.0
  9
$PSOLHEIGHT
 40
80.0
  9
$LOFTANG1
 40
1.570796326794896
  9
$LOFTANG2
 40
1.570796326794896
  9
$LOFTMAG1
 40
0.0
  9
$LOFTMAG2
 40
0.0
  9
$LOFTPARAM
 70
     7
  9
$LOFTNORMALS
280
     1
  9
$LATITUDE
 40
37.795
  9
$LONGITUDE
 40
-122.394
  9
$NORTHDIRECTION
 40
0.0
  9
$TIMEZONE
 70
 -8000
  9
$LIGHTGLYPHDISPLAY
280
     1
  9
$TILEMODELIGHTSYNCH
280
     1
  9
$CMATERIAL
347
EC
  9
$SOLIDHIST
280
     1
  9
$SHOWHIST
280
     1
  9
$DWFFRAME
280
     2
  9
$DGNFRAME
280
     0
  9
$REALWORLDSCALE
290
     1
  9
$INTERFERECOLOR
 62
     1
  9
$INTERFEREOBJVS
345
F9
  9
$INTERFEREVPVS
346
F6
  9
$CSHADOW
280
     0
  9
$SHADOWPLANELOCATION
 40
0.0
  0
ENDSEC
  0
SECTION
  2
CLASSES
  0
CLASS
  1
ACDBDICTIONARYWDFLT
  2
AcDbDictionaryWithDefault
  3
ObjectDBX Classes
 90
        0
 91
        1
280
     0
281
     0
  0
CLASS
  1
ACDBPLACEHOLDER
  2
AcDbPlaceHolder
  3
ObjectDBX Classes
 90
        0
 91
        1
280
     0
281
     0
  0
CLASS
  1
LAYOUT
  2
AcDbLayout
  3
ObjectDBX Classes
 90
        0
 91
        2
280
     0
281
     0
  0
CLASS
  1
DICTIONARYVAR
  2
AcDbDictionaryVar
  3
ObjectDBX Classes
 90
        0
 91
        7
280
     0
281
     0
  0
CLASS
  1
TABLESTYLE
  2
AcDbTableStyle
  3
ObjectDBX Classes
 90
     4095
 91
        1
280
     0
281
     0
  0
CLASS
  1
MATERIAL
  2
AcDbMaterial
  3
ObjectDBX Classes
 90
     1153
 91
        3
280
     0
281
     0
  0
CLASS
  1
VISUALSTYLE
  2
AcDbVisualStyle
  3
ObjectDBX Classes
 90
     4095
 91
       16
280
     0
281
     0
  0
CLASS
  1
SCALE
  2
AcDbScale
  3
ObjectDBX Classes
 90
     1153
 91
       17
280
     0
281
     0
  0
CLASS
  1
MLEADERSTYLE
  2
AcDbMLeaderStyle
  3
ACDB_MLEADERSTYLE_CLASS
 90
     4095
 91
        1
280
     0
281
     0
  0
CLASS
  1
CELLSTYLEMAP
  2
AcDbCellStyleMap
  3
ObjectDBX Classes
 90
     1152
 91
        2
280
     0
281
     0
  0
CLASS
  1
EXACXREFPANELOBJECT
  2
ExAcXREFPanelObject
  3
EXAC_ESW
 90
    33793
 91
        0
280
     0
281
     0
  0
CLASS
  1
NPOCOLLECTION
  2
AcDbImpNonPersistentObjectsCollection
  3
ObjectDBX Classes
 90
     1153
 91
        0
280
     0
281
     0
  0
CLASS
  1
LAYER_INDEX
  2
AcDbLayerIndex
  3
ObjectDBX Classes
 90
        0
 91
        0
280
     0
281
     0
  0
CLASS
  1
SPATIAL_INDEX
  2
AcDbSpatialIndex
  3
ObjectDBX Classes
 90
        0
 91
        0
280
     0
281
     0
  0
CLASS
  1
IDBUFFER
  2
AcDbIdBuffer
  3
ObjectDBX Classes
 90
        0
 91
        0
280
     0
281
     0
  0
CLASS
  1
RASTERVARIABLES
  2
AcDbRasterVariables
  3
ISM
 90
        0
 91
        2
280
     0
281
     0
  0
CLASS
  1
IMAGEDEF
  2
AcDbRasterImageDef
  3
ISM
 90
        0
 91
        5
280
     0
281
     0
  0
CLASS
  1
IMAGEDEF_REACTOR
  2
AcDbRasterImageDefReactor
  3
ISM
 90
        1
 91
        5
280
     0
281
     0
  0
CLASS
  1
IMAGE
  2
AcDbRasterImage
  3
ISM
 90
     2175
 91
        5
280
     0
281
     1
  0
CLASS
  1
LWPOLYLINE
  2
AcDbPolyline
  3
ObjectDBX Classes
 90
        0
 91
        0
280
     0
281
     1
  0
CLASS
  1
OLE2FRAME
  2
AcDbOle2Frame
  3
ObjectDBX Classes
 90
        0
 91
        0
280
     0
281
     1
  0
CLASS
  1
HATCH
  2
AcDbHatch
  3
ObjectDBX Classes
 90
        0
 91
        0
280
     0
281
     1
  0
CLASS
  1
XRECORD
  2
AcDbXrecord
  3
ObjectDBX Classes
 90
        0
 91
        9
280
     0
281
     0
  0
CLASS
  1
SORTENTSTABLE
  2
AcDbSortentsTable
  3
ObjectDBX Classes
 90
        0
 91
        0
280
     0
281
     0
  0
CLASS
  1
OBJECT_PTR
  2
CAseDLPNTableRecord
  3
"ASE-LPNTableRecord"
 90
    32769
 91
        0
280
     0
281
     0
  0
CLASS
  1
PLOTSETTINGS
  2
AcDbPlotSettings
  3
ObjectDBX Classes
 90
        0
 91
        0
280
     0
281
     0
  0
CLASS
  1
VBA_PROJECT
  2
AcDbVbaProject
  3
acad
 90
        0
 91
        0
280
     0
281
     0
  0
CLASS
  1
WIPEOUT
  2
AcDbWipeout
  3
WipeOut|AutoCAD Express Tool|expresstools@autodesk.com
 90
    32895
 91
        0
280
     0
281
     1
  0
CLASS
  1
WIPEOUTVARIABLES
  2
AcDbWipeoutVariables
  3
WipeOut|AutoCAD Express Tool|expresstools@autodesk.com
 90
    32768
 91
        0
280
     0
281
     0
  0
CLASS
  1
RTEXT
  2
RText
  3
RText|AutoCAD Express Tool|expresstools@autodesk.com
 90
    32768
 91
        0
280
     0
281
     1
  0
CLASS
  1
ARCALIGNEDTEXT
  2
AcDbArcAlignedText
  3
ATEXT|AutoCAD Express Tool|expresstools@autodesk.com
 90
    32768
 91
        0
280
     0
281
     1
  0
ENDSEC
  0
SECTION
  2
TABLES
  0
TABLE
  2
VPORT
  5
755
100
AcDbSymbolTable
 70
     1
  0
VPORT
  5
756
100
AcDbSymbolTableRecord
100
AcDbViewportTableRecord
  2
*ACTIVE
 70
     0
 10
0.000000
 20
0.000000
 11
1.000000
 21
1.000000
 12
50.000000
 22
50.000000
 13
0.000000
 23
0.000000
 14
1.000000
 24
1.000000
 15
10.000000
 25
10.000000
 16
0.000000
 26
0.000000
 36
1.000000
 17
0.000000
 27
0.000000
 37
0.000000
 40
100.000000
 41
1.387409
 42
50.000000
 43
0.000000
 44
0.000000
 50
0.000000
 51
0.000000
 71
     0
 72
   100
 73
     1
 74
     1
 75
     0
 76
     0
 77
     0
 78
     0
  0
ENDTAB
  0
TABLE
  2
LTYPE
  5
757
330
0
100
AcDbSymbolTable
 70
     9
  0
LTYPE
  5
758
330
757
100
AcDbSymbolTableRecord
100
AcDbLinetypeTableRecord
  2
ByBlock
 70
     0
  3

 72
    65
 73
     0
 40
0.000000
  0
LTYPE
  5
759
330
757
100
AcDbSymbolTableRecord
100
AcDbLinetypeTableRecord
  2
ByLayer
 70
     0
  3

 72
    65
 73
     0
 40
0.000000
  0
LTYPE
  5
75A
330
757
100
AcDbSymbolTableRecord
100
AcDbLinetypeTableRecord
  2
CONTINUOUS
 70
     0
  3
Solid line
 72
    65
 73
     0
 40
0.000000
  0
LTYPE
  5
75B
330
757
100
AcDbSymbolTableRecord
100
AcDbLinetypeTableRecord
  2
HIDDEN
 70
     0
  3
_ _ _ _ _ _ _ _ _ _ _ _ _ _ _ _ _ _ _ _ _ _ _
 72
    65
 73
     2
 40
0.375000
 49
0.250000
 74
     0
 49
-0.125000
 74
     0
  0
LTYPE
  5
75C
330
757
100
AcDbSymbolTableRecord
100
AcDbLinetypeTableRecord
  2
DOT
 70
     0
  3
...............................................
 72
    65
 73
     2
 40
0.250000
 49
0.000000
 74
     0
 49
-0.250000
 74
     0
  0
LTYPE
  5
75D
330
757
100
AcDbSymbolTableRecord
100
AcDbLinetypeTableRecord
  2
DASHED
 70
     0
  3
__ __ __ __ __ __ __ __ __ __ __ __ __ __ __ 
 72
    65
 73
     2
 40
0.750000
 49
0.500000
 74
     0
 49
-0.250000
 74
     0
  0
LTYPE
  5
75E
330
757
100
AcDbSymbolTableRecord
100
AcDbLinetypeTableRecord
  2
DIVIDE
 70
     0
  3
__ . . __ . . __ . . __ . . __ . . __ . . __
 72
    65
 73
     6
 40
1.250000
 49
0.500000
 74
     0
 49
-0.250000
 74
     0
 49
0.000000
 74
     0
 49
-0.250000
 74
     0
 49
0.000000
 74
     0
 49
-0.250000
 74
     0
  0
LTYPE
  5
75F
330
757
100
AcDbSymbolTableRecord
100
AcDbLinetypeTableRecord
  2
DASHDOT
 70
     0
  3
__ . __ . __ . __ . __ . __ . __ . __ . __ . __
 72
    65
 73
     4
 40
1.000000
 49
0.500000
 74
     0
 49
-0.250000
 74
     0
 49
0.000000
 74
     0
 49
-0.250000
 74
     0
  0
LTYPE
  5
760
330
757
100
AcDbSymbolTableRecord
100
AcDbLinetypeTableRecord
  2
BORDER
 70
     0
  3
__ __ . __ __ . __ __ . __ __ . __ __ . __ __
 72
    65
 73
     6
 40
1.750000
 49
0.500000
 74
     0
 49
-0.250000
 74
     0
 49
0.500000
 74
     0
 49
-0.250000
 74
     0
 49
0.000000
 74
     0
 49
-0.250000
 74
     0
  0
LTYPE
  5
761
330
757
100
AcDbSymbolTableRecord
100
AcDbLinetypeTableRecord
  2
CENTER
 70
     0
  3
____ _ ____ _ ____ _ ____ _ ____ _ ____ _ ____
 72
    65
 73
     4
 40
2.000000
 49
1.250000
 74
     0
 49
-0.250000
 74
     0
 49
0.250000
 74
     0
 49
-0.250000
 74
     0
  0
LTYPE
  5
762
330
757
100
AcDbSymbolTableRecord
100
AcDbLinetypeTableRecord
  2
PHANTOM
 70
     0
  3
_____ _ _ _____ _ _ _____ _ _ _____ _ _ ____
 72
    65
 73
     6
 40
2.500000
 49
1.250000
 74
     0
 49
-0.250000
 74
     0
 49
0.250000
 74
     0
 49
-0.250000
 74
     0
 49
0.250000
 74
     0
 49
-0.250000
 74
     0
  0
ENDTAB
  0
TABLE
  2
LAYER
  5
763
100
AcDbSymbolTable
 70
     3
  0
LAYER
  5
764
100
AcDbSymbolTableRecord
100
AcDbLayerTableRecord
  2
0
 70
     0
 62
     7
  6
CONTINUOUS
370
    -3
390
     0
  0
LAYER
  5
765
100
AcDbSymbolTableRecord
100
AcDbLayerTableRecord
  2
SCHRAFF
 70
     0
 62
     7
  6
CONTINUOUS
370
    -3
390
     0
  0
LAYER
  5
766
100
AcDbSymbolTableRecord
100
AcDbLayerTableRecord
  2
Detail
 70
     0
 62
     7
  6
CONTINUOUS
370
    -3
390
     0
  0
ENDTAB
  0
TABLE
  2
STYLE
  5
767
100
AcDbSymbolTable
 70
     2
  0
STYLE
  5
201
100
AcDbSymbolTableRecord
100
AcDbTextStyleTableRecord
  2
STANDARD
 70
     0
 40
0.000000
 41
1.000000
 50
0.000000
 71
     0
 42
3.500000
  3
txt
  4

  0
STYLE
  5
2FD
100
AcDbSymbolTableRecord
100
AcDbTextStyleTableRecord
  2
Arial
 70
     0
 40
0.000000
 41
1.000000
 50
0.000000
 71
     0
 42
3.500000
  3
Arial.ttf
  4

1001
ACAD
1000
Arial
1071
     0
  0
ENDTAB
  0
TABLE
  2
DIMSTYLE
  5
768
100
AcDbSymbolTable
 70
     0
100
AcDbDimStyleTable
  0
ENDTAB
  0
TABLE
  2
VIEW
  5
769
100
AcDbSymbolTable
 70
     0
  0
ENDTAB
  0
TABLE
  2
UCS
  5
76A
100
AcDbSymbolTable
 70
     0
  0
ENDTAB
  0
TABLE
  2
APPID
  5
76B
100
AcDbSymbolTable
 70
     1
  0
APPID
  5
76C
100
AcDbSymbolTableRecord
100
AcDbRegAppTableRecord
  2
ACAD
 70
     0
  0
ENDTAB
  0
TABLE
  2
BLOCK_RECORD
  5
76D
100
AcDbSymbolTable
 70
    97
  0
BLOCK_RECORD
  5
202
102
{ACAD_XDICTIONARY
360
203
102
}
100
AcDbSymbolTableRecord
100
AcDbBlockTableRecord
  2
*Model_Space
  0
BLOCK_RECORD
  5
76E
100
AcDbSymbolTableRecord
100
AcDbBlockTableRecord
  2
*Paper_Space
  0
BLOCK_RECORD
  5
76F
100
AcDbSymbolTableRecord
100
AcDbBlockTableRecord
  2
*Paper_Space0
  0
BLOCK_RECORD
  5
770
100
AcDbSymbolTableRecord
100
AcDbBlockTableRecord
  2
B
  0
BLOCK_RECORD
  5
771
100
AcDbSymbolTableRecord
100
AcDbBlockTableRecord
  2
B-2
  0
BLOCK_RECORD
  5
772
100
AcDbSymbolTableRecord
100
AcDbBlockTableRecord
  2
B-3
  0
BLOCK_RECORD
  5
773
100
AcDbSymbolTableRecord
100
AcDbBlockTableRecord
  2
B-4
  0
BLOCK_RECORD
  5
774
100
AcDbSymbolTableRecord
100
AcDbBlockTableRecord
  2
B-5
  0
BLOCK_RECORD
  5
775
100
AcDbSymbolTableRecord
100
AcDbBlockTableRecord
  2
B-6
  0
BLOCK_RECORD
  5
776
100
AcDbSymbolTableRecord
100
AcDbBlockTableRecord
  2
B-7
  0
BLOCK_RECORD
  5
777
100
AcDbSymbolTableRecord
100
AcDbBlockTableRecord
  2
B-8
  0
BLOCK_RECORD
  5
778
100
AcDbSymbolTableRecord
100
AcDbBlockTableRecord
  2
B-9
  0
BLOCK_RECORD
  5
779
100
AcDbSymbolTableRecord
100
AcDbBlockTableRecord
  2
B-10
  0
BLOCK_RECORD
  5
77A
100
AcDbSymbolTableRecord
100
AcDbBlockTableRecord
  2
B-11
  0
BLOCK_RECORD
  5
77B
100
AcDbSymbolTableRecord
100
AcDbBlockTableRecord
  2
B-12
  0
BLOCK_RECORD
  5
77C
100
AcDbSymbolTableRecord
100
AcDbBlockTableRecord
  2
B-13
  0
BLOCK_RECORD
  5
77D
100
AcDbSymbolTableRecord
100
AcDbBlockTableRecord
  2
B-14
  0
BLOCK_RECORD
  5
77E
100
AcDbSymbolTableRecord
100
AcDbBlockTableRecord
  2
B-15
  0
BLOCK_RECORD
  5
77F
100
AcDbSymbolTableRecord
100
AcDbBlockTableRecord
  2
B-16
  0
BLOCK_RECORD
  5
780
100
AcDbSymbolTableRecord
100
AcDbBlockTableRecord
  2
B-17
  0
BLOCK_RECORD
  5
781
100
AcDbSymbolTableRecord
100
AcDbBlockTableRecord
  2
B-18
  0
BLOCK_RECORD
  5
782
100
AcDbSymbolTableRecord
100
AcDbBlockTableRecord
  2
B-19
  0
BLOCK_RECORD
  5
783
100
AcDbSymbolTableRecord
100
AcDbBlockTableRecord
  2
B-20
  0
BLOCK_RECORD
  5
784
100
AcDbSymbolTableRecord
100
AcDbBlockTableRecord
  2
B-21
  0
BLOCK_RECORD
  5
785
100
AcDbSymbolTableRecord
100
AcDbBlockTableRecord
  2
B-22
  0
BLOCK_RECORD
  5
786
100
AcDbSymbolTableRecord
100
AcDbBlockTableRecord
  2
B-23
  0
BLOCK_RECORD
  5
787
100
AcDbSymbolTableRecord
100
AcDbBlockTableRecord
  2
B-24
  0
BLOCK_RECORD
  5
788
100
AcDbSymbolTableRecord
100
AcDbBlockTableRecord
  2
B-25
  0
BLOCK_RECORD
  5
789
100
AcDbSymbolTableRecord
100
AcDbBlockTableRecord
  2
B-26
  0
BLOCK_RECORD
  5
78A
100
AcDbSymbolTableRecord
100
AcDbBlockTableRecord
  2
B-27
  0
BLOCK_RECORD
  5
78B
100
AcDbSymbolTableRecord
100
AcDbBlockTableRecord
  2
B-28
  0
BLOCK_RECORD
  5
78C
100
AcDbSymbolTableRecord
100
AcDbBlockTableRecord
  2
B-29
  0
BLOCK_RECORD
  5
78D
100
AcDbSymbolTableRecord
100
AcDbBlockTableRecord
  2
B-30
  0
BLOCK_RECORD
  5
78E
100
AcDbSymbolTableRecord
100
AcDbBlockTableRecord
  2
B-31
  0
BLOCK_RECORD
  5
78F
100
AcDbSymbolTableRecord
100
AcDbBlockTableRecord
  2
B-32
  0
BLOCK_RECORD
  5
790
100
AcDbSymbolTableRecord
100
AcDbBlockTableRecord
  2
B-33
  0
BLOCK_RECORD
  5
791
100
AcDbSymbolTableRecord
100
AcDbBlockTableRecord
  2
B-34
  0
BLOCK_RECORD
  5
792
100
AcDbSymbolTableRecord
100
AcDbBlockTableRecord
  2
B-35
  0
BLOCK_RECORD
  5
793
100
AcDbSymbolTableRecord
100
AcDbBlockTableRecord
  2
B-36
  0
BLOCK_RECORD
  5
794
100
AcDbSymbolTableRecord
100
AcDbBlockTableRecord
  2
B-37
  0
BLOCK_RECORD
  5
795
100
AcDbSymbolTableRecord
100
AcDbBlockTableRecord
  2
B-38
  0
BLOCK_RECORD
  5
796
100
AcDbSymbolTableRecord
100
AcDbBlockTableRecord
  2
B-39
  0
BLOCK_RECORD
  5
797
100
AcDbSymbolTableRecord
100
AcDbBlockTableRecord
  2
B-40
  0
BLOCK_RECORD
  5
798
100
AcDbSymbolTableRecord
100
AcDbBlockTableRecord
  2
B-41
  0
BLOCK_RECORD
  5
799
100
AcDbSymbolTableRecord
100
AcDbBlockTableRecord
  2
B-42
  0
BLOCK_RECORD
  5
79A
100
AcDbSymbolTableRecord
100
AcDbBlockTableRecord
  2
B-43
  0
BLOCK_RECORD
  5
79B
100
AcDbSymbolTableRecord
100
AcDbBlockTableRecord
  2
B-44
  0
BLOCK_RECORD
  5
79C
100
AcDbSymbolTableRecord
100
AcDbBlockTableRecord
  2
B-45
  0
BLOCK_RECORD
  5
79D
100
AcDbSymbolTableRecord
100
AcDbBlockTableRecord
  2
B-46
  0
BLOCK_RECORD
  5
79E
100
AcDbSymbolTableRecord
100
AcDbBlockTableRecord
  2
B-47
  0
BLOCK_RECORD
  5
79F
100
AcDbSymbolTableRecord
100
AcDbBlockTableRecord
  2
B-48
  0
BLOCK_RECORD
  5
7A0
100
AcDbSymbolTableRecord
100
AcDbBlockTableRecord
  2
B-49
  0
BLOCK_RECORD
  5
7A1
100
AcDbSymbolTableRecord
100
AcDbBlockTableRecord
  2
B-50
  0
BLOCK_RECORD
  5
7A2
100
AcDbSymbolTableRecord
100
AcDbBlockTableRecord
  2
B-51
  0
BLOCK_RECORD
  5
7A3
100
AcDbSymbolTableRecord
100
AcDbBlockTableRecord
  2
B-52
  0
BLOCK_RECORD
  5
7A4
100
AcDbSymbolTableRecord
100
AcDbBlockTableRecord
  2
B-53
  0
BLOCK_RECORD
  5
7A5
100
AcDbSymbolTableRecord
100
AcDbBlockTableRecord
  2
B-54
  0
BLOCK_RECORD
  5
7A6
100
AcDbSymbolTableRecord
100
AcDbBlockTableRecord
  2
B-55
  0
BLOCK_RECORD
  5
7A7
100
AcDbSymbolTableRecord
100
AcDbBlockTableRecord
  2
B-56
  0
BLOCK_RECORD
  5
7A8
100
AcDbSymbolTableRecord
100
AcDbBlockTableRecord
  2
B-57
  0
BLOCK_RECORD
  5
7A9
100
AcDbSymbolTableRecord
100
AcDbBlockTableRecord
  2
B-58
  0
BLOCK_RECORD
  5
7AA
100
AcDbSymbolTableRecord
100
AcDbBlockTableRecord
  2
B-59
  0
BLOCK_RECORD
  5
7AB
100
AcDbSymbolTableRecord
100
AcDbBlockTableRecord
  2
B-60
  0
BLOCK_RECORD
  5
7AC
100
AcDbSymbolTableRecord
100
AcDbBlockTableRecord
  2
B-61
  0
BLOCK_RECORD
  5
7AD
100
AcDbSymbolTableRecord
100
AcDbBlockTableRecord
  2
B-62
  0
BLOCK_RECORD
  5
7AE
100
AcDbSymbolTableRecord
100
AcDbBlockTableRecord
  2
glasleiste
  0
BLOCK_RECORD
  5
7AF
100
AcDbSymbolTableRecord
100
AcDbBlockTableRecord
  2
glas
  0
BLOCK_RECORD
  5
7B0
100
AcDbSymbolTableRecord
100
AcDbBlockTableRecord
  2
rahmen
  0
BLOCK_RECORD
  5
7B1
100
AcDbSymbolTableRecord
100
AcDbBlockTableRecord
  2
fluegel
  0
BLOCK_RECORD
  5
7B2
100
AcDbSymbolTableRecord
100
AcDbBlockTableRecord
  2
B-63
  0
BLOCK_RECORD
  5
7B3
100
AcDbSymbolTableRecord
100
AcDbBlockTableRecord
  2
B-64
  0
BLOCK_RECORD
  5
7B4
100
AcDbSymbolTableRecord
100
AcDbBlockTableRecord
  2
B-66
  0
BLOCK_RECORD
  5
7B5
100
AcDbSymbolTableRecord
100
AcDbBlockTableRecord
  2
B-67
  0
BLOCK_RECORD
  5
7B6
100
AcDbSymbolTableRecord
100
AcDbBlockTableRecord
  2
B-68
  0
BLOCK_RECORD
  5
7B7
100
AcDbSymbolTableRecord
100
AcDbBlockTableRecord
  2
B-69
  0
BLOCK_RECORD
  5
7B8
100
AcDbSymbolTableRecord
100
AcDbBlockTableRecord
  2
B-70
  0
BLOCK_RECORD
  5
7B9
100
AcDbSymbolTableRecord
100
AcDbBlockTableRecord
  2
B-71
  0
BLOCK_RECORD
  5
7BA
100
AcDbSymbolTableRecord
100
AcDbBlockTableRecord
  2
B-72
  0
BLOCK_RECORD
  5
7BB
100
AcDbSymbolTableRecord
100
AcDbBlockTableRecord
  2
B-73
  0
BLOCK_RECORD
  5
7BC
100
AcDbSymbolTableRecord
100
AcDbBlockTableRecord
  2
B-74
  0
BLOCK_RECORD
  5
7BD
100
AcDbSymbolTableRecord
100
AcDbBlockTableRecord
  2
B-75
  0
BLOCK_RECORD
  5
7BE
100
AcDbSymbolTableRecord
100
AcDbBlockTableRecord
  2
B-76
  0
BLOCK_RECORD
  5
7BF
100
AcDbSymbolTableRecord
100
AcDbBlockTableRecord
  2
B-77
  0
BLOCK_RECORD
  5
7C0
100
AcDbSymbolTableRecord
100
AcDbBlockTableRecord
  2
B-78
  0
BLOCK_RECORD
  5
7C1
100
AcDbSymbolTableRecord
100
AcDbBlockTableRecord
  2
B-79
  0
BLOCK_RECORD
  5
7C2
100
AcDbSymbolTableRecord
100
AcDbBlockTableRecord
  2
B-80
  0
BLOCK_RECORD
  5
7C3
100
AcDbSymbolTableRecord
100
AcDbBlockTableRecord
  2
B-81
  0
BLOCK_RECORD
  5
7C4
100
AcDbSymbolTableRecord
100
AcDbBlockTableRecord
  2
B-82
  0
BLOCK_RECORD
  5
7C5
100
AcDbSymbolTableRecord
100
AcDbBlockTableRecord
  2
B-83
  0
BLOCK_RECORD
  5
7C6
100
AcDbSymbolTableRecord
100
AcDbBlockTableRecord
  2
B-84
  0
BLOCK_RECORD
  5
7C7
100
AcDbSymbolTableRecord
100
AcDbBlockTableRecord
  2
B-85
  0
BLOCK_RECORD
  5
7C8
100
AcDbSymbolTableRecord
100
AcDbBlockTableRecord
  2
B-86
  0
BLOCK_RECORD
  5
7C9
100
AcDbSymbolTableRecord
100
AcDbBlockTableRecord
  2
B-87
  0
BLOCK_RECORD
  5
7CA
100
AcDbSymbolTableRecord
100
AcDbBlockTableRecord
  2
B-88
  0
BLOCK_RECORD
  5
7CB
100
AcDbSymbolTableRecord
100
AcDbBlockTableRecord
  2
B-89
  0
BLOCK_RECORD
  5
7CC
100
AcDbSymbolTableRecord
100
AcDbBlockTableRecord
  2
B-90
  0
BLOCK_RECORD
  5
7CD
100
AcDbSymbolTableRecord
100
AcDbBlockTableRecord
  2
B-91
  0
ENDTAB
  0
ENDSEC
  0
SECTION
  2
BLOCKS
  0
BLOCK
  5
204
100
AcDbEntity
  8
0
100
AcDbBlockBegin
  2
*Model_Space
 70
     0
 10
0.000000
 20
0.000000
 30
0.000000
  3
*Model_Space
  1

  0
ENDBLK
  5
205
100
AcDbEntity
  8
0
100
AcDbBlockEnd
  0
BLOCK
  5
206
100
AcDbEntity
 67
     1
  8
0
100
AcDbBlockBegin
  2
*Paper_Space
 70
     0
 10
0.000000
 20
0.000000
 30
0.000000
  3
*Paper_Space
  1

  0
ENDBLK
  5
207
100
AcDbEntity
 67
     1
  8
0
100
AcDbBlockEnd
  0
BLOCK
  5
208
100
AcDbEntity
 67
     1
  8
0
100
AcDbBlockBegin
  2
*Paper_Space0
 70
     0
 10
0.000000
 20
0.000000
 30
0.000000
  3
*Paper_Space0
  1

  0
ENDBLK
  5
209
100
AcDbEntity
 67
     1
  8
0
100
AcDbBlockEnd
  0
BLOCK
  5
20A
100
AcDbEntity
  8
SCHRAFF
100
AcDbBlockBegin
  2
B
 70
    66
 10
0.000000
 20
0.000000
 30
0.000000
  0
IMAGE
  5
20B
100
AcDbEntity
  8
SCHRAFF
100
AcDbRasterImage
 10
140.969928
 20
-349.249941
 30
0.000000
 11
0.204938
 21
-0.000000
 31
0.000000
 12
-0.000000
 22
0.204938
 32
-0.000000
 13
395.000000
 23
405.000000
340
20C
 70
     7
280
     0
281
    50
282
    50
283
     0
360
20D
 71
     1
 91
     2
 14
-0.500000
 24
-0.500000
 14
394.500000
 24
404.500000
  0
ENDBLK
  5
20E
100
AcDbEntity
  8
0
100
AcDbBlockEnd
  0
BLOCK
  5
20F
100
AcDbEntity
  8
Detail
100
AcDbBlockBegin
  2
B-2
 70
    66
 10
0.000000
 20
0.000000
 30
0.000000
  0
LWPOLYLINE
  5
210
100
AcDbEntity
  8
Detail
  6
CONTINUOUS
 62
     6
100
AcDbPolyline
 90
     5
 10
-124.250013
 20
-45.249941
 42
0.000000
 10
-130.000013
 20
-45.249941
 42
0.000000
 10
-130.000013
 20
-60.249941
 42
0.000000
 10
-124.250013
 20
-60.249941
 42
0.000000
 10
-124.250013
 20
-45.249941
 42
0.000000
  0
ENDBLK
  5
216
100
AcDbEntity
  8
0
100
AcDbBlockEnd
  0
BLOCK
  5
217
100
AcDbEntity
  8
SCHRAFF
100
AcDbBlockBegin
  2
B-3
 70
    66
 10
0.000000
 20
0.000000
 30
0.000000
  0
HATCH
  5
218
100
AcDbEntity
  8
SCHRAFF
 62
     8
440
     0
100
AcDbHatch
 10
0.000000
 20
0.000000
 30
0.000000
210
0.000000
220
0.000000
230
1.000000
  2
SOLID
 70
     1
 71
     1
 91
     1
 92
    18
 72
     1
 73
     0
 93
     5
 10
8.500003
 20
-66.249941
 42
-0.500000
 10
14.500003
 20
-66.249941
 42
0.000000
 10
14.500003
 20
-60.249941
 42
0.000000
 10
8.500003
 20
-60.249941
 42
0.000000
 10
8.500003
 20
-66.249941
 42
0.000000
 97
     0
 75
     0
 76
     1
 98
     0
  0
ENDBLK
  5
219
100
AcDbEntity
  8
0
100
AcDbBlockEnd
  0
BLOCK
  5
21A
100
AcDbEntity
  8
SCHRAFF
100
AcDbBlockBegin
  2
B-4
 70
    66
 10
0.000000
 20
0.000000
 30
0.000000
  0
HATCH
  5
21B
100
AcDbEntity
  8
SCHRAFF
 62
     9
440
     0
100
AcDbHatch
 10
0.000000
 20
0.000000
 30
0.000000
210
0.000000
220
0.000000
230
1.000000
  2
SOLID
 70
     1
 71
     1
 91
     1
 92
    18
 72
     1
 73
     0
 93
     7
 10
-129.250013
 20
-64.249941
 42
0.000000
 10
2.500000
 20
-64.249941
 42
0.000000
 10
2.500000
 20
-60.249941
 42
0.000000
 10
-127.249997
 20
-60.249941
 42
0.000000
 10
-127.249997
 20
-63.624941
 42
0.000000
 10
-129.250013
 20
-63.624941
 42
0.000000
 10
-129.250013
 20
-64.249941
 42
0.000000
 97
     0
 75
     0
 76
     1
 98
     0
  0
ENDBLK
  5
21C
100
AcDbEntity
  8
0
100
AcDbBlockEnd
  0
BLOCK
  5
21D
100
AcDbEntity
  8
Detail
100
AcDbBlockBegin
  2
B-5
 70
    66
 10
0.000000
 20
0.000000
 30
0.000000
  0
LWPOLYLINE
  5
21E
100
AcDbEntity
  8
Detail
  6
CONTINUOUS
 62
     6
100
AcDbPolyline
 90
     7
 10
2.500000
 20
-64.249941
 42
0.000000
 10
-129.250013
 20
-64.249941
 42
0.000000
 10
-129.250013
 20
-63.624941
 42
0.000000
 10
-127.249997
 20
-63.624941
 42
0.000000
 10
-127.249997
 20
-60.249941
 42
0.000000
 10
2.500000
 20
-60.249941
 42
0.000000
 10
2.500000
 20
-64.249941
 42
0.000000
  0
ENDBLK
  5
226
100
AcDbEntity
  8
0
100
AcDbBlockEnd
  0
BLOCK
  5
227
100
AcDbEntity
  8
SCHRAFF
100
AcDbBlockBegin
  2
B-6
 70
    66
 10
0.000000
 20
0.000000
 30
0.000000
  0
HATCH
  5
228
100
AcDbEntity
  8
SCHRAFF
 62
     8
440
     0
100
AcDbHatch
 10
0.000000
 20
0.000000
 30
0.000000
210
0.000000
220
0.000000
230
1.000000
  2
SOLID
 70
     1
 71
     1
 91
     1
 92
    18
 72
     1
 73
     0
 93
     5
 10
22.500003
 20
133.750059
 42
-0.400000
 10
22.500003
 20
143.750059
 42
0.000000
 10
14.500003
 20
143.750059
 42
0.000000
 10
14.500003
 20
133.750059
 42
0.000000
 10
22.500003
 20
133.750059
 42
0.000000
 97
     0
 75
     0
 76
     1
 98
     0
  0
ENDBLK
  5
229
100
AcDbEntity
  8
0
100
AcDbBlockEnd
  0
BLOCK
  5
22A
100
AcDbEntity
  8
SCHRAFF
100
AcDbBlockBegin
  2
B-7
 70
    66
 10
0.000000
 20
0.000000
 30
0.000000
  0
HATCH
  5
22B
100
AcDbEntity
  8
SCHRAFF
 62
   161
440
     0
100
AcDbHatch
 10
0.000000
 20
0.000000
 30
0.000000
210
0.000000
220
0.000000
230
1.000000
  2
SOLID
 70
     1
 71
     1
 91
     1
 92
    18
 72
     1
 73
     0
 93
     5
 10
14.500003
 20
-66.249941
 42
0.000000
 10
22.500003
 20
-66.249941
 42
0.000000
 10
22.500003
 20
133.750059
 42
0.000000
 10
14.500003
 20
133.750059
 42
0.000000
 10
14.500003
 20
-66.249941
 42
0.000000
 97
     0
 75
     0
 76
     1
 98
     0
  0
ENDBLK
  5
22C
100
AcDbEntity
  8
0
100
AcDbBlockEnd
  0
BLOCK
  5
22D
100
AcDbEntity
  8
SCHRAFF
100
AcDbBlockBegin
  2
B-8
 70
    66
 10
0.000000
 20
0.000000
 30
0.000000
  0
HATCH
  5
22E
100
AcDbEntity
  8
SCHRAFF
 62
   161
440
     0
100
AcDbHatch
 10
0.000000
 20
0.000000
 30
0.000000
210
0.000000
220
0.000000
230
1.000000
  2
SOLID
 70
     1
 71
     1
 91
     1
 92
    18
 72
     1
 73
     0
 93
     5
 10
14.500003
 20
143.750059
 42
0.000000
 10
22.500003
 20
143.750059
 42
0.000000
 10
22.500003
 20
296.250078
 42
0.000000
 10
14.500003
 20
296.250078
 42
0.000000
 10
14.500003
 20
143.750059
 42
0.000000
 97
     0
 75
     0
 76
     1
 98
     0
  0
ENDBLK
  5
22F
100
AcDbEntity
  8
0
100
AcDbBlockEnd
  0
BLOCK
  5
230
100
AcDbEntity
  8
SCHRAFF
100
AcDbBlockBegin
  2
B-9
 70
    66
 10
0.000000
 20
0.000000
 30
0.000000
  0
HATCH
  5
231
100
AcDbEntity
  8
SCHRAFF
 62
    21
440
     0
100
AcDbHatch
 10
0.000000
 20
0.000000
 30
0.000000
210
0.000000
220
0.000000
230
1.000000
  2
SOLID
 70
     1
 71
     1
 91
     1
 92
    18
 72
     1
 73
     0
 93
   141
 10
-24.749997
 20
-65.749941
 42
0.000000
 10
-23.749997
 20
-66.249941
 42
0.000000
 10
-22.749997
 20
-66.249941
 42
0.000000
 10
-21.749997
 20
-66.749941
 42
0.000000
 10
-20.749997
 20
-66.249941
 42
0.000000
 10
-19.749997
 20
-66.249941
 42
0.000000
 10
-18.749997
 20
-65.749941
 42
0.000000
 10
-17.749997
 20
-66.249941
 42
0.000000
 10
-16.749997
 20
-66.249941
 42
0.000000
 10
-15.749997
 20
-66.749941
 42
0.000000
 10
-14.742331
 20
-66.249941
 42
0.000000
 10
-13.749997
 20
-66.249941
 42
0.000000
 10
-12.749997
 20
-65.749941
 42
0.000000
 10
-11.749997
 20
-66.249941
 42
0.000000
 10
-10.749997
 20
-66.249941
 42
0.000000
 10
-9.749997
 20
-66.749941
 42
0.000000
 10
-8.749997
 20
-66.249941
 42
0.000000
 10
-7.749997
 20
-66.249941
 42
0.000000
 10
-6.749997
 20
-65.749941
 42
0.000000
 10
-5.749997
 20
-66.249941
 42
0.000000
 10
-4.749997
 20
-66.249941
 42
0.000000
 10
-3.749997
 20
-66.749941
 42
0.000000
 10
-2.749997
 20
-66.249941
 42
0.000000
 10
-1.749997
 20
-66.249941
 42
0.000000
 10
-0.749997
 20
-65.749941
 42
0.000000
 10
0.250003
 20
-66.249941
 42
0.000000
 10
1.250003
 20
-66.249941
 42
0.000000
 10
2.250003
 20
-66.749941
 42
0.000000
 10
3.250003
 20
-66.249941
 42
0.000000
 10
4.250003
 20
-66.249941
 42
0.000000
 10
5.250003
 20
-65.749941
 42
0.000000
 10
6.250003
 20
-66.249941
 42
0.000000
 10
8.500003
 20
-66.249941
 42
0.000000
 10
8.500003
 20
-64.249941
 42
0.000000
 10
-129.250013
 20
-64.249941
 42
0.000000
 10
-129.250013
 20
-66.249941
 42
0.000000
 10
-128.749997
 20
-66.249941
 42
0.000000
 10
-127.749997
 20
-66.249941
 42
0.000000
 10
-126.749997
 20
-65.749941
 42
0.000000
 10
-125.749997
 20
-66.249941
 42
0.000000
 10
-124.749997
 20
-66.249941
 42
0.000000
 10
-123.749997
 20
-66.749941
 42
0.000000
 10
-122.749997
 20
-66.249941
 42
0.000000
 10
-121.749997
 20
-66.249941
 42
0.000000
 10
-120.749997
 20
-65.749941
 42
0.000000
 10
-119.749997
 20
-66.249941
 42
0.000000
 10
-118.749997
 20
-66.249941
 42
0.000000
 10
-117.749997
 20
-66.749941
 42
0.000000
 10
-116.749997
 20
-66.249941
 42
0.000000
 10
-115.749997
 20
-66.249941
 42
0.000000
 10
-114.749997
 20
-65.749941
 42
0.000000
 10
-113.749997
 20
-66.249941
 42
0.000000
 10
-112.749997
 20
-66.249941
 42
0.000000
 10
-111.749997
 20
-66.749941
 42
0.000000
 10
-110.749997
 20
-66.249941
 42
0.000000
 10
-109.749997
 20
-66.249941
 42
0.000000
 10
-108.749997
 20
-65.749941
 42
0.000000
 10
-107.749997
 20
-66.249941
 42
0.000000
 10
-106.749997
 20
-66.249941
 42
0.000000
 10
-105.749997
 20
-66.749941
 42
0.000000
 10
-104.749997
 20
-66.249941
 42
0.000000
 10
-103.749997
 20
-66.249941
 42
0.000000
 10
-102.749997
 20
-65.749941
 42
0.000000
 10
-101.749997
 20
-66.249941
 42
0.000000
 10
-100.749997
 20
-66.249941
 42
0.000000
 10
-99.749997
 20
-66.749941
 42
0.000000
 10
-98.749997
 20
-66.249941
 42
0.000000
 10
-97.749997
 20
-66.249941
 42
0.000000
 10
-96.749997
 20
-65.749941
 42
0.000000
 10
-95.749997
 20
-66.249941
 42
0.000000
 10
-94.749997
 20
-66.249941
 42
0.000000
 10
-93.749997
 20
-66.749941
 42
0.000000
 10
-92.749997
 20
-66.249941
 42
0.000000
 10
-91.749997
 20
-66.249941
 42
0.000000
 10
-90.749997
 20
-65.749941
 42
0.000000
 10
-89.749997
 20
-66.249941
 42
0.000000
 10
-88.749997
 20
-66.249941
 42
0.000000
 10
-87.749997
 20
-66.749941
 42
0.000000
 10
-86.749997
 20
-66.249941
 42
0.000000
 10
-85.749997
 20
-66.249941
 42
0.000000
 10
-84.749997
 20
-65.749941
 42
0.000000
 10
-83.749997
 20
-66.249941
 42
0.000000
 10
-82.749997
 20
-66.249941
 42
0.000000
 10
-81.749997
 20
-66.749941
 42
0.000000
 10
-80.749997
 20
-66.249941
 42
0.000000
 10
-79.749997
 20
-66.249941
 42
0.000000
 10
-78.749997
 20
-65.749941
 42
0.000000
 10
-77.749997
 20
-66.249941
 42
0.000000
 10
-76.749997
 20
-66.249941
 42
0.000000
 10
-75.749997
 20
-66.749941
 42
0.000000
 10
-74.749997
 20
-66.249941
 42
0.000000
 10
-73.749997
 20
-66.249941
 42
0.000000
 10
-72.749997
 20
-65.749941
 42
0.000000
 10
-71.749997
 20
-66.249941
 42
0.000000
 10
-70.749997
 20
-66.249941
 42
0.000000
 10
-69.749997
 20
-66.749941
 42
0.000000
 10
-68.749997
 20
-66.249941
 42
0.000000
 10
-67.749997
 20
-66.249941
 42
0.000000
 10
-66.749997
 20
-65.749941
 42
0.000000
 10
-65.749997
 20
-66.249941
 42
0.000000
 10
-64.749997
 20
-66.249941
 42
0.000000
 10
-63.749997
 20
-66.749941
 42
0.000000
 10
-62.749997
 20
-66.249941
 42
0.000000
 10
-61.749997
 20
-66.249941
 42
0.000000
 10
-60.749997
 20
-65.749941
 42
0.000000
 10
-59.749997
 20
-66.249941
 42
0.000000
 10
-58.749997
 20
-66.249941
 42
0.000000
 10
-57.749997
 20
-66.749941
 42
0.000000
 10
-56.749997
 20
-66.249941
 42
0.000000
 10
-55.749997
 20
-66.249941
 42
0.000000
 10
-54.749997
 20
-65.749941
 42
0.000000
 10
-53.749997
 20
-66.249941
 42
0.000000
 10
-52.749997
 20
-66.249941
 42
0.000000
 10
-51.749997
 20
-66.749941
 42
0.000000
 10
-50.749997
 20
-66.249941
 42
0.000000
 10
-49.749997
 20
-66.249941
 42
0.000000
 10
-48.749997
 20
-65.749941
 42
0.000000
 10
-47.749997
 20
-66.249941
 42
0.000000
 10
-46.749997
 20
-66.249941
 42
0.000000
 10
-45.749997
 20
-66.749941
 42
0.000000
 10
-44.749997
 20
-66.249941
 42
0.000000
 10
-43.749997
 20
-66.249941
 42
0.000000
 10
-42.749997
 20
-65.749941
 42
0.000000
 10
-41.749997
 20
-66.249941
 42
0.000000
 10
-40.749997
 20
-66.249941
 42
0.000000
 10
-39.749997
 20
-66.749941
 42
0.000000
 10
-38.749997
 20
-66.249941
 42
0.000000
 10
-37.749997
 20
-66.249941
 42
0.000000
 10
-36.749997
 20
-65.749941
 42
0.000000
 10
-35.749997
 20
-66.249941
 42
0.000000
 10
-34.749997
 20
-66.249941
 42
0.000000
 10
-33.749997
 20
-66.749941
 42
0.000000
 10
-32.749997
 20
-66.249941
 42
0.000000
 10
-31.749997
 20
-66.249941
 42
0.000000
 10
-30.749997
 20
-65.749941
 42
0.000000
 10
-29.749997
 20
-66.249941
 42
0.000000
 10
-28.749997
 20
-66.249941
 42
0.000000
 10
-27.749997
 20
-66.749941
 42
0.000000
 10
-26.749997
 20
-66.249941
 42
0.000000
 10
-25.749997
 20
-66.249941
 42
0.000000
 10
-24.749997
 20
-65.749941
 42
0.000000
 97
     0
 75
     0
 76
     1
 98
     0
  0
ENDBLK
  5
232
100
AcDbEntity
  8
0
100
AcDbBlockEnd
  0
BLOCK
  5
233
100
AcDbEntity
  8
SCHRAFF
100
AcDbBlockBegin
  2
B-10
 70
    66
 10
0.000000
 20
0.000000
 30
0.000000
  0
HATCH
  5
234
100
AcDbEntity
  8
SCHRAFF
 62
   250
440
     0
100
AcDbHatch
 10
0.000000
 20
0.000000
 30
0.000000
210
0.000000
220
0.000000
230
1.000000
  2
SOLID
 70
     1
 71
     1
 91
     1
 92
    18
 72
     1
 73
     0
 93
     7
 10
-21.499997
 20
-65.499941
 42
0.000000
 10
7.250003
 20
-65.499941
 42
0.000000
 10
7.250003
 20
-66.249941
 42
0.000000
 10
8.500003
 20
-66.249941
 42
0.000000
 10
8.500003
 20
-64.249941
 42
0.000000
 10
-21.499997
 20
-64.249941
 42
0.000000
 10
-21.499997
 20
-65.499941
 42
0.000000
 97
     0
 75
     0
 76
     1
 98
     0
  0
ENDBLK
  5
235
100
AcDbEntity
  8
0
100
AcDbBlockEnd
  0
BLOCK
  5
236
100
AcDbEntity
  8
SCHRAFF
100
AcDbBlockBegin
  2
B-11
 70
    66
 10
0.000000
 20
0.000000
 30
0.000000
  0
HATCH
  5
237
100
AcDbEntity
  8
SCHRAFF
 62
   254
440
     0
100
AcDbHatch
 10
0.000000
 20
0.000000
 30
0.000000
210
0.000000
220
0.000000
230
1.000000
  2
SOLID
 70
     1
 71
     1
 91
     1
 92
    18
 72
     1
 73
     0
 93
     5
 10
-77.499997
 20
-60.249941
 42
0.000000
 10
-77.499997
 20
-30.249941
 42
0.000000
 10
-79.499997
 20
-30.249941
 42
0.000000
 10
-79.499997
 20
-60.249941
 42
0.000000
 10
-77.499997
 20
-60.249941
 42
0.000000
 97
     0
 75
     0
 76
     1
 98
     0
  0
LWPOLYLINE
  5
238
100
AcDbEntity
  8
Detail
  6
CONTINUOUS
 62
     6
100
AcDbPolyline
 90
     5
 10
-79.499997
 20
-30.249941
 42
0.000000
 10
-77.499997
 20
-30.249941
 42
0.000000
 10
-77.499997
 20
-60.249941
 42
0.000000
 10
-79.499997
 20
-60.249941
 42
0.000000
 10
-79.499997
 20
-30.249941
 42
0.000000
  0
ENDBLK
  5
23E
100
AcDbEntity
  8
0
100
AcDbBlockEnd
  0
BLOCK
  5
23F
100
AcDbEntity
  8
Detail
100
AcDbBlockBegin
  2
B-12
 70
    66
 10
0.000000
 20
0.000000
 30
0.000000
  0
LWPOLYLINE
  5
240
100
AcDbEntity
  8
Detail
  6
CONTINUOUS
 62
     6
100
AcDbPolyline
 90
   138
 10
-129.250013
 20
-66.249941
 42
0.000000
 10
-128.749997
 20
-66.249941
 42
0.000000
 10
-127.749997
 20
-66.249941
 42
0.000000
 10
-126.749997
 20
-65.749941
 42
0.000000
 10
-125.749997
 20
-66.249941
 42
0.000000
 10
-124.749997
 20
-66.249941
 42
0.000000
 10
-123.749997
 20
-66.749941
 42
0.000000
 10
-122.749997
 20
-66.249941
 42
0.000000
 10
-121.749997
 20
-66.249941
 42
0.000000
 10
-120.749997
 20
-65.749941
 42
0.000000
 10
-119.749997
 20
-66.249941
 42
0.000000
 10
-118.749997
 20
-66.249941
 42
0.000000
 10
-117.749997
 20
-66.749941
 42
0.000000
 10
-116.749997
 20
-66.249941
 42
0.000000
 10
-115.749997
 20
-66.249941
 42
0.000000
 10
-114.749997
 20
-65.749941
 42
0.000000
 10
-113.749997
 20
-66.249941
 42
0.000000
 10
-112.749997
 20
-66.249941
 42
0.000000
 10
-111.749997
 20
-66.749941
 42
0.000000
 10
-110.749997
 20
-66.249941
 42
0.000000
 10
-109.749997
 20
-66.249941
 42
0.000000
 10
-108.749997
 20
-65.749941
 42
0.000000
 10
-107.749997
 20
-66.249941
 42
0.000000
 10
-106.749997
 20
-66.249941
 42
0.000000
 10
-105.749997
 20
-66.749941
 42
0.000000
 10
-104.749997
 20
-66.249941
 42
0.000000
 10
-103.749997
 20
-66.249941
 42
0.000000
 10
-102.749997
 20
-65.749941
 42
0.000000
 10
-101.749997
 20
-66.249941
 42
0.000000
 10
-100.749997
 20
-66.249941
 42
0.000000
 10
-99.749997
 20
-66.749941
 42
0.000000
 10
-98.749997
 20
-66.249941
 42
0.000000
 10
-97.749997
 20
-66.249941
 42
0.000000
 10
-96.749997
 20
-65.749941
 42
0.000000
 10
-95.749997
 20
-66.249941
 42
0.000000
 10
-94.749997
 20
-66.249941
 42
0.000000
 10
-93.749997
 20
-66.749941
 42
0.000000
 10
-92.749997
 20
-66.249941
 42
0.000000
 10
-91.749997
 20
-66.249941
 42
0.000000
 10
-90.749997
 20
-65.749941
 42
0.000000
 10
-89.749997
 20
-66.249941
 42
0.000000
 10
-88.749997
 20
-66.249941
 42
0.000000
 10
-87.749997
 20
-66.749941
 42
0.000000
 10
-86.749997
 20
-66.249941
 42
0.000000
 10
-85.749997
 20
-66.249941
 42
0.000000
 10
-84.749997
 20
-65.749941
 42
0.000000
 10
-83.749997
 20
-66.249941
 42
0.000000
 10
-82.749997
 20
-66.249941
 42
0.000000
 10
-81.749997
 20
-66.749941
 42
0.000000
 10
-80.749997
 20
-66.249941
 42
0.000000
 10
-79.749997
 20
-66.249941
 42
0.000000
 10
-78.749997
 20
-65.749941
 42
0.000000
 10
-77.749997
 20
-66.249941
 42
0.000000
 10
-76.749997
 20
-66.249941
 42
0.000000
 10
-75.749997
 20
-66.749941
 42
0.000000
 10
-74.749997
 20
-66.249941
 42
0.000000
 10
-73.749997
 20
-66.249941
 42
0.000000
 10
-72.749997
 20
-65.749941
 42
0.000000
 10
-71.749997
 20
-66.249941
 42
0.000000
 10
-70.749997
 20
-66.249941
 42
0.000000
 10
-69.749997
 20
-66.749941
 42
0.000000
 10
-68.749997
 20
-66.249941
 42
0.000000
 10
-67.749997
 20
-66.249941
 42
0.000000
 10
-66.749997
 20
-65.749941
 42
0.000000
 10
-65.749997
 20
-66.249941
 42
0.000000
 10
-64.749997
 20
-66.249941
 42
0.000000
 10
-63.749997
 20
-66.749941
 42
0.000000
 10
-62.749997
 20
-66.249941
 42
0.000000
 10
-61.749997
 20
-66.249941
 42
0.000000
 10
-60.749997
 20
-65.749941
 42
0.000000
 10
-59.749997
 20
-66.249941
 42
0.000000
 10
-58.749997
 20
-66.249941
 42
0.000000
 10
-57.749997
 20
-66.749941
 42
0.000000
 10
-56.749997
 20
-66.249941
 42
0.000000
 10
-55.749997
 20
-66.249941
 42
0.000000
 10
-54.749997
 20
-65.749941
 42
0.000000
 10
-53.749997
 20
-66.249941
 42
0.000000
 10
-52.749997
 20
-66.249941
 42
0.000000
 10
-51.749997
 20
-66.749941
 42
0.000000
 10
-50.749997
 20
-66.249941
 42
0.000000
 10
-49.749997
 20
-66.249941
 42
0.000000
 10
-48.749997
 20
-65.749941
 42
0.000000
 10
-47.749997
 20
-66.249941
 42
0.000000
 10
-46.749997
 20
-66.249941
 42
0.000000
 10
-45.749997
 20
-66.749941
 42
0.000000
 10
-44.749997
 20
-66.249941
 42
0.000000
 10
-43.749997
 20
-66.249941
 42
0.000000
 10
-42.749997
 20
-65.749941
 42
0.000000
 10
-41.749997
 20
-66.249941
 42
0.000000
 10
-40.749997
 20
-66.249941
 42
0.000000
 10
-39.749997
 20
-66.749941
 42
0.000000
 10
-38.749997
 20
-66.249941
 42
0.000000
 10
-37.749997
 20
-66.249941
 42
0.000000
 10
-36.749997
 20
-65.749941
 42
0.000000
 10
-35.749997
 20
-66.249941
 42
0.000000
 10
-34.749997
 20
-66.249941
 42
0.000000
 10
-33.749997
 20
-66.749941
 42
0.000000
 10
-32.749997
 20
-66.249941
 42
0.000000
 10
-31.749997
 20
-66.249941
 42
0.000000
 10
-30.749997
 20
-65.749941
 42
0.000000
 10
-29.749997
 20
-66.249941
 42
0.000000
 10
-28.749997
 20
-66.249941
 42
0.000000
 10
-27.749997
 20
-66.749941
 42
0.000000
 10
-26.749997
 20
-66.249941
 42
0.000000
 10
-25.749997
 20
-66.249941
 42
0.000000
 10
-24.749997
 20
-65.749941
 42
0.000000
 10
-23.749997
 20
-66.249941
 42
0.000000
 10
-22.749997
 20
-66.249941
 42
0.000000
 10
-21.749997
 20
-66.749941
 42
0.000000
 10
-20.749997
 20
-66.249941
 42
0.000000
 10
-19.749997
 20
-66.249941
 42
0.000000
 10
-18.749997
 20
-65.749941
 42
0.000000
 10
-17.749997
 20
-66.249941
 42
0.000000
 10
-16.749997
 20
-66.249941
 42
0.000000
 10
-15.749997
 20
-66.749941
 42
0.000000
 10
-14.742331
 20
-66.249941
 42
0.000000
 10
-13.749997
 20
-66.249941
 42
0.000000
 10
-12.749997
 20
-65.749941
 42
0.000000
 10
-11.749997
 20
-66.249941
 42
0.000000
 10
-10.749997
 20
-66.249941
 42
0.000000
 10
-9.749997
 20
-66.749941
 42
0.000000
 10
-8.749997
 20
-66.249941
 42
0.000000
 10
-7.749997
 20
-66.249941
 42
0.000000
 10
-6.749997
 20
-65.749941
 42
0.000000
 10
-5.749997
 20
-66.249941
 42
0.000000
 10
-4.749997
 20
-66.249941
 42
0.000000
 10
-3.749997
 20
-66.749941
 42
0.000000
 10
-2.749997
 20
-66.249941
 42
0.000000
 10
-1.749997
 20
-66.249941
 42
0.000000
 10
-0.749997
 20
-65.749941
 42
0.000000
 10
0.250003
 20
-66.249941
 42
0.000000
 10
1.250003
 20
-66.249941
 42
0.000000
 10
2.250003
 20
-66.749941
 42
0.000000
 10
3.250003
 20
-66.249941
 42
0.000000
 10
4.250003
 20
-66.249941
 42
0.000000
 10
5.250003
 20
-65.749941
 42
0.000000
 10
6.250003
 20
-66.249941
 42
0.000000
 10
7.250003
 20
-66.249941
 42
0.000000
  0
ENDBLK
  5
2CB
100
AcDbEntity
  8
0
100
AcDbBlockEnd
  0
BLOCK
  5
2CC
100
AcDbEntity
  8
SCHRAFF
100
AcDbBlockBegin
  2
B-13
 70
    66
 10
0.000000
 20
0.000000
 30
0.000000
  0
HATCH
  5
2CD
100
AcDbEntity
  8
SCHRAFF
 62
     9
440
     0
100
AcDbHatch
 10
0.000000
 20
0.000000
 30
0.000000
210
0.000000
220
0.000000
230
1.000000
  2
SOLID
 70
     1
 71
     1
 91
     1
 92
    18
 72
     1
 73
     0
 93
     5
 10
8.500003
 20
296.250078
 42
0.000000
 10
8.500003
 20
-60.249941
 42
0.000000
 10
10.500003
 20
-60.249941
 42
0.000000
 10
10.500003
 20
296.250078
 42
0.000000
 10
8.500003
 20
296.250078
 42
0.000000
 97
     0
 75
     0
 76
     1
 98
     0
  0
HATCH
  5
2CE
100
AcDbEntity
  8
SCHRAFF
 62
   253
440
     0
100
AcDbHatch
 10
0.000000
 20
0.000000
 30
0.000000
210
0.000000
220
0.000000
230
1.000000
  2
SOLID
 70
     1
 71
     1
 91
     1
 92
    18
 72
     1
 73
     0
 93
     5
 10
14.500003
 20
-60.249941
 42
0.000000
 10
14.500003
 20
296.250078
 42
0.000000
 10
10.500003
 20
296.250078
 42
0.000000
 10
10.500003
 20
-60.249941
 42
0.000000
 10
14.500003
 20
-60.249941
 42
0.000000
 97
     0
 75
     0
 76
     1
 98
     0
  0
ENDBLK
  5
2CF
100
AcDbEntity
  8
0
100
AcDbBlockEnd
  0
BLOCK
  5
2D0
100
AcDbEntity
  8
SCHRAFF
100
AcDbBlockBegin
  2
B-14
 70
    66
 10
0.000000
 20
0.000000
 30
0.000000
  0
HATCH
  5
2D1
100
AcDbEntity
  8
SCHRAFF
 62
   254
440
     0
100
AcDbHatch
 10
0.000000
 20
0.000000
 30
0.000000
210
0.000000
220
0.000000
230
1.000000
  2
SOLID
 70
     1
 71
     1
 91
     1
 92
    18
 72
     1
 73
     0
 93
     7
 10
-127.499997
 20
-30.249941
 42
0.000000
 10
-77.499997
 20
-30.249941
 42
0.000000
 10
-77.499997
 20
296.250078
 42
0.000000
 10
-82.499997
 20
296.250078
 42
0.000000
 10
-82.499997
 20
-25.249941
 42
0.000000
 10
-127.499997
 20
-25.249941
 42
0.000000
 10
-127.499997
 20
-30.249941
 42
0.000000
 97
     0
 75
     0
 76
     1
 98
     0
  0
HATCH
  5
2D2
100
AcDbEntity
  8
SCHRAFF
 62
     9
440
     0
100
AcDbHatch
 10
0.000000
 20
0.000000
 30
0.000000
210
0.000000
220
0.000000
230
1.000000
  2
SOLID
 70
     1
 71
     1
 91
     1
 92
    18
 72
     1
 73
     0
 93
     5
 10
2.500000
 20
-64.249941
 42
0.000000
 10
8.500003
 20
-64.249941
 42
0.000000
 10
8.500003
 20
296.250078
 42
0.000000
 10
2.500003
 20
296.250078
 42
0.000000
 10
2.500000
 20
-64.249941
 42
0.000000
 97
     0
 75
     0
 76
     1
 98
     0
  0
ENDBLK
  5
2D3
100
AcDbEntity
  8
0
100
AcDbBlockEnd
  0
BLOCK
  5
2D4
100
AcDbEntity
  8
SCHRAFF
100
AcDbBlockBegin
  2
B-15
 70
    66
 10
0.000000
 20
0.000000
 30
0.000000
  0
HATCH
  5
2D5
100
AcDbEntity
  8
SCHRAFF
 62
    51
440
     0
100
AcDbHatch
 10
0.000000
 20
0.000000
 30
0.000000
210
0.000000
220
0.000000
230
1.000000
  2
SOLID
 70
     1
 71
     1
 91
     1
 92
    18
 72
     1
 73
     0
 93
     7
 10
-124.250013
 20
-60.249941
 42
0.000000
 10
-79.499997
 20
-60.249941
 42
0.000000
 10
-79.499997
 20
-30.249941
 42
0.000000
 10
-127.499997
 20
-30.249941
 42
0.000000
 10
-127.499997
 20
-45.249941
 42
0.000000
 10
-124.250013
 20
-45.249941
 42
0.000000
 10
-124.250013
 20
-60.249941
 42
0.000000
 97
     0
 75
     0
 76
     1
 98
     0
  0
HATCH
  5
2D6
100
AcDbEntity
  8
SCHRAFF
 62
    51
440
     0
100
AcDbHatch
 10
0.000000
 20
0.000000
 30
0.000000
210
0.000000
220
0.000000
230
1.000000
  2
SOLID
 70
     1
 71
     1
 91
     1
 92
    18
 72
     1
 73
     0
 93
     5
 10
-77.499997
 20
-60.249941
 42
0.000000
 10
2.500003
 20
-60.249941
 42
0.000000
 10
2.500003
 20
296.250078
 42
0.000000
 10
-77.499997
 20
296.250078
 42
0.000000
 10
-77.499997
 20
-60.249941
 42
0.000000
 97
     0
 75
     0
 76
     1
 98
     0
  0
ENDBLK
  5
2D7
100
AcDbEntity
  8
0
100
AcDbBlockEnd
  0
BLOCK
  5
2D8
100
AcDbEntity
  8
Detail
100
AcDbBlockBegin
  2
B-16
 70
    66
 10
0.000000
 20
0.000000
 30
0.000000
  0
LWPOLYLINE
  5
2D9
100
AcDbEntity
  8
Detail
  6
CONTINUOUS
 62
     6
100
AcDbPolyline
 90
     6
 10
-82.499997
 20
296.250078
 42
0.000000
 10
-82.499997
 20
-25.249941
 42
0.000000
 10
-127.499997
 20
-25.249941
 42
0.000000
 10
-127.499997
 20
-30.249941
 42
0.000000
 10
-77.499997
 20
-30.249941
 42
0.000000
 10
-77.499997
 20
296.250078
 42
0.000000
  0
ENDBLK
  5
2E0
100
AcDbEntity
  8
0
100
AcDbBlockEnd
  0
BLOCK
  5
2E1
100
AcDbEntity
  8
Detail
100
AcDbBlockBegin
  2
B-17
 70
    66
 10
0.000000
 20
0.000000
 30
0.000000
  0
LWPOLYLINE
  5
2E2
100
AcDbEntity
  8
Detail
  6
CONTINUOUS
 62
     6
100
AcDbPolyline
 90
     4
 10
8.500003
 20
296.250078
 42
0.000000
 10
8.500003
 20
-60.249941
 42
0.000000
 10
10.500003
 20
-60.249941
 42
0.000000
 10
10.500003
 20
296.250078
 42
0.000000
  0
ENDBLK
  5
2E7
100
AcDbEntity
  8
0
100
AcDbBlockEnd
  0
BLOCK
  5
2E8
100
AcDbEntity
  8
Detail
100
AcDbBlockBegin
  2
B-18
 70
    66
 10
0.000000
 20
0.000000
 30
0.000000
  0
LWPOLYLINE
  5
2E9
100
AcDbEntity
  8
Detail
  6
CONTINUOUS
 62
     6
100
AcDbPolyline
 90
     4
 10
10.500003
 20
296.250078
 42
0.000000
 10
10.500003
 20
-60.249941
 42
0.000000
 10
14.500003
 20
-60.249941
 42
0.000000
 10
14.500003
 20
296.250078
 42
0.000000
  0
ENDBLK
  5
2EE
100
AcDbEntity
  8
0
100
AcDbBlockEnd
  0
BLOCK
  5
2EF
100
AcDbEntity
  8
Detail
100
AcDbBlockBegin
  2
B-19
 70
    66
 10
0.000000
 20
0.000000
 30
0.000000
  0
LWPOLYLINE
  5
2F0
100
AcDbEntity
  8
Detail
  6
CONTINUOUS
 62
     6
100
AcDbPolyline
 90
     4
 10
2.500003
 20
296.250078
 42
0.000000
 10
2.500000
 20
-64.249941
 42
0.000000
 10
8.500003
 20
-64.249941
 42
0.000000
 10
8.500003
 20
296.250078
 42
0.000000
  0
ENDBLK
  5
2F5
100
AcDbEntity
  8
0
100
AcDbBlockEnd
  0
BLOCK
  5
2F6
100
AcDbEntity
  8
SCHRAFF
100
AcDbBlockBegin
  2
B-20
 70
    66
 10
0.000000
 20
0.000000
 30
0.000000
  0
HATCH
  5
2F7
100
AcDbEntity
  8
SCHRAFF
  6
CONTINUOUS
 62
     9
100
AcDbHatch
 10
0.000000
 20
0.000000
 30
0.000000
210
0.000000
220
0.000000
230
1.000000
  2
_U
 70
     0
 71
     1
 91
     1
 92
    18
 72
     1
 73
     0
 93
     5
 10
-77.499997
 20
-60.249941
 42
0.000000
 10
2.500003
 20
-60.249941
 42
0.000000
 10
2.500003
 20
298.511485
 42
0.000000
 10
-77.499997
 20
298.511485
 42
0.000000
 10
-77.499997
 20
-60.249941
 42
0.000000
 97
     0
 75
     0
 76
     0
 52
0.000000
 41
1.000000
 77
     0
 78
     1
 53
90.000000
 43
-0.000000
 44
0.000000
 45
-13.750000
 46
0.000000
 79
     0
 98
     0
  0
ENDBLK
  5
2F8
100
AcDbEntity
  8
0
100
AcDbBlockEnd
  0
BLOCK
  5
2F9
100
AcDbEntity
  8
SCHRAFF
100
AcDbBlockBegin
  2
B-21
 70
    66
 10
0.000000
 20
0.000000
 30
0.000000
  0
HATCH
  5
2FA
100
AcDbEntity
  8
SCHRAFF
  6
CONTINUOUS
 62
     9
100
AcDbHatch
 10
0.000000
 20
0.000000
 30
0.000000
210
0.000000
220
0.000000
230
1.000000
  2
_U
 70
     0
 71
     1
 91
     1
 92
    18
 72
     1
 73
     0
 93
     5
 10
-212.500018
 20
-25.249941
 42
0.000000
 10
-82.499997
 20
-25.249941
 42
0.000000
 10
-82.499997
 20
296.250078
 42
0.000000
 10
-212.500018
 20
296.250078
 42
0.000000
 10
-212.500018
 20
-25.249941
 42
0.000000
 97
     0
 75
     0
 76
     0
 52
0.000000
 41
1.000000
 77
     0
 78
     1
 53
44.999996
 43
-0.000000
 44
0.000000
 45
-17.677668
 46
17.677671
 79
     0
 98
     0
  0
ENDBLK
  5
2FB
100
AcDbEntity
  8
0
100
AcDbBlockEnd
  0
BLOCK
  5
2FC
100
AcDbEntity
  8
Detail
100
AcDbBlockBegin
  2
B-22
 70
    66
 10
0.000000
 20
0.000000
 30
0.000000
  0
MTEXT
  5
2FE
100
AcDbEntity
  8
Detail
 62
     7
100
AcDbMText
 10
-211.093768
 20
-225.937541
 30
0.000000
 40
3.750000
 41
353.430000
 71
     7
 72
     5
  1
Capatect Details sind allgemeine planerische Vorschläge. Sie stellen schematisch die Ausführung dar. Ihnen zugrunde liegen die entsprechenden 
  7
Arial
 50
0.000000
  0
MTEXT
  5
2FF
100
AcDbEntity
  8
Detail
 62
     7
100
AcDbMText
 10
-211.093768
 20
-231.562541
 30
0.000000
 40
3.750000
 41
392.765625
 71
     7
 72
     5
  1
Produktdatenblätter sowie Systemzulassungen. Die Möglichkeit der Detailanwendung sowie deren Vollständigkeit sind im speziellen Anwendungsfall vom Planer / 
  7
Arial
 50
0.000000
  0
MTEXT
  5
300
100
AcDbEntity
  8
Detail
 62
     7
100
AcDbMText
 10
-211.093768
 20
-237.187541
 30
0.000000
 40
3.750000
 41
107.887500
 71
     7
 72
     5
  1
Unternehmer eigenverantwortlich zu prüfen. 
  7
Arial
 50
0.000000
  0
ENDBLK
  5
301
100
AcDbEntity
  8
0
100
AcDbBlockEnd
  0
BLOCK
  5
302
100
AcDbEntity
  8
Detail
100
AcDbBlockBegin
  2
B-23
 70
    66
 10
0.000000
 20
0.000000
 30
0.000000
  0
LWPOLYLINE
  5
303
100
AcDbEntity
  8
Detail
  6
CONTINUOUS
 62
     3
100
AcDbPolyline
 90
     5
 10
22.500003
 20
-66.249941
 42
0.000000
 10
14.500003
 20
-66.249941
 42
0.000000
 10
14.500003
 20
133.750059
 42
0.000000
 10
22.500003
 20
133.750059
 42
0.000000
 10
22.500003
 20
-66.249941
 42
0.000000
  0
LWPOLYLINE
  5
309
100
AcDbEntity
  8
Detail
  6
CONTINUOUS
 62
     3
100
AcDbPolyline
 90
     4
 10
-77.499997
 20
296.250078
 42
0.000000
 10
-77.499997
 20
-60.249941
 42
0.000000
 10
2.500003
 20
-60.249941
 42
0.000000
 10
2.500003
 20
296.250078
 42
0.000000
  0
ENDBLK
  5
30E
100
AcDbEntity
  8
0
100
AcDbBlockEnd
  0
BLOCK
  5
30F
100
AcDbEntity
  8
Detail
100
AcDbBlockBegin
  2
B-24
 70
    66
 10
0.000000
 20
0.000000
 30
0.000000
  0
LWPOLYLINE
  5
310
100
AcDbEntity
  8
Detail
  6
CONTINUOUS
 62
     3
100
AcDbPolyline
 90
     7
 10
-79.499997
 20
-30.249941
 42
0.000000
 10
-127.499997
 20
-30.249941
 42
0.000000
 10
-127.499997
 20
-45.249941
 42
0.000000
 10
-124.250013
 20
-45.249941
 42
0.000000
 10
-124.250013
 20
-60.249941
 42
0.000000
 10
-79.499997
 20
-60.249941
 42
0.000000
 10
-79.499997
 20
-30.249941
 42
0.000000
  0
ENDBLK
  5
318
100
AcDbEntity
  8
0
100
AcDbBlockEnd
  0
BLOCK
  5
319
100
AcDbEntity
  8
SCHRAFF
100
AcDbBlockBegin
  2
B-25
 70
    66
 10
0.000000
 20
0.000000
 30
0.000000
  0
HATCH
  5
31A
100
AcDbEntity
  8
SCHRAFF
 62
   250
440
     0
100
AcDbHatch
 10
0.000000
 20
0.000000
 30
0.000000
210
0.000000
220
0.000000
230
1.000000
  2
SOLID
 70
     1
 71
     1
 91
     1
 92
    18
 72
     1
 73
     0
 93
     8
 10
3.000003
 20
-60.749941
 42
0.000000
 10
-20.749997
 20
-60.749941
 42
0.000000
 10
-20.749997
 20
-61.999941
 42
0.000000
 10
4.250003
 20
-61.999941
 42
0.000000
 10
4.250003
 20
-36.999941
 42
0.000000
 10
3.000003
 20
-36.999941
 42
0.000000
 10
3.000003
 20
-60.726077
 42
0.000000
 10
3.000003
 20
-60.749941
 42
0.000000
 97
     0
 75
     0
 76
     1
 98
     0
  0
POLYLINE
  5
31B
100
AcDbEntity
  8
Detail
 66
     1
  6
CONTINUOUS
 62
     4
100
AcDb2dPolyline
  0
VERTEX
  5
31C
100
AcDbEntity
  8
Detail
100
AcDbVertex
100
AcDb2dVertex
 10
-20.749997
 20
-60.749941
 42
0.000000
  0
VERTEX
  5
31D
100
AcDbEntity
  8
Detail
100
AcDbVertex
100
AcDb2dVertex
 10
-20.749997
 20
-61.999941
 42
0.000000
  0
VERTEX
  5
31E
100
AcDbEntity
  8
Detail
100
AcDbVertex
100
AcDb2dVertex
 10
4.250003
 20
-61.999941
 42
0.000000
  0
VERTEX
  5
31F
100
AcDbEntity
  8
Detail
100
AcDbVertex
100
AcDb2dVertex
 10
4.250003
 20
-36.999941
 42
0.000000
  0
VERTEX
  5
320
100
AcDbEntity
  8
Detail
100
AcDbVertex
100
AcDb2dVertex
 10
3.000003
 20
-36.999941
 42
0.000000
  0
VERTEX
  5
321
100
AcDbEntity
  8
Detail
100
AcDbVertex
100
AcDb2dVertex
 10
3.000003
 20
-60.749941
 42
0.000000
  0
VERTEX
  5
322
100
AcDbEntity
  8
Detail
 62
     9
100
AcDbVertex
100
AcDb2dVertex
 10
3.000003
 20
-60.726077
 42
0.000000
  0
VERTEX
  5
323
100
AcDbEntity
  8
Detail
 62
     9
100
AcDbVertex
100
AcDb2dVertex
 10
3.000003
 20
-60.749941
 42
0.000000
  0
VERTEX
  5
324
100
AcDbEntity
  8
Detail
100
AcDbVertex
100
AcDb2dVertex
 10
-20.749997
 20
-60.749941
 42
0.000000
  0
SEQEND
  5
325
100
AcDbEntity
  8
Detail
  0
LWPOLYLINE
  5
326
100
AcDbEntity
  8
Detail
  6
HIDDEN
 62
     9
100
AcDbPolyline
 90
     3
 10
-121.607246
 20
-63.249941
 42
0.000000
 10
7.500003
 20
-63.249941
 42
0.000000
 10
7.500003
 20
296.250078
 42
0.000000
  0
LWPOLYLINE
  5
32A
100
AcDbEntity
  8
Detail
  6
CONTINUOUS
 62
     3
100
AcDbPolyline
 90
     4
 10
14.500003
 20
296.250078
 42
0.000000
 10
14.500003
 20
143.750059
 42
0.000000
 10
22.500003
 20
143.750059
 42
0.000000
 10
22.500003
 20
296.250078
 42
0.000000
  0
ENDBLK
  5
32F
100
AcDbEntity
  8
0
100
AcDbBlockEnd
  0
BLOCK
  5
330
100
AcDbEntity
  8
SCHRAFF
100
AcDbBlockBegin
  2
B-26
 70
    66
 10
0.000000
 20
0.000000
 30
0.000000
  0
HATCH
  5
331
100
AcDbEntity
  8
SCHRAFF
  6
CONTINUOUS
 62
     9
100
AcDbHatch
 10
0.000000
 20
0.000000
 30
0.000000
210
0.000000
220
0.000000
230
1.000000
  2
_U
 70
     0
 71
     1
 91
     1
 92
    18
 72
     1
 73
     0
 93
     7
 10
-124.250013
 20
-60.249941
 42
0.000000
 10
-79.499997
 20
-60.249941
 42
0.000000
 10
-79.499997
 20
-30.249941
 42
0.000000
 10
-127.499997
 20
-30.249941
 42
0.000000
 10
-127.499997
 20
-45.249941
 42
0.000000
 10
-124.250013
 20
-45.249941
 42
0.000000
 10
-124.250013
 20
-60.249941
 42
0.000000
 97
     0
 75
     0
 76
     0
 52
0.000000
 41
1.000000
 77
     0
 78
     1
 53
90.000000
 43
-0.000000
 44
0.000000
 45
-6.875000
 46
0.000000
 79
     0
 98
     0
  0
ENDBLK
  5
332
100
AcDbEntity
  8
0
100
AcDbBlockEnd
  0
BLOCK
  5
333
100
AcDbEntity
  8
Detail
100
AcDbBlockBegin
  2
B-27
 70
    66
 10
0.000000
 20
0.000000
 30
0.000000
  0
LWPOLYLINE
  5
334
100
AcDbEntity
  8
Detail
  6
HIDDEN
 62
     9
100
AcDbPolyline
 90
     2
 10
3.500003
 20
-36.999941
 42
0.000000
 10
3.500003
 20
38.000059
 42
0.000000
  0
ENDBLK
  5
337
100
AcDbEntity
  8
0
100
AcDbBlockEnd
  0
BLOCK
  5
338
100
AcDbEntity
  8
Detail
100
AcDbBlockBegin
  2
B-28
 70
    66
 10
0.000000
 20
0.000000
 30
0.000000
  0
MTEXT
  5
339
100
AcDbEntity
  8
Detail
 62
     7
100
AcDbMText
 10
79.375023
 20
121.249959
 30
0.000000
 40
5.000000
 41
38.902500
 71
     1
 72
     5
  1
Klebemörtel
  7
Arial
 50
0.000000
  0
ENDBLK
  5
33A
100
AcDbEntity
  8
0
100
AcDbBlockEnd
  0
BLOCK
  5
33B
100
AcDbEntity
  8
SCHRAFF
100
AcDbBlockBegin
  2
B-29
 70
    66
 10
0.000000
 20
0.000000
 30
0.000000
  0
HATCH
  5
33C
100
AcDbEntity
  8
SCHRAFF
 62
     7
440
     0
100
AcDbHatch
 10
0.000000
 20
0.000000
 30
0.000000
210
0.000000
220
0.000000
230
1.000000
  2
SOLID
 70
     1
 71
     1
 91
     1
 92
    18
 72
     1
 73
     0
 93
     3
 10
-79.499997
 20
118.750059
 42
1.000000
 10
-80.499997
 20
118.750059
 42
1.000000
 10
-79.499997
 20
118.750059
 42
0.000000
 97
     0
 75
     0
 76
     1
 98
     0
  0
CIRCLE
  5
33D
100
AcDbEntity
  8
Detail
  6
CONTINUOUS
 62
     7
100
AcDbCircle
 10
-79.999997
 20
118.750059
 40
0.500000
  0
LWPOLYLINE
  5
33E
100
AcDbEntity
  8
Detail
  6
CONTINUOUS
 62
     7
100
AcDbPolyline
 90
     2
 10
77.500023
 20
118.750059
 42
0.000000
 10
-79.999997
 20
118.750059
 42
0.000000
  0
ENDBLK
  5
341
100
AcDbEntity
  8
0
100
AcDbBlockEnd
  0
BLOCK
  5
342
100
AcDbEntity
  8
SCHRAFF
100
AcDbBlockBegin
  2
B-30
 70
    66
 10
0.000000
 20
0.000000
 30
0.000000
  0
HATCH
  5
343
100
AcDbEntity
  8
SCHRAFF
 62
     7
440
     0
100
AcDbHatch
 10
0.000000
 20
0.000000
 30
0.000000
210
0.000000
220
0.000000
230
1.000000
  2
SOLID
 70
     1
 71
     1
 91
     1
 92
    18
 72
     1
 73
     0
 93
     3
 10
-36.999997
 20
93.750059
 42
1.000000
 10
-37.999997
 20
93.750059
 42
1.000000
 10
-36.999997
 20
93.750059
 42
0.000000
 97
     0
 75
     0
 76
     1
 98
     0
  0
CIRCLE
  5
344
100
AcDbEntity
  8
Detail
  6
CONTINUOUS
 62
     7
100
AcDbCircle
 10
-37.499997
 20
93.750059
 40
0.500000
  0
LWPOLYLINE
  5
345
100
AcDbEntity
  8
Detail
  6
CONTINUOUS
 62
     7
100
AcDbPolyline
 90
     2
 10
77.500023
 20
93.750059
 42
0.000000
 10
-37.499997
 20
93.750059
 42
0.000000
  0
ENDBLK
  5
348
100
AcDbEntity
  8
0
100
AcDbBlockEnd
  0
BLOCK
  5
349
100
AcDbEntity
  8
Detail
100
AcDbBlockBegin
  2
B-31
 70
    66
 10
0.000000
 20
0.000000
 30
0.000000
  0
MTEXT
  5
34A
100
AcDbEntity
  8
Detail
 62
     7
100
AcDbMText
 10
79.375023
 20
96.249959
 30
0.000000
 40
5.000000
 41
59.482500
 71
     1
 72
     5
  1
WDVS-Dämmstoff
  7
Arial
 50
0.000000
  0
ENDBLK
  5
34B
100
AcDbEntity
  8
0
100
AcDbBlockEnd
  0
BLOCK
  5
34C
100
AcDbEntity
  8
SCHRAFF
100
AcDbBlockBegin
  2
B-32
 70
    66
 10
0.000000
 20
0.000000
 30
0.000000
  0
HATCH
  5
34D
100
AcDbEntity
  8
SCHRAFF
 62
     7
440
     0
100
AcDbHatch
 10
0.000000
 20
0.000000
 30
0.000000
210
0.000000
220
0.000000
230
1.000000
  2
SOLID
 70
     1
 71
     1
 91
     1
 92
    18
 72
     1
 73
     0
 93
     3
 10
9.500003
 20
68.750059
 42
1.000000
 10
8.500003
 20
68.750059
 42
1.000000
 10
9.500003
 20
68.750059
 42
0.000000
 97
     0
 75
     0
 76
     1
 98
     0
  0
CIRCLE
  5
34E
100
AcDbEntity
  8
Detail
  6
CONTINUOUS
 62
     7
100
AcDbCircle
 10
9.000003
 20
68.750059
 40
0.500000
  0
LWPOLYLINE
  5
34F
100
AcDbEntity
  8
Detail
  6
CONTINUOUS
 62
     7
100
AcDbPolyline
 90
     2
 10
78.217929
 20
68.750059
 42
0.000000
 10
9.000003
 20
68.750059
 42
0.000000
  0
ENDBLK
  5
352
100
AcDbEntity
  8
0
100
AcDbBlockEnd
  0
BLOCK
  5
353
100
AcDbEntity
  8
Detail
100
AcDbBlockBegin
  2
B-33
 70
    66
 10
0.000000
 20
0.000000
 30
0.000000
  0
MTEXT
  5
354
100
AcDbEntity
  8
Detail
 62
     7
100
AcDbMText
 10
79.375023
 20
66.249959
 30
0.000000
 40
5.000000
 41
61.110000
 71
     7
 72
     5
  1
Verdübelung durch
  7
Arial
 50
0.000000
  0
MTEXT
  5
355
100
AcDbEntity
  8
Detail
 62
     7
100
AcDbMText
 10
79.375023
 20
58.749959
 30
0.000000
 40
5.000000
 41
59.797500
 71
     7
 72
     5
  1
Gewebearmierung
  7
Arial
 50
0.000000
  0
ENDBLK
  5
356
100
AcDbEntity
  8
0
100
AcDbBlockEnd
  0
BLOCK
  5
357
100
AcDbEntity
  8
Detail
100
AcDbBlockBegin
  2
B-34
 70
    66
 10
0.000000
 20
0.000000
 30
0.000000
  0
MTEXT
  5
358
100
AcDbEntity
  8
Detail
 62
     7
100
AcDbMText
 10
79.375023
 20
41.249959
 30
0.000000
 40
5.000000
 41
71.872500
 71
     7
 72
     5
  1
Armierungsschicht mit
  7
Arial
 50
0.000000
  0
MTEXT
  5
359
100
AcDbEntity
  8
Detail
 62
     7
100
AcDbMText
 10
79.375023
 20
33.749959
 30
0.000000
 40
5.000000
 41
68.827500
 71
     7
 72
     5
  1
Ceratherm Mörtel DP
  7
Arial
 50
0.000000
  0
ENDBLK
  5
35A
100
AcDbEntity
  8
0
100
AcDbBlockEnd
  0
BLOCK
  5
35B
100
AcDbEntity
  8
SCHRAFF
100
AcDbBlockBegin
  2
B-35
 70
    66
 10
0.000000
 20
0.000000
 30
0.000000
  0
HATCH
  5
35C
100
AcDbEntity
  8
SCHRAFF
 62
     7
440
     0
100
AcDbHatch
 10
0.000000
 20
0.000000
 30
0.000000
210
0.000000
220
0.000000
230
1.000000
  2
SOLID
 70
     1
 71
     1
 91
     1
 92
    18
 72
     1
 73
     0
 93
     3
 10
6.000003
 20
43.750059
 42
1.000000
 10
5.000003
 20
43.750059
 42
1.000000
 10
6.000003
 20
43.750059
 42
0.000000
 97
     0
 75
     0
 76
     1
 98
     0
  0
CIRCLE
  5
35D
100
AcDbEntity
  8
Detail
  6
CONTINUOUS
 62
     7
100
AcDbCircle
 10
5.500003
 20
43.750059
 40
0.500000
  0
LWPOLYLINE
  5
35E
100
AcDbEntity
  8
Detail
  6
CONTINUOUS
 62
     7
100
AcDbPolyline
 90
     2
 10
77.500023
 20
43.750059
 42
0.000000
 10
5.500003
 20
43.750059
 42
0.000000
  0
ENDBLK
  5
361
100
AcDbEntity
  8
0
100
AcDbBlockEnd
  0
BLOCK
  5
362
100
AcDbEntity
  8
Detail
100
AcDbBlockBegin
  2
B-36
 70
    66
 10
0.000000
 20
0.000000
 30
0.000000
  0
MTEXT
  5
363
100
AcDbEntity
  8
Detail
 62
     7
100
AcDbMText
 10
79.375023
 20
16.249959
 30
0.000000
 40
5.000000
 41
69.930000
 71
     7
 72
     5
  1
Ausgleichsschicht mit
  7
Arial
 50
0.000000
  0
MTEXT
  5
364
100
AcDbEntity
  8
Detail
 62
     7
100
AcDbMText
 10
79.375023
 20
8.749959
 30
0.000000
 40
5.000000
 41
68.827500
 71
     7
 72
     5
  1
Ceratherm Mörtel DP
  7
Arial
 50
0.000000
  0
ENDBLK
  5
365
100
AcDbEntity
  8
0
100
AcDbBlockEnd
  0
BLOCK
  5
366
100
AcDbEntity
  8
SCHRAFF
100
AcDbBlockBegin
  2
B-37
 70
    66
 10
0.000000
 20
0.000000
 30
0.000000
  0
HATCH
  5
367
100
AcDbEntity
  8
SCHRAFF
 62
     7
440
     0
100
AcDbHatch
 10
0.000000
 20
0.000000
 30
0.000000
210
0.000000
220
0.000000
230
1.000000
  2
SOLID
 70
     1
 71
     1
 91
     1
 92
    18
 72
     1
 73
     0
 93
     3
 10
10.000003
 20
18.750059
 42
1.000000
 10
9.000003
 20
18.750059
 42
1.000000
 10
10.000003
 20
18.750059
 42
0.000000
 97
     0
 75
     0
 76
     1
 98
     0
  0
CIRCLE
  5
368
100
AcDbEntity
  8
Detail
  6
CONTINUOUS
 62
     7
100
AcDbCircle
 10
9.500003
 20
18.750059
 40
0.500000
  0
LWPOLYLINE
  5
369
100
AcDbEntity
  8
Detail
  6
CONTINUOUS
 62
     7
100
AcDbPolyline
 90
     2
 10
77.500023
 20
18.750059
 42
0.000000
 10
9.500003
 20
18.750059
 42
0.000000
  0
ENDBLK
  5
36C
100
AcDbEntity
  8
0
100
AcDbBlockEnd
  0
BLOCK
  5
36D
100
AcDbEntity
  8
Detail
100
AcDbBlockBegin
  2
B-38
 70
    66
 10
0.000000
 20
0.000000
 30
0.000000
  0
MTEXT
  5
36E
100
AcDbEntity
  8
Detail
 62
     7
100
AcDbMText
 10
79.375023
 20
-3.750041
 30
0.000000
 40
5.000000
 41
44.940000
 71
     1
 72
     5
  1
Verlegemörtel
  7
Arial
 50
0.000000
  0
ENDBLK
  5
36F
100
AcDbEntity
  8
0
100
AcDbBlockEnd
  0
BLOCK
  5
370
100
AcDbEntity
  8
SCHRAFF
100
AcDbBlockBegin
  2
B-39
 70
    66
 10
0.000000
 20
0.000000
 30
0.000000
  0
HATCH
  5
371
100
AcDbEntity
  8
SCHRAFF
 62
     7
440
     0
100
AcDbHatch
 10
0.000000
 20
0.000000
 30
0.000000
210
0.000000
220
0.000000
230
1.000000
  2
SOLID
 70
     1
 71
     1
 91
     1
 92
    18
 72
     1
 73
     0
 93
     3
 10
13.000003
 20
-6.249941
 42
1.000000
 10
12.000003
 20
-6.249941
 42
1.000000
 10
13.000003
 20
-6.249941
 42
0.000000
 97
     0
 75
     0
 76
     1
 98
     0
  0
CIRCLE
  5
372
100
AcDbEntity
  8
Detail
  6
CONTINUOUS
 62
     7
100
AcDbCircle
 10
12.500003
 20
-6.249941
 40
0.500000
  0
LWPOLYLINE
  5
373
100
AcDbEntity
  8
Detail
  6
CONTINUOUS
 62
     7
100
AcDbPolyline
 90
     2
 10
77.500023
 20
-6.249941
 42
0.000000
 10
12.500003
 20
-6.249941
 42
0.000000
  0
ENDBLK
  5
376
100
AcDbEntity
  8
0
100
AcDbBlockEnd
  0
BLOCK
  5
377
100
AcDbEntity
  8
SCHRAFF
100
AcDbBlockBegin
  2
B-40
 70
    66
 10
0.000000
 20
0.000000
 30
0.000000
  0
HATCH
  5
378
100
AcDbEntity
  8
SCHRAFF
 62
     7
440
     0
100
AcDbHatch
 10
0.000000
 20
0.000000
 30
0.000000
210
0.000000
220
0.000000
230
1.000000
  2
SOLID
 70
     1
 71
     1
 91
     1
 92
    18
 72
     1
 73
     0
 93
     3
 10
19.000003
 20
-31.249941
 42
1.000000
 10
18.000003
 20
-31.249941
 42
1.000000
 10
19.000003
 20
-31.249941
 42
0.000000
 97
     0
 75
     0
 76
     1
 98
     0
  0
CIRCLE
  5
379
100
AcDbEntity
  8
Detail
  6
CONTINUOUS
 62
     7
100
AcDbCircle
 10
18.500003
 20
-31.249941
 40
0.500000
  0
LWPOLYLINE
  5
37A
100
AcDbEntity
  8
Detail
  6
CONTINUOUS
 62
     7
100
AcDbPolyline
 90
     2
 10
77.500023
 20
-31.249941
 42
0.000000
 10
18.500003
 20
-31.249941
 42
0.000000
  0
ENDBLK
  5
37D
100
AcDbEntity
  8
0
100
AcDbBlockEnd
  0
BLOCK
  5
37E
100
AcDbEntity
  8
Detail
100
AcDbBlockBegin
  2
B-41
 70
    66
 10
0.000000
 20
0.000000
 30
0.000000
  0
MTEXT
  5
37F
100
AcDbEntity
  8
Detail
 62
     7
100
AcDbMText
 10
79.375023
 20
-28.750041
 30
0.000000
 40
5.000000
 41
48.982500
 71
     1
 72
     5
  1
Hartbekleidung
  7
Arial
 50
0.000000
  0
ENDBLK
  5
380
100
AcDbEntity
  8
0
100
AcDbBlockEnd
  0
BLOCK
  5
381
100
AcDbEntity
  8
SCHRAFF
100
AcDbBlockBegin
  2
B-42
 70
    66
 10
0.000000
 20
0.000000
 30
0.000000
  0
HATCH
  5
382
100
AcDbEntity
  8
SCHRAFF
 62
     7
440
     0
100
AcDbHatch
 10
0.000000
 20
0.000000
 30
0.000000
210
0.000000
220
0.000000
230
1.000000
  2
SOLID
 70
     1
 71
     1
 91
     1
 92
    18
 72
     1
 73
     0
 93
     3
 10
4.125003
 20
-56.249941
 42
1.000000
 10
3.125003
 20
-56.249941
 42
1.000000
 10
4.125003
 20
-56.249941
 42
0.000000
 97
     0
 75
     0
 76
     1
 98
     0
  0
CIRCLE
  5
383
100
AcDbEntity
  8
Detail
  6
CONTINUOUS
 62
     7
100
AcDbCircle
 10
3.625003
 20
-56.249941
 40
0.500000
  0
LWPOLYLINE
  5
384
100
AcDbEntity
  8
Detail
  6
CONTINUOUS
 62
     7
100
AcDbPolyline
 90
     2
 10
77.500023
 20
-56.249941
 42
0.000000
 10
3.625003
 20
-56.249941
 42
0.000000
  0
ENDBLK
  5
387
100
AcDbEntity
  8
0
100
AcDbBlockEnd
  0
BLOCK
  5
388
100
AcDbEntity
  8
Detail
100
AcDbBlockBegin
  2
B-43
 70
    66
 10
0.000000
 20
0.000000
 30
0.000000
  0
MTEXT
  5
389
100
AcDbEntity
  8
Detail
 62
     7
100
AcDbMText
 10
79.375023
 20
-53.750041
 30
0.000000
 40
5.000000
 41
62.842500
 71
     1
 72
     5
  1
Gewebe-Eckschutz
  7
Arial
 50
0.000000
  0
ENDBLK
  5
38A
100
AcDbEntity
  8
0
100
AcDbBlockEnd
  0
BLOCK
  5
38B
100
AcDbEntity
  8
Detail
100
AcDbBlockBegin
  2
B-44
 70
    66
 10
0.000000
 20
0.000000
 30
0.000000
  0
LWPOLYLINE
  5
38C
100
AcDbEntity
  8
Detail
  6
HIDDEN
 62
     9
100
AcDbPolyline
 90
     2
 10
-20.749997
 20
-61.249941
 42
0.000000
 10
-95.749997
 20
-61.249941
 42
0.000000
  0
ENDBLK
  5
38F
100
AcDbEntity
  8
0
100
AcDbBlockEnd
  0
BLOCK
  5
390
100
AcDbEntity
  8
Detail
100
AcDbBlockBegin
  2
B-45
 70
    66
 10
0.000000
 20
0.000000
 30
0.000000
  0
MTEXT
  5
391
100
AcDbEntity
  8
Detail
 62
     7
100
AcDbMText
 10
79.375023
 20
-78.749941
 30
0.000000
 40
5.000000
 41
67.305000
 71
     1
 72
     5
  1
elastischer Dichtstoff
  7
Arial
 50
0.000000
  0
ENDBLK
  5
392
100
AcDbEntity
  8
0
100
AcDbBlockEnd
  0
BLOCK
  5
393
100
AcDbEntity
  8
SCHRAFF
100
AcDbBlockBegin
  2
B-46
 70
    66
 10
0.000000
 20
0.000000
 30
0.000000
  0
HATCH
  5
394
100
AcDbEntity
  8
SCHRAFF
 62
     7
440
     0
100
AcDbHatch
 10
0.000000
 20
0.000000
 30
0.000000
210
0.000000
220
0.000000
230
1.000000
  2
SOLID
 70
     1
 71
     1
 91
     1
 92
    18
 72
     1
 73
     0
 93
     3
 10
12.000003
 20
-62.499941
 42
1.000000
 10
11.000003
 20
-62.499941
 42
1.000000
 10
12.000003
 20
-62.499941
 42
0.000000
 97
     0
 75
     0
 76
     1
 98
     0
  0
LWPOLYLINE
  5
395
100
AcDbEntity
  8
Detail
  6
CONTINUOUS
 62
     7
100
AcDbPolyline
 90
     3
 10
77.500023
 20
-81.249941
 42
0.000000
 10
11.500003
 20
-81.249941
 42
0.000000
 10
11.500003
 20
-62.499941
 42
0.000000
  0
CIRCLE
  5
399
100
AcDbEntity
  8
Detail
  6
CONTINUOUS
 62
     7
100
AcDbCircle
 10
11.500003
 20
-62.499941
 40
0.500000
  0
ENDBLK
  5
39A
100
AcDbEntity
  8
0
100
AcDbBlockEnd
  0
BLOCK
  5
39B
100
AcDbEntity
  8
Detail
100
AcDbBlockBegin
  2
B-47
 70
    66
 10
0.000000
 20
0.000000
 30
0.000000
  0
MTEXT
  5
39C
100
AcDbEntity
  8
Detail
 62
     7
100
AcDbMText
 10
79.375023
 20
-103.750037
 30
0.000000
 40
4.999985
 41
62.947311
 71
     1
 72
     5
  1
Putzabschlussprofil
  7
Arial
 50
0.000000
  0
ENDBLK
  5
39D
100
AcDbEntity
  8
0
100
AcDbBlockEnd
  0
BLOCK
  5
39E
100
AcDbEntity
  8
SCHRAFF
100
AcDbBlockBegin
  2
B-48
 70
    66
 10
0.000000
 20
0.000000
 30
0.000000
  0
HATCH
  5
39F
100
AcDbEntity
  8
SCHRAFF
 62
     7
440
     0
100
AcDbHatch
 10
0.000000
 20
0.000000
 30
0.000000
210
0.000000
220
0.000000
230
1.000000
  2
SOLID
 70
     1
 71
     1
 91
     1
 92
    18
 72
     1
 73
     0
 93
     3
 10
-6.999997
 20
-64.874941
 42
1.000000
 10
-7.999997
 20
-64.874941
 42
1.000000
 10
-6.999997
 20
-64.874941
 42
0.000000
 97
     0
 75
     0
 76
     1
 98
     0
  0
CIRCLE
  5
3A0
100
AcDbEntity
  8
Detail
  6
CONTINUOUS
 62
     7
100
AcDbCircle
 10
-7.499997
 20
-64.874941
 40
0.500000
  0
LWPOLYLINE
  5
3A1
100
AcDbEntity
  8
Detail
  6
CONTINUOUS
 62
     7
100
AcDbPolyline
 90
     3
 10
77.500023
 20
-106.249941
 42
0.000000
 10
-7.499997
 20
-106.249941
 42
0.000000
 10
-7.499997
 20
-64.874941
 42
0.000000
  0
ENDBLK
  5
3A5
100
AcDbEntity
  8
0
100
AcDbBlockEnd
  0
BLOCK
  5
3A6
100
AcDbEntity
  8
Detail
100
AcDbBlockBegin
  2
B-49
 70
    66
 10
0.000000
 20
0.000000
 30
0.000000
  0
MTEXT
  5
3A7
100
AcDbEntity
  8
Detail
 62
     7
100
AcDbMText
 10
79.375023
 20
-128.750041
 30
0.000000
 40
5.000000
 41
60.060000
 71
     1
 72
     5
  1
Armierungsschicht
  7
Arial
 50
0.000000
  0
ENDBLK
  5
3A8
100
AcDbEntity
  8
0
100
AcDbBlockEnd
  0
BLOCK
  5
3A9
100
AcDbEntity
  8
SCHRAFF
100
AcDbBlockBegin
  2
B-50
 70
    66
 10
0.000000
 20
0.000000
 30
0.000000
  0
HATCH
  5
3AA
100
AcDbEntity
  8
SCHRAFF
 62
     7
440
     0
100
AcDbHatch
 10
0.000000
 20
0.000000
 30
0.000000
210
0.000000
220
0.000000
230
1.000000
  2
SOLID
 70
     1
 71
     1
 91
     1
 92
    18
 72
     1
 73
     0
 93
     3
 10
-31.999997
 20
-62.249941
 42
1.000000
 10
-32.999997
 20
-62.249941
 42
1.000000
 10
-31.999997
 20
-62.249941
 42
0.000000
 97
     0
 75
     0
 76
     1
 98
     0
  0
CIRCLE
  5
3AB
100
AcDbEntity
  8
Detail
  6
CONTINUOUS
 62
     7
100
AcDbCircle
 10
-32.499997
 20
-62.249941
 40
0.500000
  0
ENDBLK
  5
3AC
100
AcDbEntity
  8
0
100
AcDbBlockEnd
  0
BLOCK
  5
3AD
100
AcDbEntity
  8
Detail
100
AcDbBlockBegin
  2
B-51
 70
    66
 10
0.000000
 20
0.000000
 30
0.000000
  0
MTEXT
  5
3AE
100
AcDbEntity
  8
Detail
 62
     7
100
AcDbMText
 10
79.375023
 20
-153.750041
 30
0.000000
 40
5.000000
 41
32.497500
 71
     1
 72
     5
  1
Deckputz 
  7
Arial
 50
0.000000
  0
ENDBLK
  5
3AF
100
AcDbEntity
  8
0
100
AcDbBlockEnd
  0
BLOCK
  5
3B0
100
AcDbEntity
  8
Detail
100
AcDbBlockBegin
  2
B-52
 70
    66
 10
0.000000
 20
0.000000
 30
0.000000
  0
LWPOLYLINE
  5
3B1
100
AcDbEntity
  8
Detail
  6
CONTINUOUS
 62
     7
100
AcDbPolyline
 90
     3
 10
77.500023
 20
-156.249941
 42
0.000000
 10
-57.499997
 20
-156.249941
 42
0.000000
 10
-57.499997
 20
-65.249941
 42
0.000000
  0
ENDBLK
  5
3B5
100
AcDbEntity
  8
0
100
AcDbBlockEnd
  0
BLOCK
  5
3B6
100
AcDbEntity
  8
Detail
100
AcDbBlockBegin
  2
B-53
 70
    66
 10
0.000000
 20
0.000000
 30
0.000000
  0
MTEXT
  5
3B7
100
AcDbEntity
  8
Detail
 62
     7
100
AcDbMText
 10
79.375023
 20
-178.750041
 30
0.000000
 40
5.000000
 41
39.795000
 71
     1
 72
     5
  1
Anputzleiste
  7
Arial
 50
0.000000
  0
ENDBLK
  5
3B8
100
AcDbEntity
  8
0
100
AcDbBlockEnd
  0
BLOCK
  5
3B9
100
AcDbEntity
  8
SCHRAFF
100
AcDbBlockBegin
  2
B-54
 70
    66
 10
0.000000
 20
0.000000
 30
0.000000
  0
HATCH
  5
3BA
100
AcDbEntity
  8
SCHRAFF
 62
     7
440
     0
100
AcDbHatch
 10
0.000000
 20
0.000000
 30
0.000000
210
0.000000
220
0.000000
230
1.000000
  2
SOLID
 70
     1
 71
     1
 91
     1
 92
    18
 72
     1
 73
     0
 93
     3
 10
-56.999997
 20
-65.249941
 42
1.000000
 10
-57.999997
 20
-65.249941
 42
1.000000
 10
-56.999997
 20
-65.249941
 42
0.000000
 97
     0
 75
     0
 76
     1
 98
     0
  0
CIRCLE
  5
3BB
100
AcDbEntity
  8
Detail
  6
CONTINUOUS
 62
     7
100
AcDbCircle
 10
-57.499997
 20
-65.249941
 40
0.500000
  0
ENDBLK
  5
3BC
100
AcDbEntity
  8
0
100
AcDbBlockEnd
  0
BLOCK
  5
3BD
100
AcDbEntity
  8
Detail
100
AcDbBlockBegin
  2
B-55
 70
    66
 10
0.000000
 20
0.000000
 30
0.000000
  0
LWPOLYLINE
  5
3BE
100
AcDbEntity
  8
Detail
  6
CONTINUOUS
 62
     6
100
AcDbPolyline
 90
     2
 10
237.500023
 20
-246.249941
 42
0.000000
 10
-237.500018
 20
-246.249941
 42
0.000000
  0
ENDBLK
  5
3C1
100
AcDbEntity
  8
0
100
AcDbBlockEnd
  0
BLOCK
  5
3C2
100
AcDbEntity
  8
Detail
100
AcDbBlockBegin
  2
B-56
 70
    66
 10
0.000000
 20
0.000000
 30
0.000000
  0
LWPOLYLINE
  5
3C3
100
AcDbEntity
  8
Detail
  6
CONTINUOUS
 62
     9
100
AcDbPolyline
 90
    17
 10
-187.999995
 20
-27.749941
 42
-0.262676
 10
-187.568430
 20
-26.985142
 42
-0.082357
 10
-185.049744
 20
-25.982174
 42
-0.034537
 10
-181.781897
 20
-25.440242
 42
-0.024669
 10
-177.927208
 20
-25.249941
 42
-0.024669
 10
-174.072520
 20
-25.440242
 42
-0.034537
 10
-170.804672
 20
-25.982174
 42
-0.082357
 10
-168.285987
 20
-26.985142
 42
-0.262676
 10
-167.854421
 20
-27.749941
 42
-0.262676
 10
-168.285987
 20
-28.514740
 42
-0.082357
 10
-170.804672
 20
-29.517708
 42
-0.034537
 10
-174.072520
 20
-30.059640
 42
-0.024669
 10
-177.927208
 20
-30.249941
 42
-0.024669
 10
-181.781897
 20
-30.059640
 42
-0.034537
 10
-185.049744
 20
-29.517708
 42
-0.082357
 10
-187.568430
 20
-28.514740
 42
-0.262676
 10
-187.999995
 20
-27.749941
 42
0.000000
  0
ENDBLK
  5
3D5
100
AcDbEntity
  8
0
100
AcDbBlockEnd
  0
BLOCK
  5
3D6
100
AcDbEntity
  8
Detail
100
AcDbBlockBegin
  2
B-57
 70
    66
 10
0.000000
 20
0.000000
 30
0.000000
  0
LWPOLYLINE
  5
3D7
100
AcDbEntity
  8
Detail
  6
CONTINUOUS
 62
     9
100
AcDbPolyline
 90
    17
 10
-184.373792
 20
-27.749941
 42
-0.262676
 10
-184.097590
 20
-27.260469
 42
-0.082357
 10
-182.485631
 20
-26.618570
 42
-0.034537
 10
-180.394209
 20
-26.271734
 42
-0.024669
 10
-177.927208
 20
-26.149941
 42
-0.024669
 10
-175.460208
 20
-26.271734
 42
-0.034537
 10
-173.368785
 20
-26.618570
 42
-0.082357
 10
-171.756827
 20
-27.260469
 42
-0.262676
 10
-171.480625
 20
-27.749941
 42
-0.262676
 10
-171.756827
 20
-28.239412
 42
-0.082357
 10
-173.368785
 20
-28.881312
 42
-0.034537
 10
-175.460208
 20
-29.228148
 42
-0.024669
 10
-177.927208
 20
-29.349941
 42
-0.024669
 10
-180.394209
 20
-29.228148
 42
-0.034537
 10
-182.485631
 20
-28.881312
 42
-0.082357
 10
-184.097590
 20
-28.239412
 42
-0.262676
 10
-184.373792
 20
-27.749941
 42
0.000000
  0
ENDBLK
  5
3E9
100
AcDbEntity
  8
0
100
AcDbBlockEnd
  0
BLOCK
  5
3EA
100
AcDbEntity
  8
Detail
100
AcDbBlockBegin
  2
B-58
 70
    66
 10
0.000000
 20
0.000000
 30
0.000000
  0
LWPOLYLINE
  5
3EB
100
AcDbEntity
  8
Detail
  6
CONTINUOUS
 62
     9
100
AcDbPolyline
 90
    17
 10
-138.626201
 20
-27.749941
 42
0.262676
 10
-138.902403
 20
-27.260469
 42
0.082357
 10
-140.514361
 20
-26.618570
 42
0.034537
 10
-142.605784
 20
-26.271734
 42
0.024669
 10
-145.072784
 20
-26.149941
 42
0.024669
 10
-147.539785
 20
-26.271734
 42
0.034537
 10
-149.631208
 20
-26.618570
 42
0.082357
 10
-151.243166
 20
-27.260469
 42
0.262676
 10
-151.519368
 20
-27.749941
 42
0.262676
 10
-151.243166
 20
-28.239412
 42
0.082357
 10
-149.631208
 20
-28.881312
 42
0.034537
 10
-147.539785
 20
-29.228148
 42
0.024669
 10
-145.072784
 20
-29.349941
 42
0.024669
 10
-142.605784
 20
-29.228148
 42
0.034537
 10
-140.514361
 20
-28.881312
 42
0.082357
 10
-138.902403
 20
-28.239412
 42
0.262676
 10
-138.626201
 20
-27.749941
 42
0.000000
  0
ENDBLK
  5
3FD
100
AcDbEntity
  8
0
100
AcDbBlockEnd
  0
BLOCK
  5
3FE
100
AcDbEntity
  8
Detail
100
AcDbBlockBegin
  2
B-59
 70
    66
 10
0.000000
 20
0.000000
 30
0.000000
  0
LWPOLYLINE
  5
3FF
100
AcDbEntity
  8
Detail
  6
CONTINUOUS
 62
     9
100
AcDbPolyline
 90
    17
 10
-134.999997
 20
-27.749941
 42
0.262676
 10
-135.431563
 20
-26.985142
 42
0.082357
 10
-137.950248
 20
-25.982174
 42
0.034537
 10
-141.218096
 20
-25.440242
 42
0.024669
 10
-145.072784
 20
-25.249941
 42
0.024669
 10
-148.927473
 20
-25.440242
 42
0.034537
 10
-152.195320
 20
-25.982174
 42
0.082357
 10
-154.714006
 20
-26.985142
 42
0.262676
 10
-155.145571
 20
-27.749941
 42
0.262676
 10
-154.714006
 20
-28.514740
 42
0.082357
 10
-152.195320
 20
-29.517708
 42
0.034537
 10
-148.927473
 20
-30.059640
 42
0.024669
 10
-145.072784
 20
-30.249941
 42
0.024669
 10
-141.218096
 20
-30.059640
 42
0.034537
 10
-137.950248
 20
-29.517708
 42
0.082357
 10
-135.431563
 20
-28.514740
 42
0.262676
 10
-134.999997
 20
-27.749941
 42
0.000000
  0
ENDBLK
  5
411
100
AcDbEntity
  8
0
100
AcDbBlockEnd
  0
BLOCK
  5
412
100
AcDbEntity
  8
Detail
100
AcDbBlockBegin
  2
B-60
 70
    66
 10
0.000000
 20
0.000000
 30
0.000000
  0
ENDBLK
  5
413
100
AcDbEntity
  8
0
100
AcDbBlockEnd
  0
BLOCK
  5
414
100
AcDbEntity
  8
Detail
100
AcDbBlockBegin
  2
B-61
 70
    66
 10
0.000000
 20
0.000000
 30
0.000000
  0
LWPOLYLINE
  5
415
100
AcDbEntity
  8
Detail
  6
HIDDEN
 62
     9
100
AcDbPolyline
 90
     2
 10
-21.499997
 20
-64.874941
 42
0.000000
 10
-91.499997
 20
-64.874941
 42
0.000000
  0
ENDBLK
  5
418
100
AcDbEntity
  8
0
100
AcDbBlockEnd
  0
BLOCK
  5
419
100
AcDbEntity
  8
Detail
100
AcDbBlockBegin
  2
B-62
 70
    66
 10
0.000000
 20
0.000000
 30
0.000000
  0
LWPOLYLINE
  5
41A
100
AcDbEntity
  8
Detail
  6
CONTINUOUS
 62
     2
100
AcDbPolyline
 90
     3
 10
-82.499997
 20
296.250078
 42
0.000000
 10
-82.499997
 20
-25.249941
 42
0.000000
 10
-212.500018
 20
-25.249941
 42
0.000000
  0
ENDBLK
  5
41E
100
AcDbEntity
  8
0
100
AcDbBlockEnd
  0
BLOCK
  5
41F
100
AcDbEntity
  8
SCHRAFF
100
AcDbBlockBegin
  2
glasleiste
 70
    66
 10
0.000000
 20
0.000000
 30
0.000000
  0
HATCH
  5
420
100
AcDbEntity
  8
SCHRAFF
  6
CONTINUOUS
 62
     9
100
AcDbHatch
 10
0.000000
 20
0.000000
 30
0.000000
210
0.000000
220
0.000000
230
1.000000
  2
_U
 70
     0
 71
     1
 91
     1
 92
    18
 72
     1
 73
     0
 93
    15
 10
-190.292238
 20
-165.249940
 42
0.000000
 10
-208.009874
 20
-160.502514
 42
-0.339455
 10
-209.492236
 20
-158.570662
 42
0.000000
 10
-209.492236
 20
-149.249940
 42
-0.414214
 10
-207.492236
 20
-147.249940
 42
0.000000
 10
-206.492236
 20
-147.249941
 42
0.000000
 10
-185.292238
 20
-147.249940
 42
0.000000
 10
-185.292238
 20
-157.249940
 42
0.000000
 10
-185.492238
 20
-157.249940
 42
0.000000
 10
-189.492238
 20
-157.249940
 42
0.000000
 10
-190.992238
 20
-159.249940
 42
0.000000
 10
-190.992238
 20
-161.249940
 42
0.000000
 10
-189.492238
 20
-161.249940
 42
0.000000
 10
-189.492238
 20
-164.270145
 42
-0.356393
 10
-190.292238
 20
-165.249940
 42
0.000000
 97
     0
 75
     0
 76
     0
 52
0.000000
 41
1.000000
 77
     0
 78
     1
 53
45.000000
 43
-0.000000
 44
0.000000
 45
-2.209709
 46
2.209709
 79
     0
 98
     0
  0
LWPOLYLINE
  5
421
100
AcDbEntity
  8
Detail
  6
CONTINUOUS
 62
     3
100
AcDbPolyline
 90
     2
 10
-208.009875
 20
-160.502513
 42
0.000000
 10
-190.292238
 20
-165.249939
 42
0.000000
  0
LWPOLYLINE
  5
424
100
AcDbEntity
  8
Detail
  6
CONTINUOUS
 62
     4
100
AcDbPolyline
 90
     2
 10
-184.492238
 20
-167.249939
 42
0.000000
 10
-190.292238
 20
-165.249939
 42
0.000000
  0
LWPOLYLINE
  5
427
100
AcDbEntity
  8
Detail
  6
CONTINUOUS
 62
     4
100
AcDbPolyline
 90
     2
 10
-184.492238
 20
-158.249939
 42
0.000000
 10
-184.492238
 20
-167.249939
 42
0.000000
  0
LWPOLYLINE
  5
42A
100
AcDbEntity
  8
Detail
  6
CONTINUOUS
 62
     3
100
AcDbPolyline
 90
     2
 10
-185.292238
 20
-157.249939
 42
0.000000
 10
-185.292238
 20
-147.249939
 42
0.000000
  0
LWPOLYLINE
  5
42D
100
AcDbEntity
  8
Detail
  6
CONTINUOUS
 62
     4
100
AcDbPolyline
 90
     2
 10
-185.492238
 20
-157.249939
 42
-0.414214
 10
-184.492238
 20
-158.249939
 42
0.000000
  0
LWPOLYLINE
  5
430
100
AcDbEntity
  8
Detail
  6
CONTINUOUS
 62
     3
100
AcDbPolyline
 90
     2
 10
-189.492238
 20
-157.249939
 42
0.000000
 10
-185.292238
 20
-157.249939
 42
0.000000
  0
LWPOLYLINE
  5
433
100
AcDbEntity
  8
Detail
  6
CONTINUOUS
 62
     3
100
AcDbPolyline
 90
     2
 10
-190.992238
 20
-159.249939
 42
0.000000
 10
-189.492238
 20
-157.249939
 42
0.000000
  0
LWPOLYLINE
  5
436
100
AcDbEntity
  8
Detail
  6
CONTINUOUS
 62
     3
100
AcDbPolyline
 90
     2
 10
-190.992238
 20
-161.249939
 42
0.000000
 10
-190.992238
 20
-159.249939
 42
0.000000
  0
LWPOLYLINE
  5
439
100
AcDbEntity
  8
Detail
  6
CONTINUOUS
 62
     3
100
AcDbPolyline
 90
     3
 10
-189.492238
 20
-164.270143
 42
0.000000
 10
-189.492238
 20
-161.249939
 42
0.000000
 10
-190.992238
 20
-161.249939
 42
0.000000
  0
LWPOLYLINE
  5
43D
100
AcDbEntity
  8
Detail
  6
CONTINUOUS
 62
     3
100
AcDbPolyline
 90
     2
 10
-190.292238
 20
-165.249939
 42
0.356394
 10
-189.492238
 20
-164.270144
 42
0.000000
  0
LWPOLYLINE
  5
440
100
AcDbEntity
  8
Detail
  6
CONTINUOUS
 62
     3
100
AcDbPolyline
 90
     3
 10
-209.492237
 20
-149.249939
 42
0.000000
 10
-209.492237
 20
-158.570661
 42
0.339454
 10
-208.009874
 20
-160.502512
 42
0.000000
  0
LWPOLYLINE
  5
444
100
AcDbEntity
  8
Detail
  6
CONTINUOUS
 62
     3
100
AcDbPolyline
 90
     2
 10
-207.492237
 20
-147.249939
 42
0.414214
 10
-209.492237
 20
-149.249939
 42
0.000000
  0
LWPOLYLINE
  5
447
100
AcDbEntity
  8
Detail
  6
CONTINUOUS
 62
     3
100
AcDbPolyline
 90
     2
 10
-185.292238
 20
-147.249939
 42
0.000000
 10
-207.492237
 20
-147.249939
 42
0.000000
  0
ENDBLK
  5
44A
100
AcDbEntity
  8
0
100
AcDbBlockEnd
  0
BLOCK
  5
44B
100
AcDbEntity
  8
Detail
100
AcDbBlockBegin
  2
glas
 70
    66
 10
0.000000
 20
0.000000
 30
0.000000
  0
LWPOLYLINE
  5
44C
100
AcDbEntity
  8
Detail
  6
CONTINUOUS
 62
     4
100
AcDbPolyline
 90
     2
 10
-164.500048
 20
-152.249939
 42
0.000000
 10
-164.500048
 20
-192.988533
 42
0.000000
  0
LWPOLYLINE
  5
44F
100
AcDbEntity
  8
Detail
  6
CONTINUOUS
 62
     4
100
AcDbPolyline
 90
     2
 10
-180.492236
 20
-152.249941
 42
0.000000
 10
-180.492236
 20
-192.988535
 42
0.000000
  0
LWPOLYLINE
  5
452
100
AcDbEntity
  8
Detail
  6
CONTINUOUS
 62
     4
100
AcDbPolyline
 90
     2
 10
-180.492236
 20
-166.249941
 42
0.000000
 10
-164.500048
 20
-166.249939
 42
0.000000
  0
LWPOLYLINE
  5
455
100
AcDbEntity
  8
Detail
  6
CONTINUOUS
 62
     4
100
AcDbPolyline
 90
     2
 10
-184.492237
 20
-192.988536
 42
0.000000
 10
-184.492237
 20
-152.249942
 42
0.000000
  0
LWPOLYLINE
  5
458
100
AcDbEntity
  8
Detail
  6
CONTINUOUS
 62
     4
100
AcDbPolyline
 90
     2
 10
-160.500049
 20
-152.249940
 42
0.000000
 10
-160.500049
 20
-192.988534
 42
0.000000
  0
LWPOLYLINE
  5
45B
100
AcDbEntity
  8
Detail
  6
CONTINUOUS
 62
     4
100
AcDbPolyline
 90
     2
 10
-184.492237
 20
-152.249942
 42
0.000000
 10
-180.492236
 20
-152.249941
 42
0.000000
  0
LWPOLYLINE
  5
45E
100
AcDbEntity
  8
Detail
  6
CONTINUOUS
 62
     4
100
AcDbPolyline
 90
     2
 10
-164.500048
 20
-152.249939
 42
0.000000
 10
-160.500049
 20
-152.249940
 42
0.000000
  0
LWPOLYLINE
  5
461
100
AcDbEntity
  8
Detail
  6
CONTINUOUS
 62
     4
100
AcDbPolyline
 90
     2
 10
-164.500048
 20
-152.249939
 42
0.000000
 10
-180.492236
 20
-152.249941
 42
0.000000
  0
LWPOLYLINE
  5
464
100
AcDbEntity
  8
Detail
  6
CONTINUOUS
 62
     4
100
AcDbPolyline
 90
     2
 10
-164.500048
 20
-156.249939
 42
0.000000
 10
-180.492236
 20
-156.249941
 42
0.000000
  0
ENDBLK
  5
467
100
AcDbEntity
  8
0
100
AcDbBlockEnd
  0
BLOCK
  5
468
100
AcDbEntity
  8
SCHRAFF
100
AcDbBlockBegin
  2
rahmen
 70
    66
 10
0.000000
 20
0.000000
 30
0.000000
  0
HATCH
  5
469
100
AcDbEntity
  8
SCHRAFF
  6
CONTINUOUS
 62
     9
100
AcDbHatch
 10
0.000000
 20
0.000000
 30
0.000000
210
0.000000
220
0.000000
230
1.000000
  2
_U
 70
     0
 71
     1
 91
     1
 92
    18
 72
     1
 73
     0
 93
    31
 10
-159.700014
 20
-100.249941
 42
0.000000
 10
-163.700013
 20
-100.249941
 42
0.000000
 10
-163.700013
 20
-107.749939
 42
0.000000
 10
-164.200013
 20
-108.249939
 42
0.000000
 10
-168.000013
 20
-108.249939
 42
-0.414214
 10
-169.500013
 20
-106.749939
 42
0.000000
 10
-169.500013
 20
-102.249939
 42
0.414213
 10
-171.500013
 20
-100.249941
 42
0.000000
 10
-174.500013
 20
-100.249941
 42
-0.414214
 10
-175.500013
 20
-99.249940
 42
0.000000
 10
-175.500012
 20
-96.249940
 42
0.000000
 10
-183.500013
 20
-96.249940
 42
0.000000
 10
-183.500013
 20
-99.249940
 42
-0.414214
 10
-184.500013
 20
-100.249941
 42
0.000000
 10
-189.000012
 20
-100.249941
 42
-0.414214
 10
-190.500013
 20
-98.749941
 42
0.000000
 10
-190.500012
 20
-31.749941
 42
0.000000
 10
-189.000012
 20
-30.249941
 42
0.000000
 10
-134.000015
 20
-30.249941
 42
0.000000
 10
-132.500015
 20
-31.749941
 42
0.000000
 10
-132.500015
 20
-125.062642
 42
-0.339454
 10
-134.352967
 20
-127.477456
 42
0.000000
 10
-143.991196
 20
-130.060011
 42
-0.493145
 10
-145.250015
 20
-129.094085
 42
0.000000
 10
-145.250015
 20
-113.749939
 42
0.414213
 10
-146.750014
 20
-112.249939
 42
0.000000
 10
-158.500015
 20
-112.249939
 42
-0.414213
 10
-159.500014
 20
-111.249939
 42
0.000000
 10
-159.500014
 20
-108.249939
 42
0.000000
 10
-159.700014
 20
-108.249939
 42
0.000000
 10
-159.700014
 20
-100.249941
 42
0.000000
 97
     0
 75
     0
 76
     0
 52
0.000000
 41
1.000000
 77
     0
 78
     1
 53
45.000003
 43
-0.000000
 44
0.000000
 45
-2.209709
 46
2.209709
 79
     0
 98
     0
  0
LWPOLYLINE
  5
46A
100
AcDbEntity
  8
Detail
  6
CONTINUOUS
 62
     3
100
AcDbPolyline
 90
    31
 10
-163.700013
 20
-107.749940
 42
0.000000
 10
-163.700013
 20
-100.249940
 42
0.000000
 10
-159.700013
 20
-100.249940
 42
0.000000
 10
-159.700013
 20
-108.249940
 42
0.000000
 10
-159.500013
 20
-108.249940
 42
0.000000
 10
-159.500013
 20
-111.249940
 42
0.414214
 10
-158.500013
 20
-112.249940
 42
0.000000
 10
-146.750013
 20
-112.249940
 42
-0.414214
 10
-145.250013
 20
-113.749940
 42
0.000000
 10
-145.250013
 20
-129.094086
 42
0.493145
 10
-143.991194
 20
-130.060012
 42
0.000000
 10
-134.352966
 20
-127.477457
 42
0.339454
 10
-132.500013
 20
-125.062642
 42
0.000000
 10
-132.500013
 20
-31.749940
 42
0.000000
 10
-134.000013
 20
-30.249940
 42
0.000000
 10
-189.000013
 20
-30.249940
 42
0.000000
 10
-190.500013
 20
-31.749940
 42
0.000000
 10
-190.500013
 20
-98.749940
 42
0.414214
 10
-189.000013
 20
-100.249940
 42
0.000000
 10
-184.500013
 20
-100.249940
 42
0.414214
 10
-183.500013
 20
-99.249940
 42
0.000000
 10
-183.500013
 20
-96.249940
 42
0.000000
 10
-175.500013
 20
-96.249940
 42
0.000000
 10
-175.500013
 20
-99.249940
 42
0.414214
 10
-174.500013
 20
-100.249940
 42
0.000000
 10
-171.500013
 20
-100.249940
 42
-0.414214
 10
-169.500013
 20
-102.249940
 42
0.000000
 10
-169.500013
 20
-106.749940
 42
0.414214
 10
-168.000013
 20
-108.249940
 42
0.000000
 10
-164.200013
 20
-108.249940
 42
0.000000
 10
-163.700013
 20
-107.749940
 42
0.000000
  0
POLYLINE
  5
48A
100
AcDbEntity
  8
Detail
 66
     1
  6
CONTINUOUS
 62
     4
100
AcDb2dPolyline
  0
VERTEX
  5
48B
100
AcDbEntity
  8
Detail
100
AcDbVertex
100
AcDb2dVertex
 10
-161.400178
 20
-117.804431
 42
0.203482
  0
VERTEX
  5
48C
100
AcDbEntity
  8
Detail
100
AcDbVertex
100
AcDb2dVertex
 10
-161.450186
 20
-118.584396
 42
-0.308188
  0
VERTEX
  5
48D
100
AcDbEntity
  8
Detail
100
AcDbVertex
100
AcDb2dVertex
 10
-161.282255
 20
-118.858335
 42
-0.887236
  0
VERTEX
  5
48E
100
AcDbEntity
  8
Detail
100
AcDbVertex
100
AcDb2dVertex
 10
-162.274110
 20
-118.813135
 42
0.000000
  0
VERTEX
  5
48F
100
AcDbEntity
  8
Detail
100
AcDbVertex
100
AcDb2dVertex
 10
-162.698666
 20
-112.779266
 42
0.679251
  0
VERTEX
  5
490
100
AcDbEntity
  8
Detail
100
AcDbVertex
100
AcDb2dVertex
 10
-163.408324
 20
-112.556904
 42
0.150740
  0
VERTEX
  5
491
100
AcDbEntity
  8
Detail
100
AcDbVertex
100
AcDb2dVertex
 10
-163.507196
 20
-112.803096
 42
0.000000
  0
VERTEX
  5
492
100
AcDbEntity
  8
Detail
100
AcDbVertex
100
AcDb2dVertex
 10
-163.272793
 20
-118.865879
 42
0.210504
  0
VERTEX
  5
493
100
AcDbEntity
  8
Detail
100
AcDbVertex
100
AcDb2dVertex
 10
-162.719963
 20
-119.941565
 42
0.183556
  0
VERTEX
  5
494
100
AcDbEntity
  8
Detail
100
AcDbVertex
100
AcDb2dVertex
 10
-162.188702
 20
-120.226037
 42
0.320371
  0
VERTEX
  5
495
100
AcDbEntity
  8
Detail
100
AcDbVertex
100
AcDb2dVertex
 10
-160.612431
 20
-119.481422
 42
0.000000
  0
VERTEX
  5
496
100
AcDbEntity
  8
Detail
100
AcDbVertex
100
AcDb2dVertex
 10
-157.966479
 20
-115.307732
 42
0.000000
  0
VERTEX
  5
497
100
AcDbEntity
  8
Detail
100
AcDbVertex
100
AcDb2dVertex
 10
-157.757127
 20
-114.921139
 42
0.000000
  0
VERTEX
  5
498
100
AcDbEntity
  8
Detail
100
AcDbVertex
100
AcDb2dVertex
 10
-156.721680
 20
-112.779799
 42
0.082849
  0
VERTEX
  5
499
100
AcDbEntity
  8
Detail
100
AcDbVertex
100
AcDb2dVertex
 10
-156.700014
 20
-112.649940
 42
0.718680
  0
VERTEX
  5
49A
100
AcDbEntity
  8
Detail
100
AcDbVertex
100
AcDb2dVertex
 10
-157.418694
 20
-112.408190
 42
0.000000
  0
VERTEX
  5
49B
100
AcDbEntity
  8
Detail
100
AcDbVertex
100
AcDb2dVertex
 10
-157.469518
 20
-112.475188
 42
-0.234622
  0
VERTEX
  5
49C
100
AcDbEntity
  8
Detail
100
AcDbVertex
100
AcDb2dVertex
 10
-158.425559
 20
-112.849940
 42
0.000000
  0
VERTEX
  5
49D
100
AcDbEntity
  8
Detail
 62
     3
100
AcDbVertex
100
AcDb2dVertex
 10
-158.509654
 20
-112.849940
 42
-0.500491
  0
VERTEX
  5
49E
100
AcDbEntity
  8
Detail
100
AcDbVertex
100
AcDb2dVertex
 10
-159.700013
 20
-110.403718
 42
0.000000
  0
SEQEND
  5
49F
100
AcDbEntity
  8
Detail
  0
LWPOLYLINE
  5
4A0
100
AcDbEntity
  8
Detail
  6
CONTINUOUS
 62
     4
100
AcDbPolyline
 90
     4
 10
-159.700013
 20
-101.999940
 42
0.414214
 10
-160.950013
 20
-100.749940
 42
0.198912
 10
-161.907120
 20
-101.042833
 42
0.000000
 10
-163.700013
 20
-102.835726
 42
0.000000
  0
LWPOLYLINE
  5
4A5
100
AcDbEntity
  8
Detail
  6
CONTINUOUS
 62
     4
100
AcDbPolyline
 90
     5
 10
-163.700013
 20
-103.542833
 42
0.000000
 10
-162.002656
 20
-102.492913
 42
-0.723524
 10
-161.711757
 20
-102.737300
 42
-0.231341
 10
-163.664233
 20
-106.367413
 42
0.095440
 10
-163.700013
 20
-106.553155
 42
0.000000
  0
LWPOLYLINE
  5
4AB
100
AcDbEntity
  8
Detail
  6
CONTINUOUS
 62
     4
100
AcDbPolyline
 90
     3
 10
-163.700013
 20
-107.008320
 42
0.305615
 10
-163.512513
 20
-107.286427
 42
-0.724202
 10
-163.700013
 20
-108.249940
 42
0.000000
  0
POLYLINE
  5
4AF
100
AcDbEntity
  8
Detail
 66
     1
  6
CONTINUOUS
 62
     4
100
AcDb2dPolyline
  0
VERTEX
  5
4B0
100
AcDbEntity
  8
Detail
100
AcDbVertex
100
AcDb2dVertex
 10
-165.300013
 20
-108.249940
 42
0.373804
  0
VERTEX
  5
4B1
100
AcDbEntity
  8
Detail
100
AcDbVertex
100
AcDb2dVertex
 10
-165.696105
 20
-108.594158
 42
0.146794
  0
VERTEX
  5
4B2
100
AcDbEntity
  8
Detail
 62
     3
100
AcDbVertex
100
AcDb2dVertex
 10
-165.678744
 20
-108.707798
 42
0.243289
  0
VERTEX
  5
4B3
100
AcDbEntity
  8
Detail
100
AcDbVertex
100
AcDb2dVertex
 10
-164.330760
 20
-109.569098
 42
0.000000
  0
VERTEX
  5
4B4
100
AcDbEntity
  8
Detail
100
AcDbVertex
100
AcDb2dVertex
 10
-162.807728
 20
-109.825913
 42
-0.308709
  0
VERTEX
  5
4B5
100
AcDbEntity
  8
Detail
100
AcDbVertex
100
AcDb2dVertex
 10
-162.157667
 20
-110.451112
 42
0.000000
  0
VERTEX
  5
4B6
100
AcDbEntity
  8
Detail
100
AcDbVertex
100
AcDb2dVertex
 10
-161.751879
 20
-112.392660
 42
0.305486
  0
VERTEX
  5
4B7
100
AcDbEntity
  8
Detail
100
AcDbVertex
100
AcDb2dVertex
 10
-160.550422
 20
-113.561867
 42
-0.446187
  0
VERTEX
  5
4B8
100
AcDbEntity
  8
Detail
100
AcDbVertex
100
AcDb2dVertex
 10
-159.925390
 20
-114.575377
 42
0.000000
  0
VERTEX
  5
4B9
100
AcDbEntity
  8
Detail
100
AcDbVertex
100
AcDb2dVertex
 10
-161.400178
 20
-117.804431
 42
0.000000
  0
SEQEND
  5
4BA
100
AcDbEntity
  8
Detail
  0
LWPOLYLINE
  5
4BB
100
AcDbEntity
  8
Detail
  6
CONTINUOUS
 62
     4
100
AcDbPolyline
 90
     2
 10
-163.700013
 20
-108.249940
 42
0.000000
 10
-164.300013
 20
-108.249940
 42
0.000000
  0
LWPOLYLINE
  5
4BE
100
AcDbEntity
  8
Detail
  6
CONTINUOUS
 62
     4
100
AcDbPolyline
 90
     2
 10
-159.700014
 20
-110.403718
 42
0.000000
 10
-159.700014
 20
-108.249939
 42
0.000000
  0
ENDBLK
  5
4C1
100
AcDbEntity
  8
0
100
AcDbBlockEnd
  0
BLOCK
  5
4C2
100
AcDbEntity
  8
SCHRAFF
100
AcDbBlockBegin
  2
fluegel
 70
    66
 10
0.000000
 20
0.000000
 30
0.000000
  0
HATCH
  5
4C3
100
AcDbEntity
  8
SCHRAFF
  6
CONTINUOUS
 62
     9
100
AcDbHatch
 10
0.000000
 20
0.000000
 30
0.000000
210
0.000000
220
0.000000
230
1.000000
  2
_U
 70
     0
 71
     1
 91
     1
 92
    18
 72
     1
 73
     0
 93
    56
 10
-142.500015
 20
-138.722418
 42
0.000000
 10
-142.500052
 20
-157.968309
 42
-0.291474
 10
-143.943507
 20
-160.234079
 42
0.000000
 10
-154.700052
 20
-165.249938
 42
-0.356394
 10
-155.500051
 20
-164.270142
 42
0.000000
 10
-155.500052
 20
-161.749938
 42
-0.414213
 10
-155.000051
 20
-161.249938
 42
0.000000
 10
-154.500052
 20
-161.249938
 42
0.414214
 10
-154.000051
 20
-160.749938
 42
0.000000
 10
-154.000052
 20
-159.749938
 42
0.000000
 10
-154.917447
 20
-158.220947
 42
0.263447
 10
-156.632433
 20
-157.249938
 42
0.000000
 10
-160.000051
 20
-157.249938
 42
0.000000
 10
-160.500051
 20
-156.749938
 42
0.000000
 10
-160.500051
 20
-148.549939
 42
0.576922
 10
-162.748382
 20
-147.249939
 42
0.000000
 10
-164.732724
 20
-147.249939
 42
-0.339454
 10
-165.698649
 20
-146.508758
 42
0.000000
 10
-166.710548
 20
-142.732301
 42
0.339454
 10
-168.642400
 20
-141.249939
 42
0.000000
 10
-171.857701
 20
-141.249938
 42
0.339454
 10
-173.789553
 20
-142.732301
 42
0.000000
 10
-174.801452
 20
-146.508758
 42
-0.339455
 10
-175.767378
 20
-147.249939
 42
0.000000
 10
-199.000050
 20
-147.249939
 42
-0.414214
 10
-200.000050
 20
-146.249939
 42
0.000000
 10
-200.000050
 20
-143.249939
 42
0.000000
 10
-205.500049
 20
-143.249939
 42
0.000000
 10
-205.500049
 20
-146.249939
 42
-0.414214
 10
-206.500050
 20
-147.249939
 42
0.000000
 10
-208.000049
 20
-147.249939
 42
-0.414214
 10
-210.500050
 20
-144.749939
 42
0.000000
 10
-210.500049
 20
-94.749941
 42
-0.414214
 10
-208.000050
 20
-92.249940
 42
0.000000
 10
-192.000012
 20
-92.249941
 42
-0.414213
 10
-190.500013
 20
-93.749940
 42
0.000000
 10
-190.500012
 20
-110.249938
 42
0.414214
 10
-188.500012
 20
-112.249939
 42
0.000000
 10
-165.000013
 20
-112.249939
 42
-0.414213
 10
-163.500013
 20
-113.749939
 42
0.000000
 10
-163.500013
 20
-122.249938
 42
0.414214
 10
-161.500014
 20
-124.249939
 42
0.000000
 10
-159.151006
 20
-124.249939
 42
-0.339454
 10
-157.702117
 20
-125.361711
 42
0.000000
 10
-156.958168
 20
-128.138167
 42
0.339455
 10
-155.509278
 20
-129.249938
 42
0.000000
 10
-152.990752
 20
-129.249938
 42
0.339454
 10
-151.541862
 20
-128.138168
 42
0.000000
 10
-150.797912
 20
-125.361711
 42
-0.339454
 10
-149.349024
 20
-124.249939
 42
0.000000
 10
-147.500015
 20
-124.249939
 42
-0.414214
 10
-146.000014
 20
-125.749939
 42
0.000000
 10
-146.000015
 20
-135.268609
 42
0.393578
 10
-144.624958
 20
-136.744885
 42
0.000000
 10
-143.982377
 20
-136.790563
 42
-0.339455
 10
-142.500015
 20
-138.722419
 42
0.000000
 97
     0
 75
     0
 76
     0
 52
0.000000
 41
1.000000
 77
     0
 78
     1
 53
45.000003
 43
-0.000000
 44
0.000000
 45
-2.209705
 46
2.209705
 79
     0
 98
     0
  0
LWPOLYLINE
  5
4C4
100
AcDbEntity
  8
Detail
  6
CONTINUOUS
 62
     3
100
AcDbPolyline
 90
    15
 10
-142.500013
 20
-138.722419
 42
0.339455
 10
-143.982375
 20
-136.790564
 42
0.000000
 10
-144.624957
 20
-136.744885
 42
-0.393577
 10
-146.000013
 20
-135.268610
 42
0.000000
 10
-146.000013
 20
-125.749940
 42
0.414214
 10
-147.500013
 20
-124.249940
 42
0.000000
 10
-149.349023
 20
-124.249940
 42
0.339454
 10
-150.797912
 20
-125.361711
 42
0.000000
 10
-151.541861
 20
-128.138168
 42
-0.339454
 10
-152.990750
 20
-129.249940
 42
0.000000
 10
-155.509277
 20
-129.249940
 42
-0.339454
 10
-156.958166
 20
-128.138168
 42
0.000000
 10
-157.702115
 20
-125.361711
 42
0.339454
 10
-159.151004
 20
-124.249940
 42
0.000000
 10
-161.500013
 20
-124.249939
 42
0.000000
  0
LWPOLYLINE
  5
4D4
100
AcDbEntity
  8
Detail
  6
CONTINUOUS
 62
     3
100
AcDbPolyline
 90
     2
 10
-163.500013
 20
-122.249939
 42
0.000000
 10
-163.500013
 20
-113.749940
 42
0.000000
  0
LWPOLYLINE
  5
4D7
100
AcDbEntity
  8
Detail
  6
CONTINUOUS
 62
     3
100
AcDbPolyline
 90
     2
 10
-163.500013
 20
-122.249939
 42
0.414214
 10
-161.500013
 20
-124.249939
 42
0.000000
  0
LWPOLYLINE
  5
4DA
100
AcDbEntity
  8
Detail
  6
CONTINUOUS
 62
     3
100
AcDbPolyline
 90
     3
 10
-163.500013
 20
-113.749939
 42
0.414213
 10
-165.000013
 20
-112.249939
 42
0.000000
 10
-188.500013
 20
-112.249939
 42
0.000000
  0
LWPOLYLINE
  5
4DE
100
AcDbEntity
  8
Detail
  6
CONTINUOUS
 62
     3
100
AcDbPolyline
 90
     2
 10
-190.500013
 20
-110.249939
 42
0.000000
 10
-190.500013
 20
-93.749940
 42
0.000000
  0
LWPOLYLINE
  5
4E1
100
AcDbEntity
  8
Detail
  6
CONTINUOUS
 62
     3
100
AcDbPolyline
 90
     2
 10
-190.500013
 20
-110.249939
 42
0.414214
 10
-188.500013
 20
-112.249939
 42
0.000000
  0
LWPOLYLINE
  5
4E4
100
AcDbEntity
  8
Detail
  6
CONTINUOUS
 62
     3
100
AcDbPolyline
 90
    36
 10
-190.500013
 20
-93.749940
 42
0.414214
 10
-192.000013
 20
-92.249939
 42
0.000000
 10
-208.000050
 20
-92.249940
 42
0.414214
 10
-210.500050
 20
-94.749940
 42
0.000000
 10
-210.500050
 20
-144.749940
 42
0.414214
 10
-208.000050
 20
-147.249940
 42
0.000000
 10
-206.500050
 20
-147.249940
 42
0.414214
 10
-205.500050
 20
-146.249940
 42
0.000000
 10
-205.500050
 20
-143.249940
 42
0.000000
 10
-200.000050
 20
-143.249940
 42
0.000000
 10
-200.000050
 20
-146.249940
 42
0.414214
 10
-199.000050
 20
-147.249940
 42
0.000000
 10
-175.767378
 20
-147.249940
 42
0.339454
 10
-174.801452
 20
-146.508759
 42
0.000000
 10
-173.789553
 20
-142.732302
 42
-0.339454
 10
-171.857701
 20
-141.249940
 42
0.000000
 10
-168.642400
 20
-141.249940
 42
-0.339454
 10
-166.710548
 20
-142.732302
 42
0.000000
 10
-165.698649
 20
-146.508759
 42
0.339454
 10
-164.732724
 20
-147.249940
 42
0.000000
 10
-162.748382
 20
-147.249940
 42
-0.576922
 10
-160.500051
 20
-148.549940
 42
0.000000
 10
-160.500051
 20
-156.749940
 42
0.000000
 10
-160.000051
 20
-157.249940
 42
0.000000
 10
-156.632431
 20
-157.249940
 42
-0.263447
 10
-154.917445
 20
-158.220948
 42
0.000000
 10
-154.000051
 20
-159.749940
 42
0.000000
 10
-154.000051
 20
-160.749940
 42
-0.414214
 10
-154.500051
 20
-161.249940
 42
0.000000
 10
-155.000051
 20
-161.249940
 42
0.414214
 10
-155.500051
 20
-161.749940
 42
0.000000
 10
-155.500051
 20
-164.270144
 42
0.356394
 10
-154.700051
 20
-165.249940
 42
0.000000
 10
-143.943505
 20
-160.234080
 42
0.291473
 10
-142.500051
 20
-157.968311
 42
0.000000
 10
-142.500014
 20
-138.722419
 42
0.000000
  0
LWPOLYLINE
  5
509
100
AcDbEntity
  8
Detail
  6
CONTINUOUS
 62
     4
100
AcDbPolyline
 90
     4
 10
-154.700051
 20
-165.249939
 42
0.000000
 10
-160.500007
 20
-167.249939
 42
0.000000
 10
-160.500007
 20
-158.249939
 42
-0.414213
 10
-159.500007
 20
-157.249939
 42
0.000000
  0
ENDBLK
  5
50E
100
AcDbEntity
  8
0
100
AcDbBlockEnd
  0
BLOCK
  5
50F
100
AcDbEntity
  8
Detail
100
AcDbBlockBegin
  2
B-63
 70
    66
 10
0.000000
 20
0.000000
 30
0.000000
  0
LWPOLYLINE
  5
510
100
AcDbEntity
  8
Detail
  6
CONTINUOUS
 62
     6
100
AcDbPolyline
 90
     5
 10
-237.500018
 20
-346.249941
 42
0.000000
 10
237.500023
 20
-346.249941
 42
0.000000
 10
237.500023
 20
346.250078
 42
0.000000
 10
-237.500018
 20
346.250078
 42
0.000000
 10
-237.500018
 20
-346.249941
 42
0.000000
  0
ENDBLK
  5
516
100
AcDbEntity
  8
0
100
AcDbBlockEnd
  0
BLOCK
  5
517
100
AcDbEntity
  8
Detail
100
AcDbBlockBegin
  2
B-64
 70
    66
 10
0.000000
 20
0.000000
 30
0.000000
  0
LWPOLYLINE
  5
518
100
AcDbEntity
  8
Detail
  6
CONTINUOUS
 62
     9
100
AcDbPolyline
 90
     2
 10
-20.999997
 20
75.750059
 42
0.000000
 10
-20.999997
 20
61.770646
 42
0.000000
  0
LWPOLYLINE
  5
51B
100
AcDbEntity
  8
Detail
  6
CONTINUOUS
 62
     9
100
AcDbPolyline
 90
    83
 10
7.500003
 20
38.750059
 42
0.000000
 10
8.000003
 20
38.750059
 42
0.000000
 10
9.000003
 20
43.750059
 42
0.000000
 10
9.000003
 20
93.750059
 42
0.000000
 10
8.000003
 20
98.750059
 42
0.000000
 10
7.500003
 20
98.750059
 42
0.000000
 10
7.500003
 20
81.750059
 42
0.000000
 10
6.250003
 20
78.000059
 42
0.000000
 10
2.500003
 20
76.750059
 42
0.000000
 10
-20.999997
 20
75.750059
 42
0.000000
 10
-26.999997
 20
73.250059
 42
0.000000
 10
-89.462194
 20
72.710059
 42
0.000000
 10
-90.828137
 20
72.463050
 42
0.000000
 10
-90.903891
 20
72.710059
 42
0.000000
 10
-93.686194
 20
72.710059
 42
0.000000
 10
-95.052137
 20
72.463050
 42
0.000000
 10
-95.127891
 20
72.710059
 42
0.000000
 10
-97.910194
 20
72.710059
 42
0.000000
 10
-99.276137
 20
72.463050
 42
0.000000
 10
-99.351807
 20
72.705259
 42
0.000000
 10
-102.134194
 20
72.710059
 42
0.000000
 10
-103.500137
 20
72.463050
 42
0.000000
 10
-103.575891
 20
72.710059
 42
0.000000
 10
-106.358194
 20
72.710059
 42
0.000000
 10
-107.724137
 20
72.463050
 42
0.000000
 10
-107.799891
 20
72.710059
 42
0.000000
 10
-110.582194
 20
72.710059
 42
0.000000
 10
-111.948137
 20
72.463050
 42
0.000000
 10
-112.023891
 20
72.710059
 42
0.000000
 10
-114.806194
 20
72.710059
 42
0.000000
 10
-116.172137
 20
72.463050
 42
0.000000
 10
-116.247891
 20
72.710059
 42
0.000000
 10
-119.030194
 20
72.710059
 42
0.000000
 10
-120.396137
 20
72.463050
 42
0.000000
 10
-120.471891
 20
72.710059
 42
0.000000
 10
-123.254194
 20
72.710059
 42
0.000000
 10
-124.458351
 20
72.427627
 42
0.000000
 10
-124.917334
 20
72.590059
 42
0.000000
 10
-125.894194
 20
72.155803
 42
0.000000
 10
-126.134194
 20
71.630059
 42
0.000000
 10
-126.902194
 20
71.630059
 42
0.000000
 10
-128.420088
 20
71.089091
 42
0.000000
 10
-129.253704
 20
69.710059
 42
0.000000
 10
-130.999997
 20
68.750059
 42
0.000000
 10
-129.253704
 20
67.790059
 42
0.000000
 10
-128.420088
 20
66.411027
 42
0.000000
 10
-127.157393
 20
65.883666
 42
0.000000
 10
-126.134194
 20
65.870059
 42
0.000000
 10
-125.894194
 20
65.344315
 42
0.000000
 10
-125.142038
 20
64.910059
 42
0.000000
 10
-124.692626
 20
64.910059
 42
0.000000
 10
-124.458351
 20
65.072491
 42
0.000000
 10
-123.254194
 20
64.790059
 42
0.000000
 10
-120.471891
 20
64.790059
 42
0.000000
 10
-120.396137
 20
65.037068
 42
0.000000
 10
-119.030194
 20
64.790059
 42
0.000000
 10
-116.247891
 20
64.790059
 42
0.000000
 10
-116.172137
 20
65.037068
 42
0.000000
 10
-114.806194
 20
64.790059
 42
0.000000
 10
-112.023891
 20
64.790059
 42
0.000000
 10
-111.948137
 20
65.037068
 42
0.000000
 10
-110.582194
 20
64.790059
 42
0.000000
 10
-107.799891
 20
64.790059
 42
0.000000
 10
-107.724137
 20
65.037068
 42
0.000000
 10
-106.358194
 20
64.790059
 42
0.000000
 10
-103.575891
 20
64.790059
 42
0.000000
 10
-103.500137
 20
65.037068
 42
0.000000
 10
-102.134194
 20
64.790059
 42
0.000000
 10
-99.351807
 20
64.794859
 42
0.000000
 10
-99.276137
 20
65.037068
 42
0.000000
 10
-97.910194
 20
64.790059
 42
0.000000
 10
-95.127891
 20
64.790059
 42
0.000000
 10
-95.052137
 20
65.037068
 42
0.000000
 10
-93.686194
 20
64.790059
 42
0.000000
 10
-90.903891
 20
64.790059
 42
0.000000
 10
-90.828137
 20
65.037068
 42
0.000000
 10
-89.462194
 20
64.790059
 42
0.000000
 10
-26.999997
 20
64.250059
 42
0.000000
 10
-20.999997
 20
61.750059
 42
0.000000
 10
2.500003
 20
60.750059
 42
0.000000
 10
6.250003
 20
59.500059
 42
0.000000
 10
7.500003
 20
55.750059
 42
0.000000
 10
7.500003
 20
38.750059
 42
0.000000
  0
LWPOLYLINE
  5
56F
100
AcDbEntity
  8
Detail
  6
CONTINUOUS
 62
     9
100
AcDbPolyline
 90
   203
 10
-130.999997
 20
68.750059
 42
0.000000
 10
-128.886922
 20
69.625324
 42
0.000000
 10
-128.385347
 20
70.494078
 42
0.000000
 10
-127.996672
 20
69.994078
 42
0.000000
 10
-126.916335
 20
70.441568
 42
0.000000
 10
-126.414760
 20
71.310322
 42
0.000000
 10
-126.026085
 20
70.810322
 42
0.000000
 10
-125.447308
 20
71.050059
 42
0.000000
 10
-124.846269
 20
71.050059
 42
0.000000
 10
-124.557594
 20
71.550059
 42
0.000000
 10
-124.168919
 20
71.050059
 42
0.000000
 10
-123.036269
 20
71.050059
 42
0.000000
 10
-122.747594
 20
71.550059
 42
0.000000
 10
-122.358919
 20
71.050059
 42
0.000000
 10
-121.226269
 20
71.050059
 42
0.000000
 10
-120.937594
 20
71.550059
 42
0.000000
 10
-120.548919
 20
71.050059
 42
0.000000
 10
-119.416269
 20
71.050059
 42
0.000000
 10
-119.127594
 20
71.550059
 42
0.000000
 10
-118.738919
 20
71.050059
 42
0.000000
 10
-117.606269
 20
71.050059
 42
0.000000
 10
-117.317594
 20
71.550059
 42
0.000000
 10
-116.928919
 20
71.050059
 42
0.000000
 10
-115.796269
 20
71.050059
 42
0.000000
 10
-115.507594
 20
71.550059
 42
0.000000
 10
-115.118919
 20
71.050059
 42
0.000000
 10
-113.986269
 20
71.050059
 42
0.000000
 10
-113.697594
 20
71.550059
 42
0.000000
 10
-113.308919
 20
71.050059
 42
0.000000
 10
-112.176269
 20
71.050059
 42
0.000000
 10
-111.887594
 20
71.550059
 42
0.000000
 10
-111.498919
 20
71.050059
 42
0.000000
 10
-110.366269
 20
71.050059
 42
0.000000
 10
-110.077594
 20
71.550059
 42
0.000000
 10
-109.688919
 20
71.050059
 42
0.000000
 10
-108.556269
 20
71.050059
 42
0.000000
 10
-108.267594
 20
71.550059
 42
0.000000
 10
-107.878919
 20
71.050059
 42
0.000000
 10
-106.746269
 20
71.050059
 42
0.000000
 10
-106.457594
 20
71.550059
 42
0.000000
 10
-106.068919
 20
71.050059
 42
0.000000
 10
-104.936269
 20
71.050059
 42
0.000000
 10
-104.647594
 20
71.550059
 42
0.000000
 10
-104.258919
 20
71.050059
 42
0.000000
 10
-103.126269
 20
71.050059
 42
0.000000
 10
-102.837594
 20
71.550059
 42
0.000000
 10
-102.448919
 20
71.050059
 42
0.000000
 10
-101.316269
 20
71.050059
 42
0.000000
 10
-101.027594
 20
71.550059
 42
0.000000
 10
-100.638919
 20
71.050059
 42
0.000000
 10
-99.506269
 20
71.050059
 42
0.000000
 10
-99.217594
 20
71.550059
 42
0.000000
 10
-98.828919
 20
71.050059
 42
0.000000
 10
-97.696269
 20
71.050059
 42
0.000000
 10
-97.407594
 20
71.550059
 42
0.000000
 10
-97.018919
 20
71.050059
 42
0.000000
 10
-95.886269
 20
71.050059
 42
0.000000
 10
-95.597594
 20
71.550059
 42
0.000000
 10
-95.186404
 20
71.050059
 42
0.000000
 10
-94.076269
 20
71.050059
 42
0.000000
 10
-93.787594
 20
71.550059
 42
0.000000
 10
-93.398919
 20
71.050059
 42
0.000000
 10
-92.266269
 20
71.050059
 42
0.000000
 10
-91.977594
 20
71.550059
 42
0.000000
 10
-91.588919
 20
71.050059
 42
0.000000
 10
-90.456269
 20
71.050059
 42
0.000000
 10
-90.167594
 20
71.550059
 42
0.000000
 10
-89.778919
 20
71.050059
 42
0.000000
 10
-88.646269
 20
71.050059
 42
0.000000
 10
-88.357594
 20
71.550059
 42
0.000000
 10
-87.968919
 20
71.050059
 42
0.000000
 10
-86.836269
 20
71.050059
 42
0.000000
 10
-86.547594
 20
71.550059
 42
0.000000
 10
-86.158919
 20
71.050059
 42
0.000000
 10
-85.026269
 20
71.050059
 42
0.000000
 10
-84.737594
 20
71.550059
 42
0.000000
 10
-84.348919
 20
71.050059
 42
0.000000
 10
-83.216269
 20
71.050059
 42
0.000000
 10
-82.927594
 20
71.550059
 42
0.000000
 10
-82.538919
 20
71.050059
 42
0.000000
 10
-81.406269
 20
71.050059
 42
0.000000
 10
-81.117594
 20
71.550059
 42
0.000000
 10
-80.728919
 20
71.050059
 42
0.000000
 10
-79.596269
 20
71.050059
 42
0.000000
 10
-79.307594
 20
71.550059
 42
0.000000
 10
-78.918919
 20
71.050059
 42
0.000000
 10
-77.786269
 20
71.050059
 42
0.000000
 10
-77.497594
 20
71.550059
 42
0.000000
 10
-77.108919
 20
71.050059
 42
0.000000
 10
-75.976269
 20
71.050059
 42
0.000000
 10
-75.687594
 20
71.550059
 42
0.000000
 10
-75.298919
 20
71.050059
 42
0.000000
 10
-74.166269
 20
71.050059
 42
0.000000
 10
-73.877594
 20
71.550059
 42
0.000000
 10
-73.488919
 20
71.050059
 42
0.000000
 10
-72.356269
 20
71.050059
 42
0.000000
 10
-72.067594
 20
71.550059
 42
0.000000
 10
-71.678919
 20
71.050059
 42
0.000000
 10
-70.999997
 20
71.050059
 42
0.000000
 10
-70.826792
 20
71.150059
 42
0.000000
 10
-26.999997
 20
73.250059
 42
0.000000
 10
-26.999997
 20
64.250059
 42
0.000000
 10
-70.826792
 20
66.350059
 42
0.000000
 10
-70.999997
 20
66.450059
 42
0.000000
 10
-71.162594
 20
65.950059
 42
0.000000
 10
-71.451269
 20
66.450059
 42
0.000000
 10
-72.583919
 20
66.450059
 42
0.000000
 10
-72.972594
 20
65.950059
 42
0.000000
 10
-73.261269
 20
66.450059
 42
0.000000
 10
-74.393919
 20
66.450059
 42
0.000000
 10
-74.782594
 20
65.950059
 42
0.000000
 10
-75.071269
 20
66.450059
 42
0.000000
 10
-76.203919
 20
66.450059
 42
0.000000
 10
-76.592594
 20
65.950059
 42
0.000000
 10
-76.881269
 20
66.450059
 42
0.000000
 10
-78.013919
 20
66.450059
 42
0.000000
 10
-78.402594
 20
65.950059
 42
0.000000
 10
-78.691269
 20
66.450059
 42
0.000000
 10
-79.823919
 20
66.450059
 42
0.000000
 10
-80.212594
 20
65.950059
 42
0.000000
 10
-80.501269
 20
66.450059
 42
0.000000
 10
-81.633919
 20
66.450059
 42
0.000000
 10
-82.022594
 20
65.950059
 42
0.000000
 10
-82.311269
 20
66.450059
 42
0.000000
 10
-83.443919
 20
66.450059
 42
0.000000
 10
-83.832594
 20
65.950059
 42
0.000000
 10
-84.121269
 20
66.450059
 42
0.000000
 10
-85.253919
 20
66.450059
 42
0.000000
 10
-85.642594
 20
65.950059
 42
0.000000
 10
-85.931269
 20
66.450059
 42
0.000000
 10
-87.063919
 20
66.450059
 42
0.000000
 10
-87.452594
 20
65.950059
 42
0.000000
 10
-87.741269
 20
66.450059
 42
0.000000
 10
-88.873919
 20
66.450059
 42
0.000000
 10
-89.262594
 20
65.950059
 42
0.000000
 10
-89.551269
 20
66.450059
 42
0.000000
 10
-90.683919
 20
66.450059
 42
0.000000
 10
-91.072594
 20
65.950059
 42
0.000000
 10
-91.361269
 20
66.450059
 42
0.000000
 10
-92.493919
 20
66.450059
 42
0.000000
 10
-92.882594
 20
65.950059
 42
0.000000
 10
-93.171269
 20
66.450059
 42
0.000000
 10
-94.303919
 20
66.450059
 42
0.000000
 10
-94.692594
 20
65.950059
 42
0.000000
 10
-94.981269
 20
66.450059
 42
0.000000
 10
-96.113919
 20
66.450059
 42
0.000000
 10
-96.502594
 20
65.950059
 42
0.000000
 10
-96.791269
 20
66.450059
 42
0.000000
 10
-97.923919
 20
66.450059
 42
0.000000
 10
-98.312594
 20
65.950059
 42
0.000000
 10
-98.601269
 20
66.450059
 42
0.000000
 10
-99.733919
 20
66.450059
 42
0.000000
 10
-100.122594
 20
65.950059
 42
0.000000
 10
-100.411269
 20
66.450059
 42
0.000000
 10
-101.543919
 20
66.450059
 42
0.000000
 10
-101.932594
 20
65.950059
 42
0.000000
 10
-102.221269
 20
66.450059
 42
0.000000
 10
-103.353919
 20
66.450059
 42
0.000000
 10
-103.742594
 20
65.950059
 42
0.000000
 10
-104.031269
 20
66.450059
 42
0.000000
 10
-105.163919
 20
66.450059
 42
0.000000
 10
-105.552594
 20
65.950059
 42
0.000000
 10
-105.841269
 20
66.450059
 42
0.000000
 10
-106.973919
 20
66.450059
 42
0.000000
 10
-107.362594
 20
65.950059
 42
0.000000
 10
-107.651269
 20
66.450059
 42
0.000000
 10
-108.783919
 20
66.450059
 42
0.000000
 10
-109.172594
 20
65.950059
 42
0.000000
 10
-109.461269
 20
66.450059
 42
0.000000
 10
-110.593919
 20
66.450059
 42
0.000000
 10
-110.982594
 20
65.950059
 42
0.000000
 10
-111.271269
 20
66.450059
 42
0.000000
 10
-112.403919
 20
66.450059
 42
0.000000
 10
-112.792594
 20
65.950059
 42
0.000000
 10
-113.081269
 20
66.450059
 42
0.000000
 10
-114.213919
 20
66.450059
 42
0.000000
 10
-114.602594
 20
65.950059
 42
0.000000
 10
-114.891269
 20
66.450059
 42
0.000000
 10
-116.023919
 20
66.450059
 42
0.000000
 10
-116.412594
 20
65.950059
 42
0.000000
 10
-116.701269
 20
66.450059
 42
0.000000
 10
-117.833919
 20
66.450059
 42
0.000000
 10
-118.222594
 20
65.950059
 42
0.000000
 10
-118.511269
 20
66.450059
 42
0.000000
 10
-119.643919
 20
66.450059
 42
0.000000
 10
-120.032594
 20
65.950059
 42
0.000000
 10
-120.321269
 20
66.450059
 42
0.000000
 10
-121.453919
 20
66.450059
 42
0.000000
 10
-121.842594
 20
65.950059
 42
0.000000
 10
-122.131269
 20
66.450059
 42
0.000000
 10
-123.263919
 20
66.450059
 42
0.000000
 10
-123.652594
 20
65.950059
 42
0.000000
 10
-123.941269
 20
66.450059
 42
0.000000
 10
-125.073919
 20
66.450059
 42
0.000000
 10
-125.462594
 20
65.950059
 42
0.000000
 10
-125.846808
 20
66.615538
 42
0.000000
 10
-126.775668
 20
67.000285
 42
0.000000
 10
-127.164343
 20
66.500285
 42
0.000000
 10
-127.665918
 20
67.369038
 42
0.000000
 10
-128.449282
 20
67.693518
 42
0.000000
 10
-128.837957
 20
67.193518
 42
0.000000
 10
-129.339532
 20
68.062272
 42
0.000000
 10
-130.999997
 20
68.750059
 42
0.000000
  0
ENDBLK
  5
63B
100
AcDbEntity
  8
0
100
AcDbBlockEnd
  0
BLOCK
  5
63C
100
AcDbEntity
  8
Detail
100
AcDbBlockBegin
  2
B-66
 70
    66
 10
0.000000
 20
0.000000
 30
0.000000
  0
MTEXT
  5
63D
100
AcDbEntity
  8
Detail
 62
     7
100
AcDbMText
 10
-210.625002
 20
-258.281291
 30
0.000000
 40
5.625000
 41
125.744063
 71
     7
 72
     5
  1
System:	Kombinationsfassade
  7
Arial
 50
0.000000
  0
MTEXT
  5
63E
100
AcDbEntity
  8
Detail
 62
     7
100
AcDbMText
 10
-210.625002
 20
-266.718791
 30
0.000000
 40
5.625000
 41
158.287500
 71
     7
 72
     5
  1
	WDVS Putz / WDVS Hartbekleidung 
  7
Arial
 50
0.000000
  0
ENDBLK
  5
63F
100
AcDbEntity
  8
0
100
AcDbBlockEnd
  0
BLOCK
  5
640
100
AcDbEntity
  8
Detail
100
AcDbBlockBegin
  2
B-67
 70
    66
 10
0.000000
 20
0.000000
 30
0.000000
  0
MTEXT
  5
641
100
AcDbEntity
  8
Detail
 62
     7
100
AcDbMText
 10
-210.625002
 20
-290.156291
 30
0.000000
 40
5.625000
 41
109.265625
 71
     1
 72
     5
  1
Detail:	Systemübergang Sturz 
  7
Arial
 50
0.000000
  0
ENDBLK
  5
642
100
AcDbEntity
  8
0
100
AcDbBlockEnd
  0
BLOCK
  5
643
100
AcDbEntity
  8
Detail
100
AcDbBlockBegin
  2
B-68
 70
    66
 10
0.000000
 20
0.000000
 30
0.000000
  0
MTEXT
  5
644
100
AcDbEntity
  8
Detail
 62
     7
100
AcDbMText
 10
6.314834
 20
-252.500041
 30
0.000000
 40
5.000000
 41
93.712500
 71
     1
 72
     5
  1
Plannummer:	310-0910
  7
Arial
 50
0.000000
  0
ENDBLK
  5
645
100
AcDbEntity
  8
0
100
AcDbBlockEnd
  0
BLOCK
  5
646
100
AcDbEntity
  8
Detail
100
AcDbBlockBegin
  2
B-69
 70
    66
 10
0.000000
 20
0.000000
 30
0.000000
  0
MTEXT
  5
647
100
AcDbEntity
  8
Detail
 62
     7
100
AcDbMText
 10
6.314834
 20
-277.500041
 30
0.000000
 40
5.000000
 41
91.035000
 71
     1
 72
     5
  1
Massstab:		ca. 1:2,5
  7
Arial
 50
0.000000
  0
ENDBLK
  5
648
100
AcDbEntity
  8
0
100
AcDbBlockEnd
  0
BLOCK
  5
649
100
AcDbEntity
  8
Detail
100
AcDbBlockBegin
  2
B-70
 70
    66
 10
0.000000
 20
0.000000
 30
0.000000
  0
MTEXT
  5
64A
100
AcDbEntity
  8
Detail
 62
     7
100
AcDbMText
 10
6.314834
 20
-302.500041
 30
0.000000
 40
5.000000
 41
99.435000
 71
     1
 72
     5
  1
Aktualisierung:	14.07.2016
  7
Arial
 50
0.000000
  0
ENDBLK
  5
64B
100
AcDbEntity
  8
0
100
AcDbBlockEnd
  0
BLOCK
  5
64C
100
AcDbEntity
  8
Detail
100
AcDbBlockBegin
  2
B-71
 70
    66
 10
0.000000
 20
0.000000
 30
0.000000
  0
LWPOLYLINE
  5
64D
100
AcDbEntity
  8
Detail
  6
CONTINUOUS
 62
     6
100
AcDbPolyline
 90
     2
 10
-20.560166
 20
-321.249941
 42
0.000000
 10
-20.560166
 20
-246.249941
 42
0.000000
  0
LWPOLYLINE
  5
650
100
AcDbEntity
  8
Detail
  6
CONTINUOUS
 62
     6
100
AcDbPolyline
 90
     2
 10
-237.500018
 20
-321.249941
 42
0.000000
 10
120.969928
 20
-321.249941
 42
0.000000
  0
LWPOLYLINE
  5
653
100
AcDbEntity
  8
Detail
  6
CONTINUOUS
 62
     6
100
AcDbPolyline
 90
     2
 10
-20.560166
 20
-271.249941
 42
0.000000
 10
120.969928
 20
-271.249941
 42
0.000000
  0
LWPOLYLINE
  5
656
100
AcDbEntity
  8
Detail
  6
CONTINUOUS
 62
     6
100
AcDbPolyline
 90
     2
 10
-20.560166
 20
-296.249941
 42
0.000000
 10
120.969928
 20
-296.249941
 42
0.000000
  0
ENDBLK
  5
659
100
AcDbEntity
  8
0
100
AcDbBlockEnd
  0
BLOCK
  5
65A
100
AcDbEntity
  8
Detail
100
AcDbBlockBegin
  2
B-72
 70
    66
 10
0.000000
 20
0.000000
 30
0.000000
  0
MTEXT
  5
65B
100
AcDbEntity
  8
Detail
 62
     7
100
AcDbMText
 10
-210.625009
 20
-332.500016
 30
0.000000
 40
4.999980
 41
58.117268
 71
     7
 72
     5
  1
DAW Schweiz AG
  7
Arial
 50
0.000000
  0
MTEXT
  5
65C
100
AcDbEntity
  8
Detail
 62
     7
100
AcDbMText
 10
-210.625009
 20
-339.999986
 30
0.000000
 40
4.999980
 41
108.149567
 71
     7
 72
     5
  1
Gewerbestrasse 6, 8606 Nänikon
  7
Arial
 50
0.000000
  0
ENDBLK
  5
65D
100
AcDbEntity
  8
0
100
AcDbBlockEnd
  0
BLOCK
  5
65E
100
AcDbEntity
  8
Detail
100
AcDbBlockBegin
  2
B-73
 70
    66
 10
0.000000
 20
0.000000
 30
0.000000
  0
LWPOLYLINE
  5
65F
100
AcDbEntity
  8
Detail
  6
CONTINUOUS
 62
     6
100
AcDbPolyline
 90
     2
 10
-20.560166
 20
-283.749941
 42
0.000000
 10
-237.500018
 20
-283.749941
 42
0.000000
  0
ENDBLK
  5
662
100
AcDbEntity
  8
0
100
AcDbBlockEnd
  0
BLOCK
  5
663
100
AcDbEntity
  8
Detail
100
AcDbBlockBegin
  2
B-74
 70
    66
 10
0.000000
 20
0.000000
 30
0.000000
  0
MTEXT
  5
664
100
AcDbEntity
  8
Detail
 62
     7
100
AcDbMText
 10
-85.625025
 20
-332.500016
 30
0.000000
 40
4.999980
 41
72.134711
 71
     7
 72
     5
  1
Telefon 043 399 42 22
  7
Arial
 50
0.000000
  0
MTEXT
  5
665
100
AcDbEntity
  8
Detail
 62
     7
100
AcDbMText
 10
-85.625025
 20
-339.999986
 30
0.000000
 40
4.999980
 41
71.767213
 71
     7
 72
     5
  1
Telefax 043 399 42 23
  7
Arial
 50
0.000000
  0
ENDBLK
  5
666
100
AcDbEntity
  8
0
100
AcDbBlockEnd
  0
BLOCK
  5
667
100
AcDbEntity
  8
Detail
100
AcDbBlockBegin
  2
B-75
 70
    66
 10
0.000000
 20
0.000000
 30
0.000000
  0
MTEXT
  5
668
100
AcDbEntity
  8
Detail
 62
     7
100
AcDbMText
 10
39.374975
 20
-332.500019
 30
0.000000
 40
4.999982
 41
51.922313
 71
     7
 72
     5
  1
info@daw.swiss
  7
Arial
 50
0.000000
  0
MTEXT
  5
669
100
AcDbEntity
  8
Detail
 62
     7
100
AcDbMText
 10
39.374975
 20
-339.999993
 30
0.000000
 40
4.999982
 41
56.647296
 71
     7
 72
     5
  1
www.capatect.ch 
  7
Arial
 50
0.000000
  0
ENDBLK
  5
66A
100
AcDbEntity
  8
0
100
AcDbBlockEnd
  0
BLOCK
  5
66B
100
AcDbEntity
  8
Detail
100
AcDbBlockBegin
  2
B-76
 70
    66
 10
0.000000
 20
0.000000
 30
0.000000
  0
LWPOLYLINE
  5
66C
100
AcDbEntity
  8
Detail
  6
CONTINUOUS
 62
     6
100
AcDbPolyline
 90
     2
 10
120.969928
 20
-346.249941
 42
0.000000
 10
120.969928
 20
-246.249941
 42
0.000000
  0
ENDBLK
  5
66F
100
AcDbEntity
  8
0
100
AcDbBlockEnd
  0
BLOCK
  5
670
100
AcDbEntity
  8
Detail
100
AcDbBlockBegin
  2
B-77
 70
    66
 10
0.000000
 20
0.000000
 30
0.000000
  0
LWPOLYLINE
  5
671
100
AcDbEntity
  8
Detail
  6
HIDDEN
 62
     9
100
AcDbPolyline
 90
     2
 10
-113.750013
 20
-62.249941
 42
0.000000
 10
-38.750013
 20
-62.249941
 42
0.000000
  0
ENDBLK
  5
674
100
AcDbEntity
  8
0
100
AcDbBlockEnd
  0
BLOCK
  5
675
100
AcDbEntity
  8
Detail
100
AcDbBlockBegin
  2
B-78
 70
    66
 10
0.000000
 20
0.000000
 30
0.000000
  0
LWPOLYLINE
  5
676
100
AcDbEntity
  8
Detail
  6
CONTINUOUS
 62
     7
100
AcDbPolyline
 90
     3
 10
77.500023
 20
-131.249941
 42
0.000000
 10
-32.499997
 20
-131.249941
 42
0.000000
 10
-32.499997
 20
-62.249941
 42
0.000000
  0
ENDBLK
  5
67A
100
AcDbEntity
  8
0
100
AcDbBlockEnd
  0
BLOCK
  5
67B
100
AcDbEntity
  8
Detail
100
AcDbBlockBegin
  2
B-79
 70
    66
 10
0.000000
 20
0.000000
 30
0.000000
  0
LWPOLYLINE
  5
67C
100
AcDbEntity
  8
Detail
  6
CONTINUOUS
 62
     6
100
AcDbPolyline
 90
     2
 10
-209.492234
 20
-164.082067
 42
0.000000
 10
-209.492234
 20
-195.249941
 42
0.000000
  0
LWPOLYLINE
  5
67F
100
AcDbEntity
  8
Detail
  6
CONTINUOUS
 62
     6
100
AcDbPolyline
 90
     2
 10
-142.500050
 20
-161.718311
 42
0.000000
 10
-142.500050
 20
-192.988534
 42
0.000000
  0
LWPOLYLINE
  5
682
100
AcDbEntity
  8
Detail
  6
CONTINUOUS
 62
     6
100
AcDbPolyline
 90
     2
 10
-132.500013
 20
-128.812642
 42
0.000000
 10
-132.500013
 20
-192.988534
 42
0.000000
  0
ENDBLK
  5
685
100
AcDbEntity
  8
0
100
AcDbBlockEnd
  0
BLOCK
  5
686
100
AcDbEntity
  8
Detail
100
AcDbBlockBegin
  2
B-80
 70
    66
 10
0.000000
 20
0.000000
 30
0.000000
  0
LWPOLYLINE
  5
687
100
AcDbEntity
  8
Detail
  6
CONTINUOUS
 62
     4
100
AcDbPolyline
 90
     2
 10
22.500003
 20
133.750059
 42
-0.400000
 10
22.500003
 20
143.750059
 42
0.000000
  0
ENDBLK
  5
68A
100
AcDbEntity
  8
0
100
AcDbBlockEnd
  0
BLOCK
  5
68B
100
AcDbEntity
  8
Detail
100
AcDbBlockBegin
  2
B-81
 70
    66
 10
0.000000
 20
0.000000
 30
0.000000
  0
LWPOLYLINE
  5
68C
100
AcDbEntity
  8
Detail
  6
CONTINUOUS
 62
     4
100
AcDbPolyline
 90
     2
 10
8.500003
 20
-66.249941
 42
-0.500000
 10
14.500003
 20
-66.249941
 42
0.000000
  0
ENDBLK
  5
68F
100
AcDbEntity
  8
0
100
AcDbBlockEnd
  0
BLOCK
  5
690
100
AcDbEntity
  8
Detail
100
AcDbBlockBegin
  2
B-82
 70
    66
 10
0.000000
 20
0.000000
 30
0.000000
  0
LWPOLYLINE
  5
691
100
AcDbEntity
  8
Detail
  6
CONTINUOUS
 62
     4
100
AcDbPolyline
 90
     7
 10
-21.499997
 20
-64.249941
 42
0.000000
 10
8.500003
 20
-64.249941
 42
0.000000
 10
8.500003
 20
-66.249941
 42
0.000000
 10
7.250003
 20
-66.249941
 42
0.000000
 10
7.250003
 20
-65.499941
 42
0.000000
 10
-21.499997
 20
-65.499941
 42
0.000000
 10
-21.499997
 20
-64.249941
 42
0.000000
  0
ENDBLK
  5
699
100
AcDbEntity
  8
0
100
AcDbBlockEnd
  0
BLOCK
  5
69A
100
AcDbEntity
  8
Detail
100
AcDbBlockBegin
  2
B-83
 70
    66
 10
0.000000
 20
0.000000
 30
0.000000
  0
LWPOLYLINE
  5
69B
100
AcDbEntity
  8
Detail
  6
CONTINUOUS
 62
     4
100
AcDbPolyline
 90
     2
 10
-125.000009
 20
-53.999941
 42
0.000000
 10
-124.250013
 20
-58.999941
 42
0.000000
  0
ENDBLK
  5
69E
100
AcDbEntity
  8
0
100
AcDbBlockEnd
  0
BLOCK
  5
69F
100
AcDbEntity
  8
SCHRAFF
100
AcDbBlockBegin
  2
B-84
 70
    66
 10
0.000000
 20
0.000000
 30
0.000000
  0
HATCH
  5
6A0
100
AcDbEntity
  8
SCHRAFF
 62
   250
440
     0
100
AcDbHatch
 10
0.000000
 20
0.000000
 30
0.000000
210
0.000000
220
0.000000
230
1.000000
  2
SOLID
 70
     1
 71
     1
 91
     1
 92
    18
 72
     1
 73
     0
 93
    33
 10
-129.250013
 20
-63.624941
 42
0.000000
 10
-121.982246
 20
-63.624941
 42
0.000000
 10
-120.732246
 20
-62.374941
 42
0.000000
 10
-113.750013
 20
-62.374941
 42
0.000000
 10
-113.750013
 20
-61.124941
 42
0.000000
 10
-121.250013
 20
-61.124941
 42
0.000000
 10
-122.500013
 20
-62.374941
 42
0.000000
 10
-127.249997
 20
-62.374941
 42
0.000000
 10
-127.249997
 20
-60.249941
 42
0.000000
 10
-124.250013
 20
-60.249941
 42
0.000000
 10
-124.250013
 20
-58.999941
 42
0.000000
 10
-127.249997
 20
-58.999941
 42
0.000000
 10
-127.249997
 20
-53.999941
 42
0.000000
 10
-125.000009
 20
-53.999941
 42
0.000000
 10
-125.000009
 20
-52.749941
 42
0.000000
 10
-127.249997
 20
-52.749941
 42
0.000000
 10
-127.249997
 20
-51.499941
 42
0.000000
 10
-128.499997
 20
-51.499941
 42
0.000000
 10
-128.499997
 20
-52.749941
 42
0.000000
 10
-130.000013
 20
-52.749941
 42
0.000000
 10
-130.000013
 20
-53.999941
 42
0.000000
 10
-128.499997
 20
-53.999941
 42
0.000000
 10
-128.499997
 20
-58.999941
 42
0.000000
 10
-130.000013
 20
-58.999941
 42
0.000000
 10
-130.000013
 20
-60.249941
 42
0.000000
 10
-128.499997
 20
-60.249941
 42
0.000000
 10
-128.499997
 20
-62.374941
 42
0.000000
 10
-132.499997
 20
-62.374941
 42
0.000000
 10
-132.499997
 20
-63.624941
 42
0.000000
 10
-130.500013
 20
-63.624941
 42
0.000000
 10
-130.500013
 20
-66.249941
 42
0.000000
 10
-129.250013
 20
-66.249941
 42
0.000000
 10
-129.250013
 20
-63.624941
 42
0.000000
 97
     0
 75
     0
 76
     1
 98
     0
  0
ENDBLK
  5
6A1
100
AcDbEntity
  8
0
100
AcDbBlockEnd
  0
BLOCK
  5
6A2
100
AcDbEntity
  8
SCHRAFF
100
AcDbBlockBegin
  2
B-85
 70
    66
 10
0.000000
 20
0.000000
 30
0.000000
  0
HATCH
  5
6A3
100
AcDbEntity
  8
SCHRAFF
 62
     8
440
     0
100
AcDbHatch
 10
0.000000
 20
0.000000
 30
0.000000
210
0.000000
220
0.000000
230
1.000000
  2
SOLID
 70
     1
 71
     1
 91
     1
 92
    18
 72
     1
 73
     0
 93
     5
 10
-130.000013
 20
-60.249941
 42
0.000000
 10
-130.000013
 20
-45.249941
 42
0.000000
 10
-132.500013
 20
-45.249941
 42
0.000000
 10
-132.500013
 20
-60.249941
 42
0.000000
 10
-130.000013
 20
-60.249941
 42
0.000000
 97
     0
 75
     0
 76
     1
 98
     0
  0
ENDBLK
  5
6A4
100
AcDbEntity
  8
0
100
AcDbBlockEnd
  0
BLOCK
  5
6A5
100
AcDbEntity
  8
Detail
100
AcDbBlockBegin
  2
B-86
 70
    66
 10
0.000000
 20
0.000000
 30
0.000000
  0
LWPOLYLINE
  5
6A6
100
AcDbEntity
  8
Detail
  6
CONTINUOUS
 62
     4
100
AcDbPolyline
 90
    33
 10
-129.250013
 20
-66.249941
 42
0.000000
 10
-129.250013
 20
-63.624941
 42
0.000000
 10
-121.982246
 20
-63.624941
 42
0.000000
 10
-120.732246
 20
-62.374941
 42
0.000000
 10
-113.750013
 20
-62.374941
 42
0.000000
 10
-113.750013
 20
-61.124941
 42
0.000000
 10
-121.250013
 20
-61.124941
 42
0.000000
 10
-122.500013
 20
-62.374941
 42
0.000000
 10
-127.249997
 20
-62.374941
 42
0.000000
 10
-127.249997
 20
-60.249941
 42
0.000000
 10
-124.250013
 20
-60.249941
 42
0.000000
 10
-124.250013
 20
-58.999941
 42
0.000000
 10
-127.249997
 20
-58.999941
 42
0.000000
 10
-127.249997
 20
-53.999941
 42
0.000000
 10
-125.000009
 20
-53.999941
 42
0.000000
 10
-125.000009
 20
-52.749941
 42
0.000000
 10
-127.249997
 20
-52.749941
 42
0.000000
 10
-127.249997
 20
-51.499941
 42
0.000000
 10
-128.499997
 20
-51.499941
 42
0.000000
 10
-128.499997
 20
-52.749941
 42
0.000000
 10
-130.000013
 20
-52.749941
 42
0.000000
 10
-130.000013
 20
-53.999941
 42
0.000000
 10
-128.499997
 20
-53.999941
 42
0.000000
 10
-128.499997
 20
-58.999941
 42
0.000000
 10
-130.000013
 20
-58.999941
 42
0.000000
 10
-130.000013
 20
-60.249941
 42
0.000000
 10
-128.499997
 20
-60.249941
 42
0.000000
 10
-128.499997
 20
-62.374941
 42
0.000000
 10
-132.499997
 20
-62.374941
 42
0.000000
 10
-132.499997
 20
-63.624941
 42
0.000000
 10
-130.500013
 20
-63.624941
 42
0.000000
 10
-130.500013
 20
-66.249941
 42
0.000000
 10
-129.250013
 20
-66.249941
 42
0.000000
  0
ENDBLK
  5
6C8
100
AcDbEntity
  8
0
100
AcDbBlockEnd
  0
BLOCK
  5
6C9
100
AcDbEntity
  8
Detail
100
AcDbBlockBegin
  2
B-87
 70
    66
 10
0.000000
 20
0.000000
 30
0.000000
  0
LWPOLYLINE
  5
6CA
100
AcDbEntity
  8
Detail
  6
CONTINUOUS
 62
     4
100
AcDbPolyline
 90
     5
 10
-130.000013
 20
-45.249941
 42
0.000000
 10
-132.500013
 20
-45.249941
 42
0.000000
 10
-132.500013
 20
-60.249941
 42
0.000000
 10
-130.000013
 20
-60.249941
 42
0.000000
 10
-130.000013
 20
-45.249941
 42
0.000000
  0
ENDBLK
  5
6D0
100
AcDbEntity
  8
0
100
AcDbBlockEnd
  0
BLOCK
  5
6D1
100
AcDbEntity
  8
SCHRAFF
100
AcDbBlockBegin
  2
B-88
 70
    66
 10
0.000000
 20
0.000000
 30
0.000000
  0
HATCH
  5
6D2
100
AcDbEntity
  8
SCHRAFF
 62
     7
440
     0
100
AcDbHatch
 10
0.000000
 20
0.000000
 30
0.000000
210
0.000000
220
0.000000
230
1.000000
  2
SOLID
 70
     1
 71
     1
 91
     1
 92
    18
 72
     1
 73
     0
 93
     3
 10
-126.999997
 20
-62.999941
 42
1.000000
 10
-127.999997
 20
-62.999941
 42
1.000000
 10
-126.999997
 20
-62.999941
 42
0.000000
 97
     0
 75
     0
 76
     1
 98
     0
  0
ENDBLK
  5
6D3
100
AcDbEntity
  8
0
100
AcDbBlockEnd
  0
BLOCK
  5
6D4
100
AcDbEntity
  8
Detail
100
AcDbBlockBegin
  2
B-89
 70
    66
 10
0.000000
 20
0.000000
 30
0.000000
  0
CIRCLE
  5
6D5
100
AcDbEntity
  8
Detail
  6
CONTINUOUS
 62
     7
100
AcDbCircle
 10
-127.499997
 20
-62.999941
 40
0.500000
  0
ENDBLK
  5
6D6
100
AcDbEntity
  8
0
100
AcDbBlockEnd
  0
BLOCK
  5
6D7
100
AcDbEntity
  8
Detail
100
AcDbBlockBegin
  2
B-90
 70
    66
 10
0.000000
 20
0.000000
 30
0.000000
  0
LWPOLYLINE
  5
6D8
100
AcDbEntity
  8
Detail
  6
CONTINUOUS
 62
     7
100
AcDbPolyline
 90
     3
 10
77.500023
 20
-181.249941
 42
0.000000
 10
-127.499997
 20
-181.249941
 42
0.000000
 10
-127.499997
 20
-62.999941
 42
0.000000
  0
ENDBLK
  5
6DC
100
AcDbEntity
  8
0
100
AcDbBlockEnd
  0
BLOCK
  5
6DD
100
AcDbEntity
  8
Detail
100
AcDbBlockBegin
  2
B-91
 70
    66
 10
0.000000
 20
0.000000
 30
0.000000
  0
LWPOLYLINE
  5
6DE
100
AcDbEntity
  8
Detail
  6
CONTINUOUS
 62
     6
100
AcDbPolyline
 90
    23
 10
-212.500013
 20
-35.749941
 42
0.000000
 10
-211.500013
 20
-35.249941
 42
0.000000
 10
-210.500013
 20
-35.249941
 42
0.000000
 10
-209.500013
 20
-34.749941
 42
0.000000
 10
-208.500013
 20
-35.249941
 42
0.000000
 10
-207.500013
 20
-35.249941
 42
0.000000
 10
-206.500013
 20
-35.749941
 42
0.000000
 10
-205.500013
 20
-35.249941
 42
0.000000
 10
-204.500013
 20
-35.249941
 42
0.000000
 10
-203.500013
 20
-34.749941
 42
0.000000
 10
-202.500013
 20
-35.249941
 42
0.000000
 10
-201.500013
 20
-35.249941
 42
0.000000
 10
-200.500013
 20
-35.749941
 42
0.000000
 10
-199.500013
 20
-35.249941
 42
0.000000
 10
-198.500013
 20
-35.249941
 42
0.000000
 10
-197.500013
 20
-34.749941
 42
0.000000
 10
-196.500013
 20
-35.249941
 42
0.000000
 10
-195.500013
 20
-35.249941
 42
0.000000
 10
-194.500013
 20
-35.749941
 42
0.000000
 10
-193.500013
 20
-35.249941
 42
0.000000
 10
-192.500013
 20
-35.249941
 42
0.000000
 10
-191.500013
 20
-34.749941
 42
0.000000
 10
-190.500013
 20
-35.249941
 42
0.000000
  0
ENDBLK
  5
6F6
100
AcDbEntity
  8
0
100
AcDbBlockEnd
  0
ENDSEC
  0
SECTION
  2
ENTITIES
  0
INSERT
  5
6F7
100
AcDbEntity
  8
0
100
AcDbBlockReference
  2
B
 10
0.000000
 20
0.000000
 30
0.000000
 41
1.000000
 42
1.000000
 43
1.000000
 50
0.000000
  0
INSERT
  5
6F8
100
AcDbEntity
  8
Detail
100
AcDbBlockReference
  2
B-2
 10
0.000000
 20
0.000000
 30
0.000000
 41
1.000000
 42
1.000000
 43
1.000000
 50
0.000000
  0
INSERT
  5
6F9
100
AcDbEntity
  8
0
100
AcDbBlockReference
  2
B-3
 10
0.000000
 20
0.000000
 30
0.000000
 41
1.000000
 42
1.000000
 43
1.000000
 50
0.000000
  0
INSERT
  5
6FA
100
AcDbEntity
  8
0
100
AcDbBlockReference
  2
B-4
 10
0.000000
 20
0.000000
 30
0.000000
 41
1.000000
 42
1.000000
 43
1.000000
 50
0.000000
  0
INSERT
  5
6FB
100
AcDbEntity
  8
Detail
100
AcDbBlockReference
  2
B-5
 10
0.000000
 20
0.000000
 30
0.000000
 41
1.000000
 42
1.000000
 43
1.000000
 50
0.000000
  0
INSERT
  5
6FC
100
AcDbEntity
  8
0
100
AcDbBlockReference
  2
B-6
 10
0.000000
 20
0.000000
 30
0.000000
 41
1.000000
 42
1.000000
 43
1.000000
 50
0.000000
  0
INSERT
  5
6FD
100
AcDbEntity
  8
0
100
AcDbBlockReference
  2
B-7
 10
0.000000
 20
0.000000
 30
0.000000
 41
1.000000
 42
1.000000
 43
1.000000
 50
0.000000
  0
INSERT
  5
6FE
100
AcDbEntity
  8
0
100
AcDbBlockReference
  2
B-8
 10
0.000000
 20
0.000000
 30
0.000000
 41
1.000000
 42
1.000000
 43
1.000000
 50
0.000000
  0
INSERT
  5
6FF
100
AcDbEntity
  8
0
100
AcDbBlockReference
  2
B-9
 10
0.000000
 20
0.000000
 30
0.000000
 41
1.000000
 42
1.000000
 43
1.000000
 50
0.000000
  0
INSERT
  5
700
100
AcDbEntity
  8
0
100
AcDbBlockReference
  2
B-10
 10
0.000000
 20
0.000000
 30
0.000000
 41
1.000000
 42
1.000000
 43
1.000000
 50
0.000000
  0
INSERT
  5
701
100
AcDbEntity
  8
0
100
AcDbBlockReference
  2
B-11
 10
0.000000
 20
0.000000
 30
0.000000
 41
1.000000
 42
1.000000
 43
1.000000
 50
0.000000
  0
INSERT
  5
702
100
AcDbEntity
  8
Detail
100
AcDbBlockReference
  2
B-12
 10
0.000000
 20
0.000000
 30
0.000000
 41
1.000000
 42
1.000000
 43
1.000000
 50
0.000000
  0
INSERT
  5
703
100
AcDbEntity
  8
0
100
AcDbBlockReference
  2
B-13
 10
0.000000
 20
0.000000
 30
0.000000
 41
1.000000
 42
1.000000
 43
1.000000
 50
0.000000
  0
INSERT
  5
704
100
AcDbEntity
  8
0
100
AcDbBlockReference
  2
B-14
 10
0.000000
 20
0.000000
 30
0.000000
 41
1.000000
 42
1.000000
 43
1.000000
 50
0.000000
  0
INSERT
  5
705
100
AcDbEntity
  8
0
100
AcDbBlockReference
  2
B-15
 10
0.000000
 20
0.000000
 30
0.000000
 41
1.000000
 42
1.000000
 43
1.000000
 50
0.000000
  0
INSERT
  5
706
100
AcDbEntity
  8
Detail
100
AcDbBlockReference
  2
B-16
 10
0.000000
 20
0.000000
 30
0.000000
 41
1.000000
 42
1.000000
 43
1.000000
 50
0.000000
  0
INSERT
  5
707
100
AcDbEntity
  8
Detail
100
AcDbBlockReference
  2
B-17
 10
0.000000
 20
0.000000
 30
0.000000
 41
1.000000
 42
1.000000
 43
1.000000
 50
0.000000
  0
INSERT
  5
708
100
AcDbEntity
  8
Detail
100
AcDbBlockReference
  2
B-18
 10
0.000000
 20
0.000000
 30
0.000000
 41
1.000000
 42
1.000000
 43
1.000000
 50
0.000000
  0
INSERT
  5
709
100
AcDbEntity
  8
Detail
100
AcDbBlockReference
  2
B-19
 10
0.000000
 20
0.000000
 30
0.000000
 41
1.000000
 42
1.000000
 43
1.000000
 50
0.000000
  0
INSERT
  5
70A
100
AcDbEntity
  8
0
100
AcDbBlockReference
  2
B-20
 10
0.000000
 20
0.000000
 30
0.000000
 41
1.000000
 42
1.000000
 43
1.000000
 50
0.000000
  0
INSERT
  5
70B
100
AcDbEntity
  8
0
100
AcDbBlockReference
  2
B-21
 10
0.000000
 20
0.000000
 30
0.000000
 41
1.000000
 42
1.000000
 43
1.000000
 50
0.000000
  0
INSERT
  5
70C
100
AcDbEntity
  8
Detail
100
AcDbBlockReference
  2
B-22
 10
0.000000
 20
0.000000
 30
0.000000
 41
1.000000
 42
1.000000
 43
1.000000
 50
0.000000
  0
INSERT
  5
70D
100
AcDbEntity
  8
Detail
100
AcDbBlockReference
  2
B-23
 10
0.000000
 20
0.000000
 30
0.000000
 41
1.000000
 42
1.000000
 43
1.000000
 50
0.000000
  0
INSERT
  5
70E
100
AcDbEntity
  8
Detail
100
AcDbBlockReference
  2
B-24
 10
0.000000
 20
0.000000
 30
0.000000
 41
1.000000
 42
1.000000
 43
1.000000
 50
0.000000
  0
INSERT
  5
70F
100
AcDbEntity
  8
0
100
AcDbBlockReference
  2
B-25
 10
0.000000
 20
0.000000
 30
0.000000
 41
1.000000
 42
1.000000
 43
1.000000
 50
0.000000
  0
INSERT
  5
710
100
AcDbEntity
  8
0
100
AcDbBlockReference
  2
B-26
 10
0.000000
 20
0.000000
 30
0.000000
 41
1.000000
 42
1.000000
 43
1.000000
 50
0.000000
  0
INSERT
  5
711
100
AcDbEntity
  8
Detail
100
AcDbBlockReference
  2
B-27
 10
0.000000
 20
0.000000
 30
0.000000
 41
1.000000
 42
1.000000
 43
1.000000
 50
0.000000
  0
INSERT
  5
712
100
AcDbEntity
  8
Detail
100
AcDbBlockReference
  2
B-28
 10
0.000000
 20
0.000000
 30
0.000000
 41
1.000000
 42
1.000000
 43
1.000000
 50
0.000000
  0
INSERT
  5
713
100
AcDbEntity
  8
0
100
AcDbBlockReference
  2
B-29
 10
0.000000
 20
0.000000
 30
0.000000
 41
1.000000
 42
1.000000
 43
1.000000
 50
0.000000
  0
INSERT
  5
714
100
AcDbEntity
  8
0
100
AcDbBlockReference
  2
B-30
 10
0.000000
 20
0.000000
 30
0.000000
 41
1.000000
 42
1.000000
 43
1.000000
 50
0.000000
  0
INSERT
  5
715
100
AcDbEntity
  8
Detail
100
AcDbBlockReference
  2
B-31
 10
0.000000
 20
0.000000
 30
0.000000
 41
1.000000
 42
1.000000
 43
1.000000
 50
0.000000
  0
INSERT
  5
716
100
AcDbEntity
  8
0
100
AcDbBlockReference
  2
B-32
 10
0.000000
 20
0.000000
 30
0.000000
 41
1.000000
 42
1.000000
 43
1.000000
 50
0.000000
  0
INSERT
  5
717
100
AcDbEntity
  8
Detail
100
AcDbBlockReference
  2
B-33
 10
0.000000
 20
0.000000
 30
0.000000
 41
1.000000
 42
1.000000
 43
1.000000
 50
0.000000
  0
INSERT
  5
718
100
AcDbEntity
  8
Detail
100
AcDbBlockReference
  2
B-34
 10
0.000000
 20
0.000000
 30
0.000000
 41
1.000000
 42
1.000000
 43
1.000000
 50
0.000000
  0
INSERT
  5
719
100
AcDbEntity
  8
0
100
AcDbBlockReference
  2
B-35
 10
0.000000
 20
0.000000
 30
0.000000
 41
1.000000
 42
1.000000
 43
1.000000
 50
0.000000
  0
INSERT
  5
71A
100
AcDbEntity
  8
Detail
100
AcDbBlockReference
  2
B-36
 10
0.000000
 20
0.000000
 30
0.000000
 41
1.000000
 42
1.000000
 43
1.000000
 50
0.000000
  0
INSERT
  5
71B
100
AcDbEntity
  8
0
100
AcDbBlockReference
  2
B-37
 10
0.000000
 20
0.000000
 30
0.000000
 41
1.000000
 42
1.000000
 43
1.000000
 50
0.000000
  0
INSERT
  5
71C
100
AcDbEntity
  8
Detail
100
AcDbBlockReference
  2
B-38
 10
0.000000
 20
0.000000
 30
0.000000
 41
1.000000
 42
1.000000
 43
1.000000
 50
0.000000
  0
INSERT
  5
71D
100
AcDbEntity
  8
0
100
AcDbBlockReference
  2
B-39
 10
0.000000
 20
0.000000
 30
0.000000
 41
1.000000
 42
1.000000
 43
1.000000
 50
0.000000
  0
INSERT
  5
71E
100
AcDbEntity
  8
0
100
AcDbBlockReference
  2
B-40
 10
0.000000
 20
0.000000
 30
0.000000
 41
1.000000
 42
1.000000
 43
1.000000
 50
0.000000
  0
INSERT
  5
71F
100
AcDbEntity
  8
Detail
100
AcDbBlockReference
  2
B-41
 10
0.000000
 20
0.000000
 30
0.000000
 41
1.000000
 42
1.000000
 43
1.000000
 50
0.000000
  0
INSERT
  5
720
100
AcDbEntity
  8
0
100
AcDbBlockReference
  2
B-42
 10
0.000000
 20
0.000000
 30
0.000000
 41
1.000000
 42
1.000000
 43
1.000000
 50
0.000000
  0
INSERT
  5
721
100
AcDbEntity
  8
Detail
100
AcDbBlockReference
  2
B-43
 10
0.000000
 20
0.000000
 30
0.000000
 41
1.000000
 42
1.000000
 43
1.000000
 50
0.000000
  0
INSERT
  5
722
100
AcDbEntity
  8
Detail
100
AcDbBlockReference
  2
B-44
 10
0.000000
 20
0.000000
 30
0.000000
 41
1.000000
 42
1.000000
 43
1.000000
 50
0.000000
  0
INSERT
  5
723
100
AcDbEntity
  8
Detail
100
AcDbBlockReference
  2
B-45
 10
0.000000
 20
0.000000
 30
0.000000
 41
1.000000
 42
1.000000
 43
1.000000
 50
0.000000
  0
INSERT
  5
724
100
AcDbEntity
  8
0
100
AcDbBlockReference
  2
B-46
 10
0.000000
 20
0.000000
 30
0.000000
 41
1.000000
 42
1.000000
 43
1.000000
 50
0.000000
  0
INSERT
  5
725
100
AcDbEntity
  8
Detail
100
AcDbBlockReference
  2
B-47
 10
0.000000
 20
0.000000
 30
0.000000
 41
1.000000
 42
1.000000
 43
1.000000
 50
0.000000
  0
INSERT
  5
726
100
AcDbEntity
  8
0
100
AcDbBlockReference
  2
B-48
 10
0.000000
 20
0.000000
 30
0.000000
 41
1.000000
 42
1.000000
 43
1.000000
 50
0.000000
  0
INSERT
  5
727
100
AcDbEntity
  8
Detail
100
AcDbBlockReference
  2
B-49
 10
0.000000
 20
0.000000
 30
0.000000
 41
1.000000
 42
1.000000
 43
1.000000
 50
0.000000
  0
INSERT
  5
728
100
AcDbEntity
  8
0
100
AcDbBlockReference
  2
B-50
 10
0.000000
 20
0.000000
 30
0.000000
 41
1.000000
 42
1.000000
 43
1.000000
 50
0.000000
  0
INSERT
  5
729
100
AcDbEntity
  8
Detail
100
AcDbBlockReference
  2
B-51
 10
0.000000
 20
0.000000
 30
0.000000
 41
1.000000
 42
1.000000
 43
1.000000
 50
0.000000
  0
INSERT
  5
72A
100
AcDbEntity
  8
Detail
100
AcDbBlockReference
  2
B-52
 10
0.000000
 20
0.000000
 30
0.000000
 41
1.000000
 42
1.000000
 43
1.000000
 50
0.000000
  0
INSERT
  5
72B
100
AcDbEntity
  8
Detail
100
AcDbBlockReference
  2
B-53
 10
0.000000
 20
0.000000
 30
0.000000
 41
1.000000
 42
1.000000
 43
1.000000
 50
0.000000
  0
INSERT
  5
72C
100
AcDbEntity
  8
0
100
AcDbBlockReference
  2
B-54
 10
0.000000
 20
0.000000
 30
0.000000
 41
1.000000
 42
1.000000
 43
1.000000
 50
0.000000
  0
INSERT
  5
72D
100
AcDbEntity
  8
Detail
100
AcDbBlockReference
  2
B-55
 10
0.000000
 20
0.000000
 30
0.000000
 41
1.000000
 42
1.000000
 43
1.000000
 50
0.000000
  0
INSERT
  5
72E
100
AcDbEntity
  8
Detail
100
AcDbBlockReference
  2
B-56
 10
0.000000
 20
0.000000
 30
0.000000
 41
1.000000
 42
1.000000
 43
1.000000
 50
0.000000
  0
INSERT
  5
72F
100
AcDbEntity
  8
Detail
100
AcDbBlockReference
  2
B-57
 10
0.000000
 20
0.000000
 30
0.000000
 41
1.000000
 42
1.000000
 43
1.000000
 50
0.000000
  0
INSERT
  5
730
100
AcDbEntity
  8
Detail
100
AcDbBlockReference
  2
B-58
 10
0.000000
 20
0.000000
 30
0.000000
 41
1.000000
 42
1.000000
 43
1.000000
 50
0.000000
  0
INSERT
  5
731
100
AcDbEntity
  8
Detail
100
AcDbBlockReference
  2
B-59
 10
0.000000
 20
0.000000
 30
0.000000
 41
1.000000
 42
1.000000
 43
1.000000
 50
0.000000
  0
INSERT
  5
732
100
AcDbEntity
  8
Detail
100
AcDbBlockReference
  2
B-60
 10
0.000000
 20
0.000000
 30
0.000000
 41
1.000000
 42
1.000000
 43
1.000000
 50
0.000000
  0
INSERT
  5
733
100
AcDbEntity
  8
Detail
100
AcDbBlockReference
  2
B-61
 10
0.000000
 20
0.000000
 30
0.000000
 41
1.000000
 42
1.000000
 43
1.000000
 50
0.000000
  0
INSERT
  5
734
100
AcDbEntity
  8
Detail
100
AcDbBlockReference
  2
B-62
 10
0.000000
 20
0.000000
 30
0.000000
 41
1.000000
 42
1.000000
 43
1.000000
 50
0.000000
  0
INSERT
  5
735
100
AcDbEntity
  8
0
100
AcDbBlockReference
  2
glasleiste
 10
0.000000
 20
0.000000
 30
0.000000
 41
1.000000
 42
1.000000
 43
1.000000
 50
0.000000
  0
INSERT
  5
736
100
AcDbEntity
  8
Detail
100
AcDbBlockReference
  2
glas
 10
0.000000
 20
0.000000
 30
0.000000
 41
1.000000
 42
1.000000
 43
1.000000
 50
0.000000
  0
INSERT
  5
737
100
AcDbEntity
  8
0
100
AcDbBlockReference
  2
rahmen
 10
0.000000
 20
0.000000
 30
0.000000
 41
1.000000
 42
1.000000
 43
1.000000
 50
0.000000
  0
INSERT
  5
738
100
AcDbEntity
  8
0
100
AcDbBlockReference
  2
fluegel
 10
0.000000
 20
0.000000
 30
0.000000
 41
1.000000
 42
1.000000
 43
1.000000
 50
0.000000
  0
INSERT
  5
739
100
AcDbEntity
  8
Detail
100
AcDbBlockReference
  2
B-63
 10
0.000000
 20
0.000000
 30
0.000000
 41
1.000000
 42
1.000000
 43
1.000000
 50
0.000000
  0
INSERT
  5
73A
100
AcDbEntity
  8
Detail
100
AcDbBlockReference
  2
B-64
 10
0.000000
 20
0.000000
 30
0.000000
 41
1.000000
 42
1.000000
 43
1.000000
 50
0.000000
  0
INSERT
  5
73B
100
AcDbEntity
  8
Detail
100
AcDbBlockReference
  2
B-66
 10
0.000000
 20
0.000000
 30
0.000000
 41
1.000000
 42
1.000000
 43
1.000000
 50
0.000000
  0
INSERT
  5
73C
100
AcDbEntity
  8
Detail
100
AcDbBlockReference
  2
B-67
 10
0.000000
 20
0.000000
 30
0.000000
 41
1.000000
 42
1.000000
 43
1.000000
 50
0.000000
  0
INSERT
  5
73D
100
AcDbEntity
  8
Detail
100
AcDbBlockReference
  2
B-68
 10
0.000000
 20
0.000000
 30
0.000000
 41
1.000000
 42
1.000000
 43
1.000000
 50
0.000000
  0
INSERT
  5
73E
100
AcDbEntity
  8
Detail
100
AcDbBlockReference
  2
B-69
 10
0.000000
 20
0.000000
 30
0.000000
 41
1.000000
 42
1.000000
 43
1.000000
 50
0.000000
  0
INSERT
  5
73F
100
AcDbEntity
  8
Detail
100
AcDbBlockReference
  2
B-70
 10
0.000000
 20
0.000000
 30
0.000000
 41
1.000000
 42
1.000000
 43
1.000000
 50
0.000000
  0
INSERT
  5
740
100
AcDbEntity
  8
Detail
100
AcDbBlockReference
  2
B-71
 10
0.000000
 20
0.000000
 30
0.000000
 41
1.000000
 42
1.000000
 43
1.000000
 50
0.000000
  0
INSERT
  5
741
100
AcDbEntity
  8
Detail
100
AcDbBlockReference
  2
B-72
 10
0.000000
 20
0.000000
 30
0.000000
 41
1.000000
 42
1.000000
 43
1.000000
 50
0.000000
  0
INSERT
  5
742
100
AcDbEntity
  8
Detail
100
AcDbBlockReference
  2
B-73
 10
0.000000
 20
0.000000
 30
0.000000
 41
1.000000
 42
1.000000
 43
1.000000
 50
0.000000
  0
INSERT
  5
743
100
AcDbEntity
  8
Detail
100
AcDbBlockReference
  2
B-74
 10
0.000000
 20
0.000000
 30
0.000000
 41
1.000000
 42
1.000000
 43
1.000000
 50
0.000000
  0
INSERT
  5
744
100
AcDbEntity
  8
Detail
100
AcDbBlockReference
  2
B-75
 10
0.000000
 20
0.000000
 30
0.000000
 41
1.000000
 42
1.000000
 43
1.000000
 50
0.000000
  0
INSERT
  5
745
100
AcDbEntity
  8
Detail
100
AcDbBlockReference
  2
B-76
 10
0.000000
 20
0.000000
 30
0.000000
 41
1.000000
 42
1.000000
 43
1.000000
 50
0.000000
  0
INSERT
  5
746
100
AcDbEntity
  8
Detail
100
AcDbBlockReference
  2
B-77
 10
0.000000
 20
0.000000
 30
0.000000
 41
1.000000
 42
1.000000
 43
1.000000
 50
0.000000
  0
INSERT
  5
747
100
AcDbEntity
  8
Detail
100
AcDbBlockReference
  2
B-78
 10
0.000000
 20
0.000000
 30
0.000000
 41
1.000000
 42
1.000000
 43
1.000000
 50
0.000000
  0
INSERT
  5
748
100
AcDbEntity
  8
Detail
100
AcDbBlockReference
  2
B-79
 10
0.000000
 20
0.000000
 30
0.000000
 41
1.000000
 42
1.000000
 43
1.000000
 50
0.000000
  0
INSERT
  5
749
100
AcDbEntity
  8
Detail
100
AcDbBlockReference
  2
B-80
 10
0.000000
 20
0.000000
 30
0.000000
 41
1.000000
 42
1.000000
 43
1.000000
 50
0.000000
  0
INSERT
  5
74A
100
AcDbEntity
  8
Detail
100
AcDbBlockReference
  2
B-81
 10
0.000000
 20
0.000000
 30
0.000000
 41
1.000000
 42
1.000000
 43
1.000000
 50
0.000000
  0
INSERT
  5
74B
100
AcDbEntity
  8
Detail
100
AcDbBlockReference
  2
B-82
 10
0.000000
 20
0.000000
 30
0.000000
 41
1.000000
 42
1.000000
 43
1.000000
 50
0.000000
  0
INSERT
  5
74C
100
AcDbEntity
  8
Detail
100
AcDbBlockReference
  2
B-83
 10
0.000000
 20
0.000000
 30
0.000000
 41
1.000000
 42
1.000000
 43
1.000000
 50
0.000000
  0
INSERT
  5
74D
100
AcDbEntity
  8
0
100
AcDbBlockReference
  2
B-84
 10
0.000000
 20
0.000000
 30
0.000000
 41
1.000000
 42
1.000000
 43
1.000000
 50
0.000000
  0
INSERT
  5
74E
100
AcDbEntity
  8
0
100
AcDbBlockReference
  2
B-85
 10
0.000000
 20
0.000000
 30
0.000000
 41
1.000000
 42
1.000000
 43
1.000000
 50
0.000000
  0
INSERT
  5
74F
100
AcDbEntity
  8
Detail
100
AcDbBlockReference
  2
B-86
 10
0.000000
 20
0.000000
 30
0.000000
 41
1.000000
 42
1.000000
 43
1.000000
 50
0.000000
  0
INSERT
  5
750
100
AcDbEntity
  8
Detail
100
AcDbBlockReference
  2
B-87
 10
0.000000
 20
0.000000
 30
0.000000
 41
1.000000
 42
1.000000
 43
1.000000
 50
0.000000
  0
INSERT
  5
751
100
AcDbEntity
  8
0
100
AcDbBlockReference
  2
B-88
 10
0.000000
 20
0.000000
 30
0.000000
 41
1.000000
 42
1.000000
 43
1.000000
 50
0.000000
  0
INSERT
  5
752
100
AcDbEntity
  8
Detail
100
AcDbBlockReference
  2
B-89
 10
0.000000
 20
0.000000
 30
0.000000
 41
1.000000
 42
1.000000
 43
1.000000
 50
0.000000
  0
INSERT
  5
753
100
AcDbEntity
  8
Detail
100
AcDbBlockReference
  2
B-90
 10
0.000000
 20
0.000000
 30
0.000000
 41
1.000000
 42
1.000000
 43
1.000000
 50
0.000000
  0
INSERT
  5
754
100
AcDbEntity
  8
Detail
100
AcDbBlockReference
  2
B-91
 10
0.000000
 20
0.000000
 30
0.000000
 41
1.000000
 42
1.000000
 43
1.000000
 50
0.000000
  0
ENDSEC
  0
SECTION
  2
OBJECTS
  0
DICTIONARY
  5
C
330
0
100
AcDbDictionary
281
     1
  3
ACAD_COLOR
350
6B
  3
ACAD_GROUP
350
D
  3
ACAD_IMAGE_DICT
350
1E2
  3
ACAD_IMAGE_VARS
350
1E3
  3
ACAD_MATERIAL
350
6A
  3
ACAD_MLINESTYLE
350
17
  3
ACAD_PLOTSETTINGS
350
19
  3
ACAD_PLOTSTYLENAME
350
E
  3
ACAD_SCALELIST
350
10C
  3
ACAD_TABLESTYLE
350
7E
  3
ACAD_VISUALSTYLE
350
EF
  3
ACDB_RECOMPOSE_DATA
350
15D
  3
AcDbVariableDictionary
350
5E
  0
DICTIONARY
  5
13C
330
10
100
AcDbDictionary
280
     1
281
     1
  0
DICTIONARY
  5
203
330
202
100
AcDbDictionary
280
     1
281
     1
  0
DICTIONARY
  5
6B
102
{ACAD_REACTORS
330
C
102
}
330
C
100
AcDbDictionary
281
     1
  0
DICTIONARY
  5
D
102
{ACAD_REACTORS
330
C
102
}
330
C
100
AcDbDictionary
281
     1
  0
DICTIONARY
  5
1E2
102
{ACAD_REACTORS
330
C
102
}
330
C
100
AcDbDictionary
281
     1
  3
Kombinationsfassde_Systemübergang Sturz_2_1.tif
350
20C
  0
RASTERVARIABLES
  5
1E3
102
{ACAD_REACTORS
330
C
102
}
330
C
100
AcDbRasterVariables
 90
        0
 70
     1
 71
     1
 72
     1
  0
DICTIONARY
  5
6A
102
{ACAD_REACTORS
330
C
102
}
330
C
100
AcDbDictionary
281
     1
  3
ByBlock
350
ED
  3
ByLayer
350
EC
  3
Global
350
EE
  0
DICTIONARY
  5
12D
102
{ACAD_REACTORS
330
C
102
}
330
C
100
AcDbDictionary
281
     1
  3
Annotative
350
13B
  3
Standard
350
12E
  0
DICTIONARY
  5
17
102
{ACAD_REACTORS
330
C
102
}
330
C
100
AcDbDictionary
281
     1
  3
Standard
350
18
  0
DICTIONARY
  5
19
102
{ACAD_REACTORS
330
C
102
}
330
C
100
AcDbDictionary
281
     1
  0
ACDBDICTIONARYWDFLT
  5
E
102
{ACAD_REACTORS
330
C
102
}
330
C
100
AcDbDictionary
281
     1
  3
Normal
350
F
100
AcDbDictionaryWithDefault
340
F
  0
DICTIONARY
  5
10C
102
{ACAD_REACTORS
330
C
102
}
330
C
100
AcDbDictionary
281
     1
  3
A0
350
10D
  3
A1
350
1BE
  3
A2
350
1BF
  3
A3
350
1C0
  3
A4
350
1C1
  3
A5
350
1C2
  3
A6
350
1C3
  3
A7
350
1C4
  3
A8
350
1C5
  3
A9
350
1C6
  3
B0
350
1C7
  3
B1
350
1C8
  3
B2
350
1C9
  3
B3
350
1CA
  3
B4
350
1CB
  3
B5
350
1CC
  3
B6
350
1CD
  0
DICTIONARY
  5
7E
102
{ACAD_REACTORS
330
C
102
}
330
C
100
AcDbDictionary
281
     1
  3
Standard
350
7F
  0
DICTIONARY
  5
EF
102
{ACAD_REACTORS
330
C
102
}
330
C
100
AcDbDictionary
281
     1
  3
2dWireframe
350
F5
  3
3D Hidden
350
F7
  3
3dWireframe
350
F6
  3
Basic
350
F4
  3
Brighten
350
FB
  3
ColorChange
350
FF
  3
Conceptual
350
F8
  3
Dim
350
FA
  3
Facepattern
350
FE
  3
Flat
350
F0
  3
FlatWithEdges
350
F1
  3
Gouraud
350
F2
  3
GouraudWithEdges
350
F3
  3
Linepattern
350
FD
  3
Realistic
350
F9
  3
Thicken
350
FC
  0
XRECORD
  5
15D
102
{ACAD_REACTORS
330
C
102
}
330
C
100
AcDbXrecord
280
     1
 90
        1
330
7F
  0
DICTIONARY
  5
5E
102
{ACAD_REACTORS
330
C
102
}
330
C
100
AcDbDictionary
281
     1
  3
CANNOSCALE
350
146
  3
CMLEADERSTYLE
350
145
  3
CTABLESTYLE
350
84
  3
DIMASSOC
350
5F
  3
HIDETEXT
350
63
  3
LAYEREVAL
350
1AE
  3
LAYERNOTIFY
350
1AF
  0
MATERIAL
  5
ED
102
{ACAD_REACTORS
330
6A
102
}
330
6A
100
AcDbMaterial
  1
ByBlock
 94
       63
  0
MATERIAL
  5
EC
102
{ACAD_REACTORS
330
6A
102
}
330
6A
100
AcDbMaterial
  1
ByLayer
 94
       63
  0
MATERIAL
  5
EE
102
{ACAD_XDICTIONARY
360
173
102
}
102
{ACAD_REACTORS
330
6A
102
}
330
6A
100
AcDbMaterial
  1
Global
 43
0.0007999999797903
 43
0.0
 43
0.0
 43
0.0
 43
0.0
 43
0.0007999999797903
 43
0.0
 43
0.0
 43
0.0
 43
0.0
 43
1.0
 43
0.0
 43
0.0
 43
0.0
 43
0.0
 43
1.0
 49
0.0007999999797903
 49
0.0
 49
0.0
 49
0.0
 49
0.0
 49
0.0007999999797903
 49
0.0
 49
0.0
 49
0.0
 49
0.0
 49
1.0
 49
0.0
 49
0.0
 49
0.0
 49
0.0
 49
1.0
142
0.0007999999797903
142
0.0
142
0.0
142
0.0
142
0.0
142
0.0007999999797903
142
0.0
142
0.0
142
0.0
142
0.0
142
1.0
142
0.0
142
0.0
142
0.0
142
0.0
142
1.0
144
0.0007999999797903
144
0.0
144
0.0
144
0.0
144
0.0
144
0.0007999999797903
144
0.0
144
0.0
144
0.0
144
0.0
144
1.0
144
0.0
144
0.0
144
0.0
144
0.0
144
1.0
 94
       63
1001
ACAD
1070
    -1
1070
     3
1070
     0
1000

1071
        0
1070
     0
  0
MLINESTYLE
  5
18
102
{ACAD_REACTORS
330
17
102
}
330
17
100
AcDbMlineStyle
  2
STANDARD
 70
     0
  3

 62
   256
 51
90.0
 52
90.0
 71
     2
 49
0.5
 62
   256
  6
BYLAYER
 49
-0.5
 62
   256
  6
BYLAYER
  0
ACDBPLACEHOLDER
  5
F
102
{ACAD_REACTORS
330
E
102
}
330
E
  0
SCALE
  5
10D
102
{ACAD_REACTORS
330
10C
102
}
330
10C
100
AcDbScale
 70
     0
300
1:1
140
1.0
141
1.0
290
     1
  0
SCALE
  5
1BE
102
{ACAD_REACTORS
330
10C
102
}
330
10C
100
AcDbScale
 70
     0
300
1:2
140
1.0
141
2.0
290
     0
  0
SCALE
  5
1BF
102
{ACAD_REACTORS
330
10C
102
}
330
10C
100
AcDbScale
 70
     0
300
1:4
140
1.0
141
4.0
290
     0
  0
SCALE
  5
1C0
102
{ACAD_REACTORS
330
10C
102
}
330
10C
100
AcDbScale
 70
     0
300
1:5
140
1.0
141
5.0
290
     0
  0
SCALE
  5
1C1
102
{ACAD_REACTORS
330
10C
102
}
330
10C
100
AcDbScale
 70
     0
300
1:8
140
1.0
141
8.0
290
     0
  0
SCALE
  5
1C2
102
{ACAD_REACTORS
330
10C
102
}
330
10C
100
AcDbScale
 70
     0
300
1:10
140
1.0
141
10.0
290
     0
  0
SCALE
  5
1C3
102
{ACAD_REACTORS
330
10C
102
}
330
10C
100
AcDbScale
 70
     0
300
1:16
140
1.0
141
16.0
290
     0
  0
SCALE
  5
1C4
102
{ACAD_REACTORS
330
10C
102
}
330
10C
100
AcDbScale
 70
     0
300
1:20
140
1.0
141
20.0
290
     0
  0
SCALE
  5
1C5
102
{ACAD_REACTORS
330
10C
102
}
330
10C
100
AcDbScale
 70
     0
300
1:30
140
1.0
141
30.0
290
     0
  0
SCALE
  5
1C6
102
{ACAD_REACTORS
330
10C
102
}
330
10C
100
AcDbScale
 70
     0
300
1:40
140
1.0
141
40.0
290
     0
  0
SCALE
  5
1C7
102
{ACAD_REACTORS
330
10C
102
}
330
10C
100
AcDbScale
 70
     0
300
1:50
140
1.0
141
50.0
290
     0
  0
SCALE
  5
1C8
102
{ACAD_REACTORS
330
10C
102
}
330
10C
100
AcDbScale
 70
     0
300
1:100
140
1.0
141
100.0
290
     0
  0
SCALE
  5
1C9
102
{ACAD_REACTORS
330
10C
102
}
330
10C
100
AcDbScale
 70
     0
300
2:1
140
2.0
141
1.0
290
     0
  0
SCALE
  5
1CA
102
{ACAD_REACTORS
330
10C
102
}
330
10C
100
AcDbScale
 70
     0
300
4:1
140
4.0
141
1.0
290
     0
  0
SCALE
  5
1CB
102
{ACAD_REACTORS
330
10C
102
}
330
10C
100
AcDbScale
 70
     0
300
8:1
140
8.0
141
1.0
290
     0
  0
SCALE
  5
1CC
102
{ACAD_REACTORS
330
10C
102
}
330
10C
100
AcDbScale
 70
     0
300
10:1
140
10.0
141
1.0
290
     0
  0
SCALE
  5
1CD
102
{ACAD_REACTORS
330
10C
102
}
330
10C
100
AcDbScale
 70
     0
300
100:1
140
100.0
141
1.0
290
     0
  0
TABLESTYLE
  5
7F
102
{ACAD_XDICTIONARY
360
162
102
}
102
{ACAD_REACTORS
330
7E
102
}
330
7E
100
AcDbTableStyle
  3
Standard
 70
     0
 71
     0
 40
1.5
 41
1.5
280
     0
281
     0
  7
Standard
140
4.5
170
     2
 62
     0
 63
     7
283
     0
 90
      512
 91
        0
  1

274
    -2
284
     1
 64
     0
275
    -2
285
     1
 65
     0
276
    -2
286
     1
 66
     0
277
    -2
287
     1
 67
     0
278
    -2
288
     1
 68
     0
279
    -2
289
     1
 69
     0
  7
Standard
140
6.0
170
     5
 62
     0
 63
     7
283
     0
 90
      512
 91
        0
  1

274
    -2
284
     1
 64
     0
275
    -2
285
     1
 65
     0
276
    -2
286
     1
 66
     0
277
    -2
287
     1
 67
     0
278
    -2
288
     1
 68
     0
279
    -2
289
     1
 69
     0
  7
Standard
140
4.5
170
     5
 62
     0
 63
     7
283
     0
 90
      512
 91
        0
  1

274
    -2
284
     1
 64
     0
275
    -2
285
     1
 65
     0
276
    -2
286
     1
 66
     0
277
    -2
287
     1
 67
     0
278
    -2
288
     1
 68
     0
279
    -2
289
     1
 69
     0
  0
VISUALSTYLE
  5
F5
102
{ACAD_REACTORS
330
EF
102
}
330
EF
100
AcDbVisualStyle
  2
2dWireframe
 70
     4
 71
     0
 72
     2
 73
     1
 90
        0
 40
-0.6
 41
-30.0
 62
     5
 63
     7
421
 16777215
 74
     1
 91
        4
 64
     7
 65
   257
 75
     1
175
     1
 42
1.0
 92
        0
 66
   257
 43
1.0
 76
     1
 77
     6
 78
     2
 67
     7
 79
     5
170
     0
171
     0
290
     0
174
     0
 93
        1
 44
0.0
173
     0
291
     0
 45
0.0
  0
VISUALSTYLE
  5
F7
102
{ACAD_REACTORS
330
EF
102
}
330
EF
100
AcDbVisualStyle
  2
3D Hidden
 70
     6
 71
     1
 72
     2
 73
     2
 90
        0
 40
-0.6
 41
-30.0
 62
     5
 63
     7
421
 16777215
 74
     2
 91
        2
 64
     7
 65
   257
 75
     2
175
     1
 42
40.0
 92
        0
 66
   257
 43
1.0
 76
     1
 77
     6
 78
     2
 67
     7
 79
     3
170
     0
171
     0
290
     0
174
     0
 93
        1
 44
0.0
173
     0
291
     0
 45
0.0
  0
VISUALSTYLE
  5
F6
102
{ACAD_REACTORS
330
EF
102
}
330
EF
100
AcDbVisualStyle
  2
3dWireframe
 70
     5
 71
     0
 72
     2
 73
     1
 90
        0
 40
-0.6
 41
-30.0
 62
     5
 63
     7
421
 16777215
 74
     1
 91
        4
 64
     7
 65
   257
 75
     1
175
     1
 42
1.0
 92
        0
 66
   257
 43
1.0
 76
     1
 77
     6
 78
     2
 67
     7
 79
     5
170
     0
171
     0
290
     0
174
     0
 93
        1
 44
0.0
173
     0
291
     0
 45
0.0
  0
VISUALSTYLE
  5
F4
102
{ACAD_REACTORS
330
EF
102
}
330
EF
100
AcDbVisualStyle
  2
Basic
 70
     7
 71
     1
 72
     0
 73
     1
 90
        0
 40
-0.6
 41
-30.0
 62
     5
 63
     7
421
 16777215
 74
     0
 91
        4
 64
     7
 65
   257
 75
     1
175
     1
 42
1.0
 92
        8
 66
     7
 43
1.0
 76
     1
 77
     6
 78
     2
 67
     7
 79
     5
170
     0
171
     0
290
     0
174
     0
 93
        1
 44
0.0
173
     0
291
     1
 45
0.0
  0
VISUALSTYLE
  5
FB
102
{ACAD_REACTORS
330
EF
102
}
330
EF
100
AcDbVisualStyle
  2
Brighten
 70
    12
 71
     2
 72
     2
 73
     1
 90
        0
 40
-0.6
 41
-30.0
 62
     5
 63
     7
421
 16777215
 74
     1
 91
        4
 64
     7
 65
   257
 75
     1
175
     1
 42
1.0
 92
        8
 66
     7
 43
1.0
 76
     1
 77
     6
 78
     2
 67
     7
 79
     5
170
     0
171
     0
290
     0
174
     0
 93
        1
 44
50.0
173
     0
291
     1
 45
0.0
  0
VISUALSTYLE
  5
FF
102
{ACAD_REACTORS
330
EF
102
}
330
EF
100
AcDbVisualStyle
  2
ColorChange
 70
    16
 71
     2
 72
     2
 73
     3
 90
        0
 40
-0.6
 41
-30.0
 62
     5
 63
     8
421
  8421504
 74
     1
 91
        4
 64
     7
 65
   257
 75
     1
175
     1
 42
1.0
 92
        8
 66
     8
424
  8421504
 43
1.0
 76
     1
 77
     6
 78
     2
 67
     7
 79
     5
170
     0
171
     0
290
     0
174
     0
 93
        1
 44
0.0
173
     0
291
     1
 45
0.0
  0
VISUALSTYLE
  5
F8
102
{ACAD_REACTORS
330
EF
102
}
330
EF
100
AcDbVisualStyle
  2
Conceptual
 70
     9
 71
     3
 72
     2
 73
     1
 90
        0
 40
-0.6
 41
-30.0
 62
     5
 63
     7
421
 16777215
 74
     2
 91
        2
 64
     7
 65
   257
 75
     1
175
     1
 42
40.0
 92
        8
 66
     7
 43
1.0
 76
     1
 77
     6
 78
     2
 67
     7
 79
     3
170
     0
171
     0
290
     0
174
     0
 93
        1
 44
0.0
173
     0
291
     0
 45
0.0
  0
VISUALSTYLE
  5
FA
102
{ACAD_REACTORS
330
EF
102
}
330
EF
100
AcDbVisualStyle
  2
Dim
 70
    11
 71
     2
 72
     2
 73
     1
 90
        0
 40
-0.6
 41
-30.0
 62
     5
 63
     7
421
 16777215
 74
     1
 91
        4
 64
     7
 65
   257
 75
     1
175
     1
 42
1.0
 92
        8
 66
     7
 43
1.0
 76
     1
 77
     6
 78
     2
 67
     7
 79
     5
170
     0
171
     0
290
     0
174
     0
 93
        1
 44
-50.0
173
     0
291
     1
 45
0.0
  0
VISUALSTYLE
  5
FE
102
{ACAD_REACTORS
330
EF
102
}
330
EF
100
AcDbVisualStyle
  2
Facepattern
 70
    15
 71
     2
 72
     2
 73
     1
 90
        0
 40
-0.6
 41
-30.0
 62
     5
 63
     7
421
 16777215
 74
     1
 91
        4
 64
     7
 65
   257
 75
     1
175
     1
 42
1.0
 92
        8
 66
     7
 43
1.0
 76
     1
 77
     6
 78
     2
 67
     7
 79
     5
170
     0
171
     0
290
     0
174
     0
 93
        1
 44
0.0
173
     0
291
     1
 45
0.0
  0
VISUALSTYLE
  5
F0
102
{ACAD_REACTORS
330
EF
102
}
330
EF
100
AcDbVisualStyle
  2
Flat
 70
     0
 71
     2
 72
     1
 73
     1
 90
        2
 40
-0.6
 41
30.0
 62
     5
 63
     7
421
 16777215
 74
     0
 91
        4
 64
     7
 65
   257
 75
     1
175
     1
 42
1.0
 92
        8
 66
     7
 43
1.0
 76
     1
 77
     6
 78
     2
 67
     7
 79
     5
170
     0
171
     0
290
     0
174
     0
 93
        1
 44
0.0
173
     0
291
     1
 45
0.0
  0
VISUALSTYLE
  5
F1
102
{ACAD_REACTORS
330
EF
102
}
330
EF
100
AcDbVisualStyle
  2
FlatWithEdges
 70
     1
 71
     2
 72
     1
 73
     1
 90
        2
 40
-0.6
 41
30.0
 62
     5
 63
     7
421
 16777215
 74
     1
 91
        4
 64
     7
 65
   257
 75
     1
175
     1
 42
1.0
 92
        0
 66
   257
 43
1.0
 76
     1
 77
     6
 78
     2
 67
     7
 79
     5
170
     0
171
     0
290
     0
174
     0
 93
        1
 44
0.0
173
     0
291
     1
 45
0.0
  0
VISUALSTYLE
  5
F2
102
{ACAD_REACTORS
330
EF
102
}
330
EF
100
AcDbVisualStyle
  2
Gouraud
 70
     2
 71
     2
 72
     2
 73
     1
 90
        2
 40
-0.6
 41
30.0
 62
     5
 63
     7
421
 16777215
 74
     0
 91
        4
 64
     7
 65
   257
 75
     1
175
     1
 42
1.0
 92
        0
 66
     7
 43
1.0
 76
     1
 77
     6
 78
     2
 67
     7
 79
     5
170
     0
171
     0
290
     0
174
     0
 93
        1
 44
0.0
173
     0
291
     1
 45
0.0
  0
VISUALSTYLE
  5
F3
102
{ACAD_REACTORS
330
EF
102
}
330
EF
100
AcDbVisualStyle
  2
GouraudWithEdges
 70
     3
 71
     2
 72
     2
 73
     1
 90
        2
 40
-0.6
 41
30.0
 62
     5
 63
     7
421
 16777215
 74
     1
 91
        4
 64
     7
 65
   257
 75
     1
175
     1
 42
1.0
 92
        0
 66
   257
 43
1.0
 76
     1
 77
     6
 78
     2
 67
     7
 79
     5
170
     0
171
     0
290
     0
174
     0
 93
        1
 44
0.0
173
     0
291
     1
 45
0.0
  0
VISUALSTYLE
  5
FD
102
{ACAD_REACTORS
330
EF
102
}
330
EF
100
AcDbVisualStyle
  2
Linepattern
 70
    14
 71
     2
 72
     2
 73
     1
 90
        0
 40
-0.6
 41
-30.0
 62
     5
 63
     7
421
 16777215
 74
     1
 91
        4
 64
     7
 65
   257
 75
     7
175
     7
 42
1.0
 92
        8
 66
     7
 43
1.0
 76
     1
 77
     6
 78
     2
 67
     7
 79
     5
170
     0
171
     0
290
     0
174
     0
 93
        1
 44
0.0
173
     0
291
     1
 45
0.0
  0
VISUALSTYLE
  5
F9
102
{ACAD_REACTORS
330
EF
102
}
330
EF
100
AcDbVisualStyle
  2
Realistic
 70
     8
 71
     2
 72
     2
 73
     1
 90
        0
 40
-0.6
 41
-30.0
 62
     5
 63
     7
421
 16777215
 74
     1
 91
        0
 64
     7
 65
   257
 75
     1
175
     1
 42
1.0
 92
        8
 66
     8
424
  7895160
 43
1.0
 76
     1
 77
     6
 78
     2
 67
     7
 79
     5
170
     0
171
     0
290
     0
174
     0
 93
       13
 44
0.0
173
     0
291
     0
 45
0.0
  0
VISUALSTYLE
  5
FC
102
{ACAD_REACTORS
330
EF
102
}
330
EF
100
AcDbVisualStyle
  2
Thicken
 70
    13
 71
     2
 72
     2
 73
     1
 90
        0
 40
-0.6
 41
-30.0
 62
     5
 63
     7
421
 16777215
 74
     1
 91
        4
 64
     7
 65
   257
 75
     1
175
     1
 42
1.0
 92
       12
 66
     7
 43
1.0
 76
     1
 77
     6
 78
     2
 67
     7
 79
     5
170
     0
171
     0
290
     0
174
     0
 93
        1
 44
0.0
173
     0
291
     1
 45
0.0
  0
DICTIONARYVAR
  5
146
102
{ACAD_REACTORS
330
5E
102
}
330
5E
100
DictionaryVariables
280
     0
  1
1:1
  0
DICTIONARYVAR
  5
145
102
{ACAD_REACTORS
330
5E
102
}
330
5E
100
DictionaryVariables
280
     0
  1
STANDARD
  0
DICTIONARYVAR
  5
84
102
{ACAD_REACTORS
330
5E
102
}
330
5E
100
DictionaryVariables
280
     0
  1
STANDARD
  0
DICTIONARYVAR
  5
5F
102
{ACAD_REACTORS
330
5E
102
}
330
5E
100
DictionaryVariables
280
     0
  1
2
  0
DICTIONARYVAR
  5
63
102
{ACAD_REACTORS
330
5E
102
}
330
5E
100
DictionaryVariables
280
     0
  1
1
  0
DICTIONARYVAR
  5
1AE
102
{ACAD_REACTORS
330
5E
102
}
330
5E
100
DictionaryVariables
280
     0
  1
0
  0
DICTIONARYVAR
  5
1AF
102
{ACAD_REACTORS
330
5E
102
}
330
5E
100
DictionaryVariables
280
     0
  1
0
  0
DICTIONARY
  5
173
330
EE
100
AcDbDictionary
280
     1
281
     1
  3
BUMPTILE
360
175
  3
DIFFUSETILE
360
174
  3
OPACITYTILE
360
176
  3
REFLECTIONTILE
360
177
  0
DICTIONARY
  5
162
330
7F
100
AcDbDictionary
280
     1
281
     1
  3
ACAD_ROUNDTRIP_2008_TABLESTYLE_CELLSTYLEMAP
360
1E7
  0
XRECORD
  5
175
102
{ACAD_REACTORS
330
173
102
}
330
173
100
AcDbXrecord
280
     1
270
     1
271
     1
  0
XRECORD
  5
174
102
{ACAD_REACTORS
330
173
102
}
330
173
100
AcDbXrecord
280
     1
270
     1
271
     1
  0
XRECORD
  5
176
102
{ACAD_REACTORS
330
173
102
}
330
173
100
AcDbXrecord
280
     1
270
     1
271
     1
  0
XRECORD
  5
177
102
{ACAD_REACTORS
330
173
102
}
330
173
100
AcDbXrecord
280
     1
270
     1
271
     1
  0
CELLSTYLEMAP
  5
1E7
102
{ACAD_REACTORS
330
162
102
}
330
162
100
AcDbCellStyleMap
 90
        3
300
CELLSTYLE
  1
TABLEFORMAT_BEGIN
 90
        5
170
     1
 91
        0
 92
    32768
 62
   257
 93
        1
300
CONTENTFORMAT
  1
CONTENTFORMAT_BEGIN
 90
        0
 91
        0
 92
      512
 93
        0
300

 40
0.0
140
1.0
 94
        5
 62
     0
340
11
144
6.0
309
CONTENTFORMAT_END
171
     1
301
MARGIN
  1
CELLMARGIN_BEGIN
 40
1.5
 40
1.5
 40
1.5
 40
1.5
 40
4.5
 40
4.5
309
CELLMARGIN_END
 94
        6
 95
        1
302
GRIDFORMAT
  1
GRIDFORMAT_BEGIN
 90
        0
 91
        1
 62
     0
 92
       -2
340
0
 93
        0
 40
1.125
309
GRIDFORMAT_END
 95
        2
302
GRIDFORMAT
  1
GRIDFORMAT_BEGIN
 90
        0
 91
        1
 62
     0
 92
       -2
340
0
 93
        0
 40
1.125
309
GRIDFORMAT_END
 95
        4
302
GRIDFORMAT
  1
GRIDFORMAT_BEGIN
 90
        0
 91
        1
 62
     0
 92
       -2
340
0
 93
        0
 40
1.125
309
GRIDFORMAT_END
 95
        8
302
GRIDFORMAT
  1
GRIDFORMAT_BEGIN
 90
        0
 91
        1
 62
     0
 92
       -2
340
0
 93
        0
 40
1.125
309
GRIDFORMAT_END
 95
       16
302
GRIDFORMAT
  1
GRIDFORMAT_BEGIN
 90
        0
 91
        1
 62
     0
 92
       -2
340
0
 93
        0
 40
1.125
309
GRIDFORMAT_END
 95
       32
302
GRIDFORMAT
  1
GRIDFORMAT_BEGIN
 90
        0
 91
        1
 62
     0
 92
       -2
340
0
 93
        0
 40
1.125
309
GRIDFORMAT_END
309
TABLEFORMAT_END
  1
CELLSTYLE_BEGIN
 90
        1
 91
        1
300
_TITLE
309
CELLSTYLE_END
300
CELLSTYLE
  1
TABLEFORMAT_BEGIN
 90
        5
170
     1
 91
        0
 92
        0
 62
   257
 93
        1
300
CONTENTFORMAT
  1
CONTENTFORMAT_BEGIN
 90
        0
 91
        0
 92
      512
 93
        0
300

 40
0.0
140
1.0
 94
        5
 62
     0
340
11
144
4.5
309
CONTENTFORMAT_END
171
     1
301
MARGIN
  1
CELLMARGIN_BEGIN
 40
1.5
 40
1.5
 40
1.5
 40
1.5
 40
4.5
 40
4.5
309
CELLMARGIN_END
 94
        6
 95
        1
302
GRIDFORMAT
  1
GRIDFORMAT_BEGIN
 90
        0
 91
        1
 62
     0
 92
       -2
340
0
 93
        0
 40
1.125
309
GRIDFORMAT_END
 95
        2
302
GRIDFORMAT
  1
GRIDFORMAT_BEGIN
 90
        0
 91
        1
 62
     0
 92
       -2
340
0
 93
        0
 40
1.125
309
GRIDFORMAT_END
 95
        4
302
GRIDFORMAT
  1
GRIDFORMAT_BEGIN
 90
        0
 91
        1
 62
     0
 92
       -2
340
0
 93
        0
 40
1.125
309
GRIDFORMAT_END
 95
        8
302
GRIDFORMAT
  1
GRIDFORMAT_BEGIN
 90
        0
 91
        1
 62
     0
 92
       -2
340
0
 93
        0
 40
1.125
309
GRIDFORMAT_END
 95
       16
302
GRIDFORMAT
  1
GRIDFORMAT_BEGIN
 90
        0
 91
        1
 62
     0
 92
       -2
340
0
 93
        0
 40
1.125
309
GRIDFORMAT_END
 95
       32
302
GRIDFORMAT
  1
GRIDFORMAT_BEGIN
 90
        0
 91
        1
 62
     0
 92
       -2
340
0
 93
        0
 40
1.125
309
GRIDFORMAT_END
309
TABLEFORMAT_END
  1
CELLSTYLE_BEGIN
 90
        2
 91
        1
300
_HEADER
309
CELLSTYLE_END
300
CELLSTYLE
  1
TABLEFORMAT_BEGIN
 90
        5
170
     1
 91
        0
 92
        0
 62
   257
 93
        1
300
CONTENTFORMAT
  1
CONTENTFORMAT_BEGIN
 90
        0
 91
        0
 92
      512
 93
        0
300

 40
0.0
140
1.0
 94
        2
 62
     0
340
11
144
4.5
309
CONTENTFORMAT_END
171
     1
301
MARGIN
  1
CELLMARGIN_BEGIN
 40
1.5
 40
1.5
 40
1.5
 40
1.5
 40
4.5
 40
4.5
309
CELLMARGIN_END
 94
        6
 95
        1
302
GRIDFORMAT
  1
GRIDFORMAT_BEGIN
 90
        0
 91
        1
 62
     0
 92
       -2
340
0
 93
        0
 40
1.125
309
GRIDFORMAT_END
 95
        2
302
GRIDFORMAT
  1
GRIDFORMAT_BEGIN
 90
        0
 91
        1
 62
     0
 92
       -2
340
0
 93
        0
 40
1.125
309
GRIDFORMAT_END
 95
        4
302
GRIDFORMAT
  1
GRIDFORMAT_BEGIN
 90
        0
 91
        1
 62
     0
 92
       -2
340
0
 93
        0
 40
1.125
309
GRIDFORMAT_END
 95
        8
302
GRIDFORMAT
  1
GRIDFORMAT_BEGIN
 90
        0
 91
        1
 62
     0
 92
       -2
340
0
 93
        0
 40
1.125
309
GRIDFORMAT_END
 95
       16
302
GRIDFORMAT
  1
GRIDFORMAT_BEGIN
 90
        0
 91
        1
 62
     0
 92
       -2
340
0
 93
        0
 40
1.125
309
GRIDFORMAT_END
 95
       32
302
GRIDFORMAT
  1
GRIDFORMAT_BEGIN
 90
        0
 91
        1
 62
     0
 92
       -2
340
0
 93
        0
 40
1.125
309
GRIDFORMAT_END
309
TABLEFORMAT_END
  1
CELLSTYLE_BEGIN
 90
        3
 91
        2
300
_DATA
309
CELLSTYLE_END
  0
IMAGEDEF_REACTOR
  5
20D
330
20B
100
AcDbRasterImageDefReactor
 90
     2
330
20B
  0
IMAGEDEF
  5
20C
102
{ACAD_REACTORS
330
5E
330
20D
102
}
330
5E
100
AcDbRasterImageDef
 90
     0
  1
Kombinationsfassde_Systemübergang Sturz_2_1.tif
 10
395.000000
 20
405.000000
 11
0.002532
 21
0.002469
280
     1
281
     0
  0
ENDSEC
  0
EOF
