  0
SECTION
  2
HEADER
  9
$ACADVER
  1
AC1024
  9
$ACADMAINTVER
 70
     6
  9
$DWGCODEPAGE
  3
ANSI_1252
  9
$INSBASE
 10
0.0
 20
0.0
 30
0.0
  9
$EXTMIN
 10
-262.500018
 20
-371.249941
 30
0.000000
  9
$EXTMAX
 10
237.500023
 20
346.250078
 30
0.000000
  9
$LIMMIN
 10
0.0
 20
0.0
  9
$LIMMAX
 10
420.0
 20
297.0
  9
$ORTHOMODE
 70
     0
  9
$REGENMODE
 70
     1
  9
$FILLMODE
 70
     1
  9
$QTEXTMODE
 70
     0
  9
$MIRRTEXT
 70
     0
  9
$LTSCALE
 40
25.000000
  9
$ATTMODE
 70
     1
  9
$TEXTSIZE
 40
2.5
  9
$TRACEWID
 40
1.0
  9
$TEXTSTYLE
  7
Standard
  9
$CLAYER
  8
0
  9
$CELTYPE
  6
ByLayer
  9
$CECOLOR
 62
   256
  9
$CELTSCALE
 40
1.0
  9
$DISPSILH
 70
     0
  9
$DIMSCALE
 40
1.0
  9
$DIMASZ
 40
2.5
  9
$DIMEXO
 40
0.625
  9
$DIMDLI
 40
3.75
  9
$DIMRND
 40
0.0
  9
$DIMDLE
 40
0.0
  9
$DIMEXE
 40
1.25
  9
$DIMTP
 40
0.0
  9
$DIMTM
 40
0.0
  9
$DIMTXT
 40
2.5
  9
$DIMCEN
 40
2.5
  9
$DIMTSZ
 40
0.0
  9
$DIMTOL
 70
     0
  9
$DIMLIM
 70
     0
  9
$DIMTIH
 70
     0
  9
$DIMTOH
 70
     0
  9
$DIMSE1
 70
     0
  9
$DIMSE2
 70
     0
  9
$DIMTAD
 70
     1
  9
$DIMZIN
 70
     8
  9
$DIMBLK
  1

  9
$DIMASO
 70
     1
  9
$DIMSHO
 70
     1
  9
$DIMPOST
  1

  9
$DIMAPOST
  1

  9
$DIMALT
 70
     0
  9
$DIMALTD
 70
     3
  9
$DIMALTF
 40
0.03937007874016
  9
$DIMLFAC
 40
1.0
  9
$DIMTOFL
 70
     1
  9
$DIMTVP
 40
0.0
  9
$DIMTIX
 70
     0
  9
$DIMSOXD
 70
     0
  9
$DIMSAH
 70
     0
  9
$DIMBLK1
  1

  9
$DIMBLK2
  1

  9
$DIMSTYLE
  2
ISO-25
  9
$DIMCLRD
 70
     0
  9
$DIMCLRE
 70
     0
  9
$DIMCLRT
 70
     0
  9
$DIMTFAC
 40
1.0
  9
$DIMGAP
 40
0.625
  9
$DIMJUST
 70
     0
  9
$DIMSD1
 70
     0
  9
$DIMSD2
 70
     0
  9
$DIMTOLJ
 70
     0
  9
$DIMTZIN
 70
     8
  9
$DIMALTZ
 70
     0
  9
$DIMALTTZ
 70
     0
  9
$DIMUPT
 70
     0
  9
$DIMDEC
 70
     2
  9
$DIMTDEC
 70
     2
  9
$DIMALTU
 70
     2
  9
$DIMALTTD
 70
     3
  9
$DIMTXSTY
  7
Standard
  9
$DIMAUNIT
 70
     0
  9
$DIMADEC
 70
     0
  9
$DIMALTRND
 40
0.0
  9
$DIMAZIN
 70
     0
  9
$DIMDSEP
 70
    44
  9
$DIMATFIT
 70
     3
  9
$DIMFRAC
 70
     0
  9
$DIMLDRBLK
  1

  9
$DIMLUNIT
 70
     2
  9
$DIMLWD
 70
    -2
  9
$DIMLWE
 70
    -2
  9
$DIMTMOVE
 70
     0
  9
$DIMFXL
 40
1.0
  9
$DIMFXLON
 70
     0
  9
$DIMJOGANG
 40
0.7853981633974483
  9
$DIMTFILL
 70
     0
  9
$DIMTFILLCLR
 70
     0
  9
$DIMARCSYM
 70
     0
  9
$DIMLTYPE
  6

  9
$DIMLTEX1
  6

  9
$DIMLTEX2
  6

  9
$DIMTXTDIRECTION
 70
     0
  9
$LUNITS
 70
     2
  9
$LUPREC
 70
     4
  9
$SKETCHINC
 40
1.0
  9
$FILLETRAD
 40
10.0
  9
$AUNITS
 70
     0
  9
$AUPREC
 70
     0
  9
$MENU
  1
.
  9
$ELEVATION
 40
0.0
  9
$PELEVATION
 40
0.0
  9
$THICKNESS
 40
0.0
  9
$LIMCHECK
 70
     0
  9
$CHAMFERA
 40
10.0
  9
$CHAMFERB
 40
10.0
  9
$CHAMFERC
 40
20.0
  9
$CHAMFERD
 40
0.0
  9
$SKPOLY
 70
     0
  9
$TDCREATE
 40
2452006.439837951
  9
$TDUCREATE
 40
2452006.356504618
  9
$TDUPDATE
 40
2452006.439963946
  9
$TDUUPDATE
 40
2452006.356630613
  9
$TDINDWG
 40
0.0001273843
  9
$TDUSRTIMER
 40
0.0001272685
  9
$USRTIMER
 70
     1
  9
$ANGBASE
 50
0.0
  9
$ANGDIR
 70
     0
  9
$PDMODE
 70
     0
  9
$PDSIZE
 40
0.0
  9
$PLINEWID
 40
0.0
  9
$SPLFRAME
 70
     0
  9
$SPLINETYPE
 70
     6
  9
$SPLINESEGS
 70
     8
  9
$HANDSEED
  5
7EB
  9
$SURFTAB1
 70
     6
  9
$SURFTAB2
 70
     6
  9
$SURFTYPE
 70
     6
  9
$SURFU
 70
     6
  9
$SURFV
 70
     6
  9
$UCSBASE
  2

  9
$UCSNAME
  2

  9
$UCSORG
 10
0.0
 20
0.0
 30
0.0
  9
$UCSXDIR
 10
1.0
 20
0.0
 30
0.0
  9
$UCSYDIR
 10
0.0
 20
1.0
 30
0.0
  9
$UCSORTHOREF
  2

  9
$UCSORTHOVIEW
 70
     0
  9
$UCSORGTOP
 10
0.0
 20
0.0
 30
0.0
  9
$UCSORGBOTTOM
 10
0.0
 20
0.0
 30
0.0
  9
$UCSORGLEFT
 10
0.0
 20
0.0
 30
0.0
  9
$UCSORGRIGHT
 10
0.0
 20
0.0
 30
0.0
  9
$UCSORGFRONT
 10
0.0
 20
0.0
 30
0.0
  9
$UCSORGBACK
 10
0.0
 20
0.0
 30
0.0
  9
$PUCSBASE
  2

  9
$PUCSNAME
  2

  9
$PUCSORG
 10
0.0
 20
0.0
 30
0.0
  9
$PUCSXDIR
 10
1.0
 20
0.0
 30
0.0
  9
$PUCSYDIR
 10
0.0
 20
1.0
 30
0.0
  9
$PUCSORTHOREF
  2

  9
$PUCSORTHOVIEW
 70
     0
  9
$PUCSORGTOP
 10
0.0
 20
0.0
 30
0.0
  9
$PUCSORGBOTTOM
 10
0.0
 20
0.0
 30
0.0
  9
$PUCSORGLEFT
 10
0.0
 20
0.0
 30
0.0
  9
$PUCSORGRIGHT
 10
0.0
 20
0.0
 30
0.0
  9
$PUCSORGFRONT
 10
0.0
 20
0.0
 30
0.0
  9
$PUCSORGBACK
 10
0.0
 20
0.0
 30
0.0
  9
$USERI1
 70
     0
  9
$USERI2
 70
     0
  9
$USERI3
 70
     0
  9
$USERI4
 70
     0
  9
$USERI5
 70
     0
  9
$USERR1
 40
0.0
  9
$USERR2
 40
0.0
  9
$USERR3
 40
0.0
  9
$USERR4
 40
0.0
  9
$USERR5
 40
0.0
  9
$WORLDVIEW
 70
     1
  9
$SHADEDGE
 70
     3
  9
$SHADEDIF
 70
    70
  9
$TILEMODE
 70
     1
  9
$MAXACTVP
 70
    64
  9
$PINSBASE
 10
0.0
 20
0.0
 30
0.0
  9
$PLIMCHECK
 70
     0
  9
$PEXTMIN
 10
1.000000000000000E+20
 20
1.000000000000000E+20
 30
1.000000000000000E+20
  9
$PEXTMAX
 10
-1.000000000000000E+20
 20
-1.000000000000000E+20
 30
-1.000000000000000E+20
  9
$PLIMMIN
 10
0.0
 20
0.0
  9
$PLIMMAX
 10
420.0
 20
297.0
  9
$UNITMODE
 70
     0
  9
$VISRETAIN
 70
     1
  9
$PLINEGEN
 70
     0
  9
$PSLTSCALE
 70
     1
  9
$TREEDEPTH
 70
  3020
  9
$CMLSTYLE
  2
Standard
  9
$CMLJUST
 70
     0
  9
$CMLSCALE
 40
20.0
  9
$PROXYGRAPHICS
 70
     1
  9
$MEASUREMENT
 70
     1
  9
$CELWEIGHT
370
    -1
  9
$ENDCAPS
280
     0
  9
$JOINSTYLE
280
     0
  9
$LWDISPLAY
290
     0
  9
$INSUNITS
 70
     4
  9
$HYPERLINKBASE
  1

  9
$STYLESHEET
  1

  9
$XEDIT
290
     1
  9
$CEPSNTYPE
380
     0
  9
$PSTYLEMODE
290
     1
  9
$FINGERPRINTGUID
  2

  9
$VERSIONGUID
  2

  9
$EXTNAMES
290
     1
  9
$PSVPSCALE
 40
0.0
  9
$OLESTARTUP
290
     0
  9
$SORTENTS
280
   127
  9
$INDEXCTL
280
     0
  9
$HIDETEXT
280
     1
  9
$XCLIPFRAME
280
     2
  9
$HALOGAP
280
     0
  9
$OBSCOLOR
 70
   257
  9
$OBSLTYPE
280
     0
  9
$INTERSECTIONDISPLAY
280
     0
  9
$INTERSECTIONCOLOR
 70
   257
  9
$DIMASSOC
280
     2
  9
$PROJECTNAME
  1

  9
$CAMERADISPLAY
290
     0
  9
$LENSLENGTH
 40
50.0
  9
$CAMERAHEIGHT
 40
0.0
  9
$STEPSPERSEC
 40
2.0
  9
$STEPSIZE
 40
6.0
  9
$3DDWFPREC
 40
2.0
  9
$PSOLWIDTH
 40
5.0
  9
$PSOLHEIGHT
 40
80.0
  9
$LOFTANG1
 40
1.570796326794896
  9
$LOFTANG2
 40
1.570796326794896
  9
$LOFTMAG1
 40
0.0
  9
$LOFTMAG2
 40
0.0
  9
$LOFTPARAM
 70
     7
  9
$LOFTNORMALS
280
     1
  9
$LATITUDE
 40
37.795
  9
$LONGITUDE
 40
-122.394
  9
$NORTHDIRECTION
 40
0.0
  9
$TIMEZONE
 70
 -8000
  9
$LIGHTGLYPHDISPLAY
280
     1
  9
$TILEMODELIGHTSYNCH
280
     1
  9
$CMATERIAL
347
EC
  9
$SOLIDHIST
280
     1
  9
$SHOWHIST
280
     1
  9
$DWFFRAME
280
     2
  9
$DGNFRAME
280
     0
  9
$REALWORLDSCALE
290
     1
  9
$INTERFERECOLOR
 62
     1
  9
$INTERFEREOBJVS
345
F9
  9
$INTERFEREVPVS
346
F6
  9
$CSHADOW
280
     0
  9
$SHADOWPLANELOCATION
 40
0.0
  0
ENDSEC
  0
SECTION
  2
CLASSES
  0
CLASS
  1
ACDBDICTIONARYWDFLT
  2
AcDbDictionaryWithDefault
  3
ObjectDBX Classes
 90
        0
 91
        1
280
     0
281
     0
  0
CLASS
  1
ACDBPLACEHOLDER
  2
AcDbPlaceHolder
  3
ObjectDBX Classes
 90
        0
 91
        1
280
     0
281
     0
  0
CLASS
  1
LAYOUT
  2
AcDbLayout
  3
ObjectDBX Classes
 90
        0
 91
        2
280
     0
281
     0
  0
CLASS
  1
DICTIONARYVAR
  2
AcDbDictionaryVar
  3
ObjectDBX Classes
 90
        0
 91
        7
280
     0
281
     0
  0
CLASS
  1
TABLESTYLE
  2
AcDbTableStyle
  3
ObjectDBX Classes
 90
     4095
 91
        1
280
     0
281
     0
  0
CLASS
  1
MATERIAL
  2
AcDbMaterial
  3
ObjectDBX Classes
 90
     1153
 91
        3
280
     0
281
     0
  0
CLASS
  1
VISUALSTYLE
  2
AcDbVisualStyle
  3
ObjectDBX Classes
 90
     4095
 91
       16
280
     0
281
     0
  0
CLASS
  1
SCALE
  2
AcDbScale
  3
ObjectDBX Classes
 90
     1153
 91
       17
280
     0
281
     0
  0
CLASS
  1
MLEADERSTYLE
  2
AcDbMLeaderStyle
  3
ACDB_MLEADERSTYLE_CLASS
 90
     4095
 91
        1
280
     0
281
     0
  0
CLASS
  1
CELLSTYLEMAP
  2
AcDbCellStyleMap
  3
ObjectDBX Classes
 90
     1152
 91
        2
280
     0
281
     0
  0
CLASS
  1
EXACXREFPANELOBJECT
  2
ExAcXREFPanelObject
  3
EXAC_ESW
 90
    33793
 91
        0
280
     0
281
     0
  0
CLASS
  1
NPOCOLLECTION
  2
AcDbImpNonPersistentObjectsCollection
  3
ObjectDBX Classes
 90
     1153
 91
        0
280
     0
281
     0
  0
CLASS
  1
LAYER_INDEX
  2
AcDbLayerIndex
  3
ObjectDBX Classes
 90
        0
 91
        0
280
     0
281
     0
  0
CLASS
  1
SPATIAL_INDEX
  2
AcDbSpatialIndex
  3
ObjectDBX Classes
 90
        0
 91
        0
280
     0
281
     0
  0
CLASS
  1
IDBUFFER
  2
AcDbIdBuffer
  3
ObjectDBX Classes
 90
        0
 91
        0
280
     0
281
     0
  0
CLASS
  1
RASTERVARIABLES
  2
AcDbRasterVariables
  3
ISM
 90
        0
 91
        2
280
     0
281
     0
  0
CLASS
  1
IMAGEDEF
  2
AcDbRasterImageDef
  3
ISM
 90
        0
 91
        5
280
     0
281
     0
  0
CLASS
  1
IMAGEDEF_REACTOR
  2
AcDbRasterImageDefReactor
  3
ISM
 90
        1
 91
        5
280
     0
281
     0
  0
CLASS
  1
IMAGE
  2
AcDbRasterImage
  3
ISM
 90
     2175
 91
        5
280
     0
281
     1
  0
CLASS
  1
LWPOLYLINE
  2
AcDbPolyline
  3
ObjectDBX Classes
 90
        0
 91
        0
280
     0
281
     1
  0
CLASS
  1
OLE2FRAME
  2
AcDbOle2Frame
  3
ObjectDBX Classes
 90
        0
 91
        0
280
     0
281
     1
  0
CLASS
  1
HATCH
  2
AcDbHatch
  3
ObjectDBX Classes
 90
        0
 91
        0
280
     0
281
     1
  0
CLASS
  1
XRECORD
  2
AcDbXrecord
  3
ObjectDBX Classes
 90
        0
 91
        9
280
     0
281
     0
  0
CLASS
  1
SORTENTSTABLE
  2
AcDbSortentsTable
  3
ObjectDBX Classes
 90
        0
 91
        0
280
     0
281
     0
  0
CLASS
  1
OBJECT_PTR
  2
CAseDLPNTableRecord
  3
"ASE-LPNTableRecord"
 90
    32769
 91
        0
280
     0
281
     0
  0
CLASS
  1
PLOTSETTINGS
  2
AcDbPlotSettings
  3
ObjectDBX Classes
 90
        0
 91
        0
280
     0
281
     0
  0
CLASS
  1
VBA_PROJECT
  2
AcDbVbaProject
  3
acad
 90
        0
 91
        0
280
     0
281
     0
  0
CLASS
  1
WIPEOUT
  2
AcDbWipeout
  3
WipeOut|AutoCAD Express Tool|expresstools@autodesk.com
 90
    32895
 91
        0
280
     0
281
     1
  0
CLASS
  1
WIPEOUTVARIABLES
  2
AcDbWipeoutVariables
  3
WipeOut|AutoCAD Express Tool|expresstools@autodesk.com
 90
    32768
 91
        0
280
     0
281
     0
  0
CLASS
  1
RTEXT
  2
RText
  3
RText|AutoCAD Express Tool|expresstools@autodesk.com
 90
    32768
 91
        0
280
     0
281
     1
  0
CLASS
  1
ARCALIGNEDTEXT
  2
AcDbArcAlignedText
  3
ATEXT|AutoCAD Express Tool|expresstools@autodesk.com
 90
    32768
 91
        0
280
     0
281
     1
  0
ENDSEC
  0
SECTION
  2
TABLES
  0
TABLE
  2
VPORT
  5
77A
100
AcDbSymbolTable
 70
     1
  0
VPORT
  5
77B
100
AcDbSymbolTableRecord
100
AcDbViewportTableRecord
  2
*ACTIVE
 70
     0
 10
0.000000
 20
0.000000
 11
1.000000
 21
1.000000
 12
50.000000
 22
50.000000
 13
0.000000
 23
0.000000
 14
1.000000
 24
1.000000
 15
10.000000
 25
10.000000
 16
0.000000
 26
0.000000
 36
1.000000
 17
0.000000
 27
0.000000
 37
0.000000
 40
100.000000
 41
1.387409
 42
50.000000
 43
0.000000
 44
0.000000
 50
0.000000
 51
0.000000
 71
     0
 72
   100
 73
     1
 74
     1
 75
     0
 76
     0
 77
     0
 78
     0
  0
ENDTAB
  0
TABLE
  2
LTYPE
  5
77C
330
0
100
AcDbSymbolTable
 70
     9
  0
LTYPE
  5
77D
330
77C
100
AcDbSymbolTableRecord
100
AcDbLinetypeTableRecord
  2
ByBlock
 70
     0
  3

 72
    65
 73
     0
 40
0.000000
  0
LTYPE
  5
77E
330
77C
100
AcDbSymbolTableRecord
100
AcDbLinetypeTableRecord
  2
ByLayer
 70
     0
  3

 72
    65
 73
     0
 40
0.000000
  0
LTYPE
  5
77F
330
77C
100
AcDbSymbolTableRecord
100
AcDbLinetypeTableRecord
  2
CONTINUOUS
 70
     0
  3
Solid line
 72
    65
 73
     0
 40
0.000000
  0
LTYPE
  5
780
330
77C
100
AcDbSymbolTableRecord
100
AcDbLinetypeTableRecord
  2
HIDDEN
 70
     0
  3
_ _ _ _ _ _ _ _ _ _ _ _ _ _ _ _ _ _ _ _ _ _ _
 72
    65
 73
     2
 40
0.375000
 49
0.250000
 74
     0
 49
-0.125000
 74
     0
  0
LTYPE
  5
781
330
77C
100
AcDbSymbolTableRecord
100
AcDbLinetypeTableRecord
  2
DOT
 70
     0
  3
...............................................
 72
    65
 73
     2
 40
0.250000
 49
0.000000
 74
     0
 49
-0.250000
 74
     0
  0
LTYPE
  5
782
330
77C
100
AcDbSymbolTableRecord
100
AcDbLinetypeTableRecord
  2
DASHED
 70
     0
  3
__ __ __ __ __ __ __ __ __ __ __ __ __ __ __ 
 72
    65
 73
     2
 40
0.750000
 49
0.500000
 74
     0
 49
-0.250000
 74
     0
  0
LTYPE
  5
783
330
77C
100
AcDbSymbolTableRecord
100
AcDbLinetypeTableRecord
  2
DIVIDE
 70
     0
  3
__ . . __ . . __ . . __ . . __ . . __ . . __
 72
    65
 73
     6
 40
1.250000
 49
0.500000
 74
     0
 49
-0.250000
 74
     0
 49
0.000000
 74
     0
 49
-0.250000
 74
     0
 49
0.000000
 74
     0
 49
-0.250000
 74
     0
  0
LTYPE
  5
784
330
77C
100
AcDbSymbolTableRecord
100
AcDbLinetypeTableRecord
  2
DASHDOT
 70
     0
  3
__ . __ . __ . __ . __ . __ . __ . __ . __ . __
 72
    65
 73
     4
 40
1.000000
 49
0.500000
 74
     0
 49
-0.250000
 74
     0
 49
0.000000
 74
     0
 49
-0.250000
 74
     0
  0
LTYPE
  5
785
330
77C
100
AcDbSymbolTableRecord
100
AcDbLinetypeTableRecord
  2
BORDER
 70
     0
  3
__ __ . __ __ . __ __ . __ __ . __ __ . __ __
 72
    65
 73
     6
 40
1.750000
 49
0.500000
 74
     0
 49
-0.250000
 74
     0
 49
0.500000
 74
     0
 49
-0.250000
 74
     0
 49
0.000000
 74
     0
 49
-0.250000
 74
     0
  0
LTYPE
  5
786
330
77C
100
AcDbSymbolTableRecord
100
AcDbLinetypeTableRecord
  2
CENTER
 70
     0
  3
____ _ ____ _ ____ _ ____ _ ____ _ ____ _ ____
 72
    65
 73
     4
 40
2.000000
 49
1.250000
 74
     0
 49
-0.250000
 74
     0
 49
0.250000
 74
     0
 49
-0.250000
 74
     0
  0
LTYPE
  5
787
330
77C
100
AcDbSymbolTableRecord
100
AcDbLinetypeTableRecord
  2
PHANTOM
 70
     0
  3
_____ _ _ _____ _ _ _____ _ _ _____ _ _ ____
 72
    65
 73
     6
 40
2.500000
 49
1.250000
 74
     0
 49
-0.250000
 74
     0
 49
0.250000
 74
     0
 49
-0.250000
 74
     0
 49
0.250000
 74
     0
 49
-0.250000
 74
     0
  0
ENDTAB
  0
TABLE
  2
LAYER
  5
788
100
AcDbSymbolTable
 70
     4
  0
LAYER
  5
789
100
AcDbSymbolTableRecord
100
AcDbLayerTableRecord
  2
0
 70
     0
 62
     7
  6
CONTINUOUS
370
    -3
390
     0
  0
LAYER
  5
78A
100
AcDbSymbolTableRecord
100
AcDbLayerTableRecord
  2
SCHRAFF
 70
     0
 62
     7
  6
CONTINUOUS
370
    -3
390
     0
  0
LAYER
  5
78B
100
AcDbSymbolTableRecord
100
AcDbLayerTableRecord
  2
Detail
 70
     0
 62
     7
  6
CONTINUOUS
370
    -3
390
     0
  0
LAYER
  5
78C
100
AcDbSymbolTableRecord
100
AcDbLayerTableRecord
  2
L
 70
     0
 62
     7
  6
CONTINUOUS
370
    -3
390
     0
  0
ENDTAB
  0
TABLE
  2
STYLE
  5
78D
100
AcDbSymbolTable
 70
     2
  0
STYLE
  5
201
100
AcDbSymbolTableRecord
100
AcDbTextStyleTableRecord
  2
STANDARD
 70
     0
 40
0.000000
 41
1.000000
 50
0.000000
 71
     0
 42
3.500000
  3
txt
  4

  0
STYLE
  5
3C8
100
AcDbSymbolTableRecord
100
AcDbTextStyleTableRecord
  2
Arial
 70
     0
 40
0.000000
 41
1.000000
 50
0.000000
 71
     0
 42
3.500000
  3
Arial.ttf
  4

1001
ACAD
1000
Arial
1071
     0
  0
ENDTAB
  0
TABLE
  2
DIMSTYLE
  5
78E
100
AcDbSymbolTable
 70
     0
100
AcDbDimStyleTable
  0
ENDTAB
  0
TABLE
  2
VIEW
  5
78F
100
AcDbSymbolTable
 70
     0
  0
ENDTAB
  0
TABLE
  2
UCS
  5
790
100
AcDbSymbolTable
 70
     0
  0
ENDTAB
  0
TABLE
  2
APPID
  5
791
100
AcDbSymbolTable
 70
     1
  0
APPID
  5
792
100
AcDbSymbolTableRecord
100
AcDbRegAppTableRecord
  2
ACAD
 70
     0
  0
ENDTAB
  0
TABLE
  2
BLOCK_RECORD
  5
793
100
AcDbSymbolTable
 70
    88
  0
BLOCK_RECORD
  5
202
102
{ACAD_XDICTIONARY
360
203
102
}
100
AcDbSymbolTableRecord
100
AcDbBlockTableRecord
  2
*Model_Space
  0
BLOCK_RECORD
  5
794
100
AcDbSymbolTableRecord
100
AcDbBlockTableRecord
  2
*Paper_Space
  0
BLOCK_RECORD
  5
795
100
AcDbSymbolTableRecord
100
AcDbBlockTableRecord
  2
*Paper_Space0
  0
BLOCK_RECORD
  5
796
100
AcDbSymbolTableRecord
100
AcDbBlockTableRecord
  2
B
  0
BLOCK_RECORD
  5
797
100
AcDbSymbolTableRecord
100
AcDbBlockTableRecord
  2
B-2
  0
BLOCK_RECORD
  5
798
100
AcDbSymbolTableRecord
100
AcDbBlockTableRecord
  2
B-3
  0
BLOCK_RECORD
  5
799
100
AcDbSymbolTableRecord
100
AcDbBlockTableRecord
  2
B-4
  0
BLOCK_RECORD
  5
79A
100
AcDbSymbolTableRecord
100
AcDbBlockTableRecord
  2
B-5
  0
BLOCK_RECORD
  5
79B
100
AcDbSymbolTableRecord
100
AcDbBlockTableRecord
  2
B-6
  0
BLOCK_RECORD
  5
79C
100
AcDbSymbolTableRecord
100
AcDbBlockTableRecord
  2
B-7
  0
BLOCK_RECORD
  5
79D
100
AcDbSymbolTableRecord
100
AcDbBlockTableRecord
  2
B-8
  0
BLOCK_RECORD
  5
79E
100
AcDbSymbolTableRecord
100
AcDbBlockTableRecord
  2
B-9
  0
BLOCK_RECORD
  5
79F
100
AcDbSymbolTableRecord
100
AcDbBlockTableRecord
  2
B-10
  0
BLOCK_RECORD
  5
7A0
100
AcDbSymbolTableRecord
100
AcDbBlockTableRecord
  2
B-11
  0
BLOCK_RECORD
  5
7A1
100
AcDbSymbolTableRecord
100
AcDbBlockTableRecord
  2
B-12
  0
BLOCK_RECORD
  5
7A2
100
AcDbSymbolTableRecord
100
AcDbBlockTableRecord
  2
B-13
  0
BLOCK_RECORD
  5
7A3
100
AcDbSymbolTableRecord
100
AcDbBlockTableRecord
  2
B-14
  0
BLOCK_RECORD
  5
7A4
100
AcDbSymbolTableRecord
100
AcDbBlockTableRecord
  2
B-15
  0
BLOCK_RECORD
  5
7A5
100
AcDbSymbolTableRecord
100
AcDbBlockTableRecord
  2
B-16
  0
BLOCK_RECORD
  5
7A6
100
AcDbSymbolTableRecord
100
AcDbBlockTableRecord
  2
B-17
  0
BLOCK_RECORD
  5
7A7
100
AcDbSymbolTableRecord
100
AcDbBlockTableRecord
  2
B-18
  0
BLOCK_RECORD
  5
7A8
100
AcDbSymbolTableRecord
100
AcDbBlockTableRecord
  2
B-19
  0
BLOCK_RECORD
  5
7A9
100
AcDbSymbolTableRecord
100
AcDbBlockTableRecord
  2
B-20
  0
BLOCK_RECORD
  5
7AA
100
AcDbSymbolTableRecord
100
AcDbBlockTableRecord
  2
B-21
  0
BLOCK_RECORD
  5
7AB
100
AcDbSymbolTableRecord
100
AcDbBlockTableRecord
  2
B-22
  0
BLOCK_RECORD
  5
7AC
100
AcDbSymbolTableRecord
100
AcDbBlockTableRecord
  2
B-23
  0
BLOCK_RECORD
  5
7AD
100
AcDbSymbolTableRecord
100
AcDbBlockTableRecord
  2
B-24
  0
BLOCK_RECORD
  5
7AE
100
AcDbSymbolTableRecord
100
AcDbBlockTableRecord
  2
B-25
  0
BLOCK_RECORD
  5
7AF
100
AcDbSymbolTableRecord
100
AcDbBlockTableRecord
  2
B-26
  0
BLOCK_RECORD
  5
7B0
100
AcDbSymbolTableRecord
100
AcDbBlockTableRecord
  2
B-27
  0
BLOCK_RECORD
  5
7B1
100
AcDbSymbolTableRecord
100
AcDbBlockTableRecord
  2
B-28
  0
BLOCK_RECORD
  5
7B2
100
AcDbSymbolTableRecord
100
AcDbBlockTableRecord
  2
B-29
  0
BLOCK_RECORD
  5
7B3
100
AcDbSymbolTableRecord
100
AcDbBlockTableRecord
  2
B-30
  0
BLOCK_RECORD
  5
7B4
100
AcDbSymbolTableRecord
100
AcDbBlockTableRecord
  2
B-31
  0
BLOCK_RECORD
  5
7B5
100
AcDbSymbolTableRecord
100
AcDbBlockTableRecord
  2
B-32
  0
BLOCK_RECORD
  5
7B6
100
AcDbSymbolTableRecord
100
AcDbBlockTableRecord
  2
B-33
  0
BLOCK_RECORD
  5
7B7
100
AcDbSymbolTableRecord
100
AcDbBlockTableRecord
  2
B-34
  0
BLOCK_RECORD
  5
7B8
100
AcDbSymbolTableRecord
100
AcDbBlockTableRecord
  2
B-35
  0
BLOCK_RECORD
  5
7B9
100
AcDbSymbolTableRecord
100
AcDbBlockTableRecord
  2
B-36
  0
BLOCK_RECORD
  5
7BA
100
AcDbSymbolTableRecord
100
AcDbBlockTableRecord
  2
B-37
  0
BLOCK_RECORD
  5
7BB
100
AcDbSymbolTableRecord
100
AcDbBlockTableRecord
  2
B-38
  0
BLOCK_RECORD
  5
7BC
100
AcDbSymbolTableRecord
100
AcDbBlockTableRecord
  2
B-39
  0
BLOCK_RECORD
  5
7BD
100
AcDbSymbolTableRecord
100
AcDbBlockTableRecord
  2
B-40
  0
BLOCK_RECORD
  5
7BE
100
AcDbSymbolTableRecord
100
AcDbBlockTableRecord
  2
B-41
  0
BLOCK_RECORD
  5
7BF
100
AcDbSymbolTableRecord
100
AcDbBlockTableRecord
  2
B-42
  0
BLOCK_RECORD
  5
7C0
100
AcDbSymbolTableRecord
100
AcDbBlockTableRecord
  2
B-43
  0
BLOCK_RECORD
  5
7C1
100
AcDbSymbolTableRecord
100
AcDbBlockTableRecord
  2
B-44
  0
BLOCK_RECORD
  5
7C2
100
AcDbSymbolTableRecord
100
AcDbBlockTableRecord
  2
B-45
  0
BLOCK_RECORD
  5
7C3
100
AcDbSymbolTableRecord
100
AcDbBlockTableRecord
  2
B-46
  0
BLOCK_RECORD
  5
7C4
100
AcDbSymbolTableRecord
100
AcDbBlockTableRecord
  2
B-47
  0
BLOCK_RECORD
  5
7C5
100
AcDbSymbolTableRecord
100
AcDbBlockTableRecord
  2
B-48
  0
BLOCK_RECORD
  5
7C6
100
AcDbSymbolTableRecord
100
AcDbBlockTableRecord
  2
B-49
  0
BLOCK_RECORD
  5
7C7
100
AcDbSymbolTableRecord
100
AcDbBlockTableRecord
  2
B-50
  0
BLOCK_RECORD
  5
7C8
100
AcDbSymbolTableRecord
100
AcDbBlockTableRecord
  2
B-51
  0
BLOCK_RECORD
  5
7C9
100
AcDbSymbolTableRecord
100
AcDbBlockTableRecord
  2
B-52
  0
BLOCK_RECORD
  5
7CA
100
AcDbSymbolTableRecord
100
AcDbBlockTableRecord
  2
B-53
  0
BLOCK_RECORD
  5
7CB
100
AcDbSymbolTableRecord
100
AcDbBlockTableRecord
  2
B-54
  0
BLOCK_RECORD
  5
7CC
100
AcDbSymbolTableRecord
100
AcDbBlockTableRecord
  2
B-55
  0
BLOCK_RECORD
  5
7CD
100
AcDbSymbolTableRecord
100
AcDbBlockTableRecord
  2
B-56
  0
BLOCK_RECORD
  5
7CE
100
AcDbSymbolTableRecord
100
AcDbBlockTableRecord
  2
B-57
  0
BLOCK_RECORD
  5
7CF
100
AcDbSymbolTableRecord
100
AcDbBlockTableRecord
  2
B-58
  0
BLOCK_RECORD
  5
7D0
100
AcDbSymbolTableRecord
100
AcDbBlockTableRecord
  2
B-59
  0
BLOCK_RECORD
  5
7D1
100
AcDbSymbolTableRecord
100
AcDbBlockTableRecord
  2
B-60
  0
BLOCK_RECORD
  5
7D2
100
AcDbSymbolTableRecord
100
AcDbBlockTableRecord
  2
B-62
  0
BLOCK_RECORD
  5
7D3
100
AcDbSymbolTableRecord
100
AcDbBlockTableRecord
  2
B-63
  0
BLOCK_RECORD
  5
7D4
100
AcDbSymbolTableRecord
100
AcDbBlockTableRecord
  2
B-64
  0
BLOCK_RECORD
  5
7D5
100
AcDbSymbolTableRecord
100
AcDbBlockTableRecord
  2
B-65
  0
BLOCK_RECORD
  5
7D6
100
AcDbSymbolTableRecord
100
AcDbBlockTableRecord
  2
B-66
  0
BLOCK_RECORD
  5
7D7
100
AcDbSymbolTableRecord
100
AcDbBlockTableRecord
  2
B-67
  0
BLOCK_RECORD
  5
7D8
100
AcDbSymbolTableRecord
100
AcDbBlockTableRecord
  2
B-68
  0
BLOCK_RECORD
  5
7D9
100
AcDbSymbolTableRecord
100
AcDbBlockTableRecord
  2
B-69
  0
BLOCK_RECORD
  5
7DA
100
AcDbSymbolTableRecord
100
AcDbBlockTableRecord
  2
B-70
  0
BLOCK_RECORD
  5
7DB
100
AcDbSymbolTableRecord
100
AcDbBlockTableRecord
  2
B-71
  0
BLOCK_RECORD
  5
7DC
100
AcDbSymbolTableRecord
100
AcDbBlockTableRecord
  2
B-72
  0
BLOCK_RECORD
  5
7DD
100
AcDbSymbolTableRecord
100
AcDbBlockTableRecord
  2
B-73
  0
BLOCK_RECORD
  5
7DE
100
AcDbSymbolTableRecord
100
AcDbBlockTableRecord
  2
B-74
  0
BLOCK_RECORD
  5
7DF
100
AcDbSymbolTableRecord
100
AcDbBlockTableRecord
  2
B-75
  0
BLOCK_RECORD
  5
7E0
100
AcDbSymbolTableRecord
100
AcDbBlockTableRecord
  2
B-76
  0
BLOCK_RECORD
  5
7E1
100
AcDbSymbolTableRecord
100
AcDbBlockTableRecord
  2
B-77
  0
BLOCK_RECORD
  5
7E2
100
AcDbSymbolTableRecord
100
AcDbBlockTableRecord
  2
B-79
  0
BLOCK_RECORD
  5
7E3
100
AcDbSymbolTableRecord
100
AcDbBlockTableRecord
  2
B-80
  0
BLOCK_RECORD
  5
7E4
100
AcDbSymbolTableRecord
100
AcDbBlockTableRecord
  2
B-81
  0
BLOCK_RECORD
  5
7E5
100
AcDbSymbolTableRecord
100
AcDbBlockTableRecord
  2
B-82
  0
BLOCK_RECORD
  5
7E6
100
AcDbSymbolTableRecord
100
AcDbBlockTableRecord
  2
B-83
  0
BLOCK_RECORD
  5
7E7
100
AcDbSymbolTableRecord
100
AcDbBlockTableRecord
  2
B-84
  0
BLOCK_RECORD
  5
7E8
100
AcDbSymbolTableRecord
100
AcDbBlockTableRecord
  2
B-85
  0
BLOCK_RECORD
  5
7E9
100
AcDbSymbolTableRecord
100
AcDbBlockTableRecord
  2
B-86
  0
BLOCK_RECORD
  5
7EA
100
AcDbSymbolTableRecord
100
AcDbBlockTableRecord
  2
B-87
  0
ENDTAB
  0
ENDSEC
  0
SECTION
  2
BLOCKS
  0
BLOCK
  5
204
100
AcDbEntity
  8
0
100
AcDbBlockBegin
  2
*Model_Space
 70
     0
 10
0.000000
 20
0.000000
 30
0.000000
  3
*Model_Space
  1

  0
ENDBLK
  5
205
100
AcDbEntity
  8
0
100
AcDbBlockEnd
  0
BLOCK
  5
206
100
AcDbEntity
 67
     1
  8
0
100
AcDbBlockBegin
  2
*Paper_Space
 70
     0
 10
0.000000
 20
0.000000
 30
0.000000
  3
*Paper_Space
  1

  0
ENDBLK
  5
207
100
AcDbEntity
 67
     1
  8
0
100
AcDbBlockEnd
  0
BLOCK
  5
208
100
AcDbEntity
 67
     1
  8
0
100
AcDbBlockBegin
  2
*Paper_Space0
 70
     0
 10
0.000000
 20
0.000000
 30
0.000000
  3
*Paper_Space0
  1

  0
ENDBLK
  5
209
100
AcDbEntity
 67
     1
  8
0
100
AcDbBlockEnd
  0
BLOCK
  5
20A
100
AcDbEntity
  8
SCHRAFF
100
AcDbBlockBegin
  2
B
 70
    66
 10
0.000000
 20
0.000000
 30
0.000000
  0
HATCH
  5
20B
100
AcDbEntity
  8
SCHRAFF
 62
     8
440
     0
100
AcDbHatch
 10
0.000000
 20
0.000000
 30
0.000000
210
0.000000
220
0.000000
230
1.000000
  2
SOLID
 70
     1
 71
     1
 91
     1
 92
    18
 72
     1
 73
     0
 93
     7
 10
-51.500018
 20
-43.249941
 42
0.000000
 10
-51.500018
 20
-39.249941
 42
0.000000
 10
-51.500018
 20
-31.249941
 42
-0.400000
 10
-61.500018
 20
-31.249941
 42
0.000000
 10
-61.500018
 20
-44.249941
 42
-1.000000
 10
-51.500018
 20
-44.249941
 42
0.000000
 10
-51.500018
 20
-43.249941
 42
0.000000
 97
     0
 75
     0
 76
     1
 98
     0
  0
ENDBLK
  5
20C
100
AcDbEntity
  8
0
100
AcDbBlockEnd
  0
BLOCK
  5
20D
100
AcDbEntity
  8
SCHRAFF
100
AcDbBlockBegin
  2
B-2
 70
    66
 10
0.000000
 20
0.000000
 30
0.000000
  0
HATCH
  5
20E
100
AcDbEntity
  8
SCHRAFF
 62
     8
440
     0
100
AcDbHatch
 10
0.000000
 20
0.000000
 30
0.000000
210
0.000000
220
0.000000
230
1.000000
  2
SOLID
 70
     1
 71
     1
 91
     1
 92
    18
 72
     1
 73
     0
 93
     5
 10
158.499982
 20
-39.249941
 42
0.000000
 10
158.499982
 20
-31.249941
 42
-0.400000
 10
148.499982
 20
-31.249941
 42
0.000000
 10
148.499982
 20
-39.249941
 42
0.000000
 10
158.499982
 20
-39.249941
 42
0.000000
 97
     0
 75
     0
 76
     1
 98
     0
  0
ENDBLK
  5
20F
100
AcDbEntity
  8
0
100
AcDbBlockEnd
  0
BLOCK
  5
210
100
AcDbEntity
  8
SCHRAFF
100
AcDbBlockBegin
  2
B-3
 70
    66
 10
0.000000
 20
0.000000
 30
0.000000
  0
IMAGE
  5
211
100
AcDbEntity
  8
SCHRAFF
100
AcDbRasterImage
 10
140.969928
 20
-349.249941
 30
0.000000
 11
0.204938
 21
-0.000000
 31
0.000000
 12
-0.000000
 22
0.204938
 32
-0.000000
 13
395.000000
 23
405.000000
340
212
 70
     7
280
     0
281
    50
282
    50
283
     0
360
213
 71
     1
 91
     2
 14
-0.500000
 24
-0.500000
 14
394.500000
 24
404.500000
  0
ENDBLK
  5
214
100
AcDbEntity
  8
0
100
AcDbBlockEnd
  0
BLOCK
  5
215
100
AcDbEntity
  8
SCHRAFF
100
AcDbBlockBegin
  2
B-4
 70
    66
 10
0.000000
 20
0.000000
 30
0.000000
  0
HATCH
  5
216
100
AcDbEntity
  8
SCHRAFF
 62
   254
440
     0
100
AcDbHatch
 10
0.000000
 20
0.000000
 30
0.000000
210
0.000000
220
0.000000
230
1.000000
  2
SOLID
 70
     1
 71
     1
 91
     1
 92
    18
 72
     1
 73
     0
 93
     5
 10
-147.500018
 20
-51.249941
 42
0.000000
 10
-67.500018
 20
-51.249941
 42
0.000000
 10
-67.500018
 20
-49.249941
 42
0.000000
 10
-147.500018
 20
-49.249941
 42
0.000000
 10
-147.500018
 20
-51.249941
 42
0.000000
 97
     0
 75
     0
 76
     1
 98
     0
  0
ENDBLK
  5
217
100
AcDbEntity
  8
0
100
AcDbBlockEnd
  0
BLOCK
  5
218
100
AcDbEntity
  8
SCHRAFF
100
AcDbBlockBegin
  2
B-5
 70
    66
 10
0.000000
 20
0.000000
 30
0.000000
  0
HATCH
  5
219
100
AcDbEntity
  8
SCHRAFF
 62
    51
440
     0
100
AcDbHatch
 10
0.000000
 20
0.000000
 30
0.000000
210
0.000000
220
0.000000
230
1.000000
  2
SOLID
 70
     1
 71
     1
 91
     1
 92
    18
 72
     1
 73
     0
 93
     5
 10
-87.500018
 20
213.750059
 42
0.000000
 10
-87.500018
 20
153.750059
 42
0.000000
 10
-67.500018
 20
153.750059
 42
0.000000
 10
-67.500018
 20
213.750059
 42
0.000000
 10
-87.500018
 20
213.750059
 42
0.000000
 97
     0
 75
     0
 76
     1
 98
     0
  0
ENDBLK
  5
21A
100
AcDbEntity
  8
0
100
AcDbBlockEnd
  0
BLOCK
  5
21B
100
AcDbEntity
  8
SCHRAFF
100
AcDbBlockBegin
  2
B-6
 70
    66
 10
0.000000
 20
0.000000
 30
0.000000
  0
HATCH
  5
21C
100
AcDbEntity
  8
SCHRAFF
  6
CONTINUOUS
 62
     9
100
AcDbHatch
 10
0.000000
 20
0.000000
 30
0.000000
210
0.000000
220
0.000000
230
1.000000
  2
_U
 70
     0
 71
     1
 91
     1
 92
    18
 72
     1
 73
     0
 93
     5
 10
-67.500018
 20
153.750059
 42
0.000000
 10
-67.500018
 20
213.750059
 42
0.000000
 10
-87.500018
 20
213.750059
 42
0.000000
 10
-87.500018
 20
153.750059
 42
0.000000
 10
-67.500018
 20
153.750059
 42
0.000000
 97
     0
 75
     0
 76
     0
 52
0.000000
 41
1.000000
 77
     0
 78
     1
 53
90.000000
 43
-0.000000
 44
0.000000
 45
-6.875000
 46
0.000000
 79
     0
 98
     0
  0
ENDBLK
  5
21D
100
AcDbEntity
  8
0
100
AcDbBlockEnd
  0
BLOCK
  5
21E
100
AcDbEntity
  8
SCHRAFF
100
AcDbBlockBegin
  2
B-7
 70
    66
 10
0.000000
 20
0.000000
 30
0.000000
  0
HATCH
  5
21F
100
AcDbEntity
  8
SCHRAFF
 62
   161
440
     0
100
AcDbHatch
 10
0.000000
 20
0.000000
 30
0.000000
210
0.000000
220
0.000000
230
1.000000
  2
SOLID
 70
     1
 71
     1
 91
     1
 92
    18
 72
     1
 73
     0
 93
     5
 10
158.499982
 20
-39.249941
 42
0.000000
 10
158.499982
 20
-31.249941
 42
0.000000
 10
212.500023
 20
-31.249941
 42
0.000000
 10
212.500023
 20
-39.249941
 42
0.000000
 10
158.499982
 20
-39.249941
 42
0.000000
 97
     0
 75
     0
 76
     1
 98
     0
  0
HATCH
  5
220
100
AcDbEntity
  8
SCHRAFF
 62
   161
440
     0
100
AcDbHatch
 10
0.000000
 20
0.000000
 30
0.000000
210
0.000000
220
0.000000
230
1.000000
  2
SOLID
 70
     1
 71
     1
 91
     1
 92
    18
 72
     1
 73
     0
 93
     5
 10
-51.500018
 20
-39.249941
 42
0.000000
 10
-51.500018
 20
-31.249941
 42
0.000000
 10
148.499982
 20
-31.249941
 42
0.000000
 10
148.499982
 20
-39.249941
 42
0.000000
 10
-51.500018
 20
-39.249941
 42
0.000000
 97
     0
 75
     0
 76
     1
 98
     0
  0
ENDBLK
  5
221
100
AcDbEntity
  8
0
100
AcDbBlockEnd
  0
BLOCK
  5
222
100
AcDbEntity
  8
SCHRAFF
100
AcDbBlockBegin
  2
B-8
 70
    66
 10
0.000000
 20
0.000000
 30
0.000000
  0
HATCH
  5
223
100
AcDbEntity
  8
SCHRAFF
 62
     9
440
     0
100
AcDbHatch
 10
0.000000
 20
0.000000
 30
0.000000
210
0.000000
220
0.000000
230
1.000000
  2
SOLID
 70
     1
 71
     1
 91
     1
 92
    18
 72
     1
 73
     0
 93
     5
 10
212.500023
 20
-45.249941
 42
0.000000
 10
-51.500018
 20
-45.249941
 42
0.000000
 10
-51.500018
 20
-51.249941
 42
0.000000
 10
212.500023
 20
-51.249941
 42
0.000000
 10
212.500023
 20
-45.249941
 42
0.000000
 97
     0
 75
     0
 76
     1
 98
     0
  0
ENDBLK
  5
224
100
AcDbEntity
  8
0
100
AcDbBlockEnd
  0
BLOCK
  5
225
100
AcDbEntity
  8
SCHRAFF
100
AcDbBlockBegin
  2
B-9
 70
    66
 10
0.000000
 20
0.000000
 30
0.000000
  0
HATCH
  5
226
100
AcDbEntity
  8
SCHRAFF
 62
   254
440
     0
100
AcDbHatch
 10
0.000000
 20
0.000000
 30
0.000000
210
0.000000
220
0.000000
230
1.000000
  2
SOLID
 70
     1
 71
     1
 91
     1
 92
    18
 72
     1
 73
     0
 93
     7
 10
-152.500018
 20
-136.249941
 42
0.000000
 10
212.500023
 20
-136.249941
 42
0.000000
 10
212.500023
 20
-131.249941
 42
0.000000
 10
-147.500018
 20
-131.249941
 42
0.000000
 10
-147.500018
 20
296.250078
 42
0.000000
 10
-152.500018
 20
296.250078
 42
0.000000
 10
-152.500018
 20
-136.249941
 42
0.000000
 97
     0
 75
     0
 76
     1
 98
     0
  0
ENDBLK
  5
227
100
AcDbEntity
  8
0
100
AcDbBlockEnd
  0
BLOCK
  5
228
100
AcDbEntity
  8
SCHRAFF
100
AcDbBlockBegin
  2
B-10
 70
    66
 10
0.000000
 20
0.000000
 30
0.000000
  0
HATCH
  5
229
100
AcDbEntity
  8
SCHRAFF
 62
     9
440
     0
100
AcDbHatch
 10
0.000000
 20
0.000000
 30
0.000000
210
0.000000
220
0.000000
230
1.000000
  2
SOLID
 70
     1
 71
     1
 91
     1
 92
    18
 72
     1
 73
     0
 93
     5
 10
-63.500018
 20
-51.249941
 42
0.000000
 10
-63.500018
 20
296.250078
 42
0.000000
 10
-67.500018
 20
296.250078
 42
0.000000
 10
-67.500018
 20
-51.249941
 42
0.000000
 10
-63.500018
 20
-51.249941
 42
0.000000
 97
     0
 75
     0
 76
     1
 98
     0
  0
HATCH
  5
22A
100
AcDbEntity
  8
SCHRAFF
 62
    21
440
     0
100
AcDbHatch
 10
0.000000
 20
0.000000
 30
0.000000
210
0.000000
220
0.000000
230
1.000000
  2
SOLID
 70
     1
 71
     1
 91
     1
 92
    18
 72
     1
 73
     0
 93
   322
 10
-61.500018
 20
-51.249941
 42
0.000000
 10
-61.500018
 20
-20.249941
 42
0.000000
 10
-62.000018
 20
-19.249941
 42
0.000000
 10
-61.500018
 20
-18.249941
 42
0.000000
 10
-61.500018
 20
-17.249941
 42
0.000000
 10
-61.000018
 20
-16.249941
 42
0.000000
 10
-61.500018
 20
-15.249941
 42
0.000000
 10
-61.500018
 20
-14.249941
 42
0.000000
 10
-62.000018
 20
-13.249941
 42
0.000000
 10
-61.500018
 20
-12.249941
 42
0.000000
 10
-61.500018
 20
-11.249941
 42
0.000000
 10
-61.000018
 20
-10.249941
 42
0.000000
 10
-61.500018
 20
-9.249941
 42
0.000000
 10
-61.500018
 20
-8.249941
 42
0.000000
 10
-62.000018
 20
-7.249941
 42
0.000000
 10
-61.500018
 20
-6.249941
 42
0.000000
 10
-61.500018
 20
-5.249941
 42
0.000000
 10
-61.000018
 20
-4.249941
 42
0.000000
 10
-61.500018
 20
-3.249941
 42
0.000000
 10
-61.500018
 20
-2.249941
 42
0.000000
 10
-62.000018
 20
-1.249941
 42
0.000000
 10
-61.500018
 20
-0.249941
 42
0.000000
 10
-61.500018
 20
0.742392
 42
0.000000
 10
-61.000018
 20
1.750059
 42
0.000000
 10
-61.500018
 20
2.750059
 42
0.000000
 10
-61.500018
 20
3.750059
 42
0.000000
 10
-62.000018
 20
4.750059
 42
0.000000
 10
-61.500018
 20
5.750059
 42
0.000000
 10
-61.500018
 20
6.750059
 42
0.000000
 10
-61.000018
 20
7.750059
 42
0.000000
 10
-61.500018
 20
8.750059
 42
0.000000
 10
-61.500018
 20
9.750059
 42
0.000000
 10
-62.000018
 20
10.750059
 42
0.000000
 10
-61.500018
 20
11.750059
 42
0.000000
 10
-61.500018
 20
12.750059
 42
0.000000
 10
-61.000018
 20
13.750059
 42
0.000000
 10
-61.500018
 20
14.750059
 42
0.000000
 10
-61.500018
 20
15.750059
 42
0.000000
 10
-62.000018
 20
16.750059
 42
0.000000
 10
-61.500018
 20
17.750059
 42
0.000000
 10
-61.500018
 20
18.750059
 42
0.000000
 10
-61.000018
 20
19.750059
 42
0.000000
 10
-61.500018
 20
20.750059
 42
0.000000
 10
-61.500018
 20
21.750059
 42
0.000000
 10
-62.000018
 20
22.750059
 42
0.000000
 10
-61.500018
 20
23.750059
 42
0.000000
 10
-61.500018
 20
24.750059
 42
0.000000
 10
-61.000018
 20
25.750059
 42
0.000000
 10
-61.500018
 20
26.750059
 42
0.000000
 10
-61.500018
 20
27.750059
 42
0.000000
 10
-62.000018
 20
28.750059
 42
0.000000
 10
-61.500018
 20
29.750059
 42
0.000000
 10
-61.500018
 20
30.750059
 42
0.000000
 10
-61.000018
 20
31.750059
 42
0.000000
 10
-61.500018
 20
32.750059
 42
0.000000
 10
-61.500018
 20
33.750059
 42
0.000000
 10
-62.000018
 20
34.750059
 42
0.000000
 10
-61.500018
 20
35.750059
 42
0.000000
 10
-61.500018
 20
36.750059
 42
0.000000
 10
-61.000018
 20
37.750059
 42
0.000000
 10
-61.500018
 20
38.750059
 42
0.000000
 10
-61.500018
 20
39.750059
 42
0.000000
 10
-62.000018
 20
40.750059
 42
0.000000
 10
-61.500018
 20
41.750059
 42
0.000000
 10
-61.500018
 20
42.750059
 42
0.000000
 10
-61.000018
 20
43.750059
 42
0.000000
 10
-61.500018
 20
44.750059
 42
0.000000
 10
-61.500018
 20
45.750059
 42
0.000000
 10
-62.000018
 20
46.750059
 42
0.000000
 10
-61.500018
 20
47.750059
 42
0.000000
 10
-61.500018
 20
48.750059
 42
0.000000
 10
-61.000018
 20
49.750059
 42
0.000000
 10
-61.500018
 20
50.750059
 42
0.000000
 10
-61.500018
 20
51.750059
 42
0.000000
 10
-62.000018
 20
52.750059
 42
0.000000
 10
-61.500018
 20
53.750059
 42
0.000000
 10
-61.500018
 20
54.750059
 42
0.000000
 10
-61.000018
 20
55.750059
 42
0.000000
 10
-61.500018
 20
56.750059
 42
0.000000
 10
-61.500018
 20
57.750059
 42
0.000000
 10
-62.000018
 20
58.750059
 42
0.000000
 10
-61.500018
 20
59.750059
 42
0.000000
 10
-61.500018
 20
60.750059
 42
0.000000
 10
-61.000018
 20
61.750059
 42
0.000000
 10
-61.500018
 20
62.750059
 42
0.000000
 10
-61.500018
 20
63.750059
 42
0.000000
 10
-62.000018
 20
64.750059
 42
0.000000
 10
-61.500018
 20
65.750059
 42
0.000000
 10
-61.500018
 20
66.750059
 42
0.000000
 10
-61.000018
 20
67.750059
 42
0.000000
 10
-61.500018
 20
68.750059
 42
0.000000
 10
-61.500018
 20
69.750059
 42
0.000000
 10
-62.000018
 20
70.750059
 42
0.000000
 10
-61.500018
 20
71.750059
 42
0.000000
 10
-61.500018
 20
72.750059
 42
0.000000
 10
-61.000018
 20
73.750059
 42
0.000000
 10
-61.500018
 20
74.750059
 42
0.000000
 10
-61.500018
 20
75.750059
 42
0.000000
 10
-62.000018
 20
76.750059
 42
0.000000
 10
-61.500018
 20
77.750059
 42
0.000000
 10
-61.500018
 20
78.750059
 42
0.000000
 10
-61.000018
 20
79.750059
 42
0.000000
 10
-61.500018
 20
80.750059
 42
0.000000
 10
-61.500018
 20
81.750059
 42
0.000000
 10
-62.000018
 20
82.750059
 42
0.000000
 10
-61.500018
 20
83.750059
 42
0.000000
 10
-61.500018
 20
84.750059
 42
0.000000
 10
-61.000018
 20
85.750059
 42
0.000000
 10
-61.500018
 20
86.750059
 42
0.000000
 10
-61.500018
 20
87.750059
 42
0.000000
 10
-62.000018
 20
88.750059
 42
0.000000
 10
-61.500018
 20
89.750059
 42
0.000000
 10
-61.500018
 20
90.750059
 42
0.000000
 10
-61.000018
 20
91.750059
 42
0.000000
 10
-61.500018
 20
92.750059
 42
0.000000
 10
-61.500018
 20
93.750059
 42
0.000000
 10
-62.000018
 20
94.750059
 42
0.000000
 10
-61.500018
 20
95.750059
 42
0.000000
 10
-61.500018
 20
96.750059
 42
0.000000
 10
-61.000018
 20
97.750059
 42
0.000000
 10
-61.500018
 20
98.750059
 42
0.000000
 10
-61.500018
 20
99.750059
 42
0.000000
 10
-62.000018
 20
100.750059
 42
0.000000
 10
-61.500018
 20
101.750059
 42
0.000000
 10
-61.500018
 20
102.750059
 42
0.000000
 10
-61.000018
 20
103.750059
 42
0.000000
 10
-61.500018
 20
104.750059
 42
0.000000
 10
-61.500018
 20
105.750059
 42
0.000000
 10
-62.000018
 20
106.750059
 42
0.000000
 10
-61.500018
 20
107.750059
 42
0.000000
 10
-61.500018
 20
108.750059
 42
0.000000
 10
-61.000018
 20
109.750059
 42
0.000000
 10
-61.500018
 20
110.750059
 42
0.000000
 10
-61.500018
 20
111.750059
 42
0.000000
 10
-62.000018
 20
112.750059
 42
0.000000
 10
-61.500018
 20
113.750059
 42
0.000000
 10
-61.500018
 20
114.750059
 42
0.000000
 10
-61.000018
 20
115.750059
 42
0.000000
 10
-61.500018
 20
116.750059
 42
0.000000
 10
-61.500018
 20
117.750059
 42
0.000000
 10
-62.000018
 20
118.750059
 42
0.000000
 10
-61.500018
 20
119.750059
 42
0.000000
 10
-61.500018
 20
120.750059
 42
0.000000
 10
-61.000018
 20
121.750059
 42
0.000000
 10
-61.500018
 20
122.750059
 42
0.000000
 10
-61.500018
 20
123.750059
 42
0.000000
 10
-62.000018
 20
124.750059
 42
0.000000
 10
-61.500018
 20
125.750059
 42
0.000000
 10
-61.500018
 20
126.750059
 42
0.000000
 10
-61.000018
 20
127.750059
 42
0.000000
 10
-61.500018
 20
128.750059
 42
0.000000
 10
-61.500018
 20
129.750059
 42
0.000000
 10
-62.000018
 20
130.750059
 42
0.000000
 10
-61.500018
 20
131.750059
 42
0.000000
 10
-61.500018
 20
132.750059
 42
0.000000
 10
-61.000018
 20
133.750059
 42
0.000000
 10
-61.500018
 20
134.750059
 42
0.000000
 10
-61.500018
 20
135.750059
 42
0.000000
 10
-62.000018
 20
136.750059
 42
0.000000
 10
-61.500018
 20
137.750059
 42
0.000000
 10
-61.500018
 20
138.742392
 42
0.000000
 10
-61.000018
 20
139.750059
 42
0.000000
 10
-61.500018
 20
140.750059
 42
0.000000
 10
-61.500018
 20
141.750059
 42
0.000000
 10
-62.000018
 20
142.750059
 42
0.000000
 10
-61.500018
 20
143.750059
 42
0.000000
 10
-61.500018
 20
144.750059
 42
0.000000
 10
-61.000018
 20
145.750059
 42
0.000000
 10
-61.500018
 20
146.750059
 42
0.000000
 10
-61.500018
 20
147.750059
 42
0.000000
 10
-62.000018
 20
148.750059
 42
0.000000
 10
-61.500018
 20
149.750059
 42
0.000000
 10
-61.500018
 20
150.750059
 42
0.000000
 10
-61.000018
 20
151.750059
 42
0.000000
 10
-61.500018
 20
152.750059
 42
0.000000
 10
-61.500018
 20
153.750059
 42
0.000000
 10
-62.000018
 20
154.750059
 42
0.000000
 10
-61.500018
 20
155.750059
 42
0.000000
 10
-61.500018
 20
156.750059
 42
0.000000
 10
-61.000018
 20
157.750059
 42
0.000000
 10
-61.500018
 20
158.750059
 42
0.000000
 10
-61.500018
 20
159.750059
 42
0.000000
 10
-62.000018
 20
160.750059
 42
0.000000
 10
-61.500018
 20
161.750059
 42
0.000000
 10
-61.500018
 20
162.750059
 42
0.000000
 10
-61.000018
 20
163.750059
 42
0.000000
 10
-61.500018
 20
164.750059
 42
0.000000
 10
-61.500018
 20
165.750059
 42
0.000000
 10
-62.000018
 20
166.750059
 42
0.000000
 10
-61.500018
 20
167.750059
 42
0.000000
 10
-61.500018
 20
168.750059
 42
0.000000
 10
-61.000018
 20
169.750059
 42
0.000000
 10
-61.495620
 20
170.741263
 42
0.000000
 10
-61.500018
 20
171.750059
 42
0.000000
 10
-62.000018
 20
172.750059
 42
0.000000
 10
-61.500018
 20
173.750059
 42
0.000000
 10
-61.500018
 20
174.750059
 42
0.000000
 10
-61.000018
 20
175.750059
 42
0.000000
 10
-61.500018
 20
176.750059
 42
0.000000
 10
-61.500018
 20
177.750059
 42
0.000000
 10
-62.000018
 20
178.750059
 42
0.000000
 10
-61.500018
 20
179.750059
 42
0.000000
 10
-61.500018
 20
180.750059
 42
0.000000
 10
-61.000018
 20
181.750059
 42
0.000000
 10
-61.500018
 20
182.750059
 42
0.000000
 10
-61.500018
 20
183.750059
 42
0.000000
 10
-62.000018
 20
184.750059
 42
0.000000
 10
-61.500018
 20
185.750059
 42
0.000000
 10
-61.500018
 20
186.750059
 42
0.000000
 10
-61.000018
 20
187.750059
 42
0.000000
 10
-61.500018
 20
188.750059
 42
0.000000
 10
-61.500018
 20
189.750059
 42
0.000000
 10
-62.000018
 20
190.750059
 42
0.000000
 10
-61.500018
 20
191.750059
 42
0.000000
 10
-61.500018
 20
192.750059
 42
0.000000
 10
-61.000018
 20
193.750059
 42
0.000000
 10
-61.500018
 20
194.750059
 42
0.000000
 10
-61.500018
 20
195.750059
 42
0.000000
 10
-62.000018
 20
196.750059
 42
0.000000
 10
-61.500018
 20
197.750059
 42
0.000000
 10
-61.500018
 20
198.750059
 42
0.000000
 10
-61.000018
 20
199.750059
 42
0.000000
 10
-61.500018
 20
200.750059
 42
0.000000
 10
-61.500018
 20
201.750059
 42
0.000000
 10
-62.000018
 20
202.750059
 42
0.000000
 10
-61.500018
 20
203.750059
 42
0.000000
 10
-61.500018
 20
204.750059
 42
0.000000
 10
-61.000018
 20
205.750059
 42
0.000000
 10
-61.500018
 20
206.750059
 42
0.000000
 10
-61.500018
 20
207.750059
 42
0.000000
 10
-62.000018
 20
208.750059
 42
0.000000
 10
-61.500018
 20
209.750059
 42
0.000000
 10
-61.500018
 20
210.750059
 42
0.000000
 10
-61.000018
 20
211.750059
 42
0.000000
 10
-61.500018
 20
212.750059
 42
0.000000
 10
-61.500018
 20
213.750059
 42
0.000000
 10
-62.000018
 20
214.750059
 42
0.000000
 10
-61.500018
 20
215.750059
 42
0.000000
 10
-61.500018
 20
216.750059
 42
0.000000
 10
-61.000018
 20
217.750059
 42
0.000000
 10
-61.500018
 20
218.750059
 42
0.000000
 10
-61.500018
 20
219.750059
 42
0.000000
 10
-62.000018
 20
220.750059
 42
0.000000
 10
-61.500018
 20
221.750059
 42
0.000000
 10
-61.500018
 20
222.750059
 42
0.000000
 10
-61.000018
 20
223.750059
 42
0.000000
 10
-61.500018
 20
224.750059
 42
0.000000
 10
-61.500018
 20
225.750059
 42
0.000000
 10
-62.000018
 20
226.750059
 42
0.000000
 10
-61.500018
 20
227.750059
 42
0.000000
 10
-61.500018
 20
228.750059
 42
0.000000
 10
-61.000018
 20
229.750059
 42
0.000000
 10
-61.500018
 20
230.750059
 42
0.000000
 10
-61.500018
 20
231.750059
 42
0.000000
 10
-62.000018
 20
232.750059
 42
0.000000
 10
-61.500018
 20
233.750059
 42
0.000000
 10
-61.500018
 20
234.750059
 42
0.000000
 10
-61.000018
 20
235.750059
 42
0.000000
 10
-61.500018
 20
236.750059
 42
0.000000
 10
-61.500018
 20
237.750059
 42
0.000000
 10
-62.000018
 20
238.750059
 42
0.000000
 10
-61.500018
 20
239.750059
 42
0.000000
 10
-61.500018
 20
240.750059
 42
0.000000
 10
-61.000018
 20
241.750059
 42
0.000000
 10
-61.500018
 20
242.750059
 42
0.000000
 10
-61.500018
 20
243.750059
 42
0.000000
 10
-62.000018
 20
244.750059
 42
0.000000
 10
-61.500018
 20
245.750059
 42
0.000000
 10
-61.500018
 20
246.742392
 42
0.000000
 10
-61.000018
 20
247.750059
 42
0.000000
 10
-61.500018
 20
248.750059
 42
0.000000
 10
-61.500018
 20
249.750059
 42
0.000000
 10
-62.000018
 20
250.750059
 42
0.000000
 10
-61.500018
 20
251.750059
 42
0.000000
 10
-61.500018
 20
252.750059
 42
0.000000
 10
-61.000018
 20
253.750059
 42
0.000000
 10
-61.500018
 20
254.750059
 42
0.000000
 10
-61.500018
 20
255.750059
 42
0.000000
 10
-62.000018
 20
256.750059
 42
0.000000
 10
-61.500018
 20
257.750059
 42
0.000000
 10
-61.500018
 20
258.750059
 42
0.000000
 10
-61.000018
 20
259.750059
 42
0.000000
 10
-61.500018
 20
260.750059
 42
0.000000
 10
-61.500018
 20
261.750059
 42
0.000000
 10
-62.000018
 20
262.750059
 42
0.000000
 10
-61.500018
 20
263.750059
 42
0.000000
 10
-61.500018
 20
264.750059
 42
0.000000
 10
-61.000018
 20
265.750059
 42
0.000000
 10
-61.500018
 20
266.750059
 42
0.000000
 10
-61.500018
 20
267.750059
 42
0.000000
 10
-62.000018
 20
268.750059
 42
0.000000
 10
-61.500018
 20
269.750059
 42
0.000000
 10
-61.500018
 20
270.739453
 42
0.000000
 10
-61.000018
 20
271.750059
 42
0.000000
 10
-61.500018
 20
272.750059
 42
0.000000
 10
-61.500018
 20
273.750059
 42
0.000000
 10
-62.000018
 20
274.750059
 42
0.000000
 10
-61.500018
 20
275.750059
 42
0.000000
 10
-61.500018
 20
276.750059
 42
0.000000
 10
-61.000018
 20
277.750059
 42
0.000000
 10
-61.500018
 20
278.750059
 42
0.000000
 10
-61.500018
 20
279.750059
 42
0.000000
 10
-62.000018
 20
280.750059
 42
0.000000
 10
-61.500018
 20
281.750059
 42
0.000000
 10
-61.500018
 20
282.750059
 42
0.000000
 10
-61.000018
 20
283.750059
 42
0.000000
 10
-61.500018
 20
284.750059
 42
0.000000
 10
-61.500018
 20
285.750059
 42
0.000000
 10
-62.000018
 20
286.750059
 42
0.000000
 10
-61.500018
 20
287.750059
 42
0.000000
 10
-61.500018
 20
288.739453
 42
0.000000
 10
-61.000018
 20
289.750059
 42
0.000000
 10
-61.500018
 20
290.750059
 42
0.000000
 10
-61.500018
 20
291.750059
 42
0.000000
 10
-62.000018
 20
292.750059
 42
0.000000
 10
-61.500018
 20
293.750059
 42
0.000000
 10
-61.500018
 20
294.750059
 42
0.000000
 10
-61.000018
 20
295.750059
 42
0.000000
 10
-61.250077
 20
296.250078
 42
0.000000
 10
-63.500018
 20
296.250078
 42
0.000000
 10
-63.500018
 20
-51.249941
 42
0.000000
 10
-61.500018
 20
-51.249941
 42
0.000000
 97
     0
 75
     0
 76
     1
 98
     0
  0
ENDBLK
  5
22B
100
AcDbEntity
  8
0
100
AcDbBlockEnd
  0
BLOCK
  5
22C
100
AcDbEntity
  8
SCHRAFF
100
AcDbBlockBegin
  2
B-11
 70
    66
 10
0.000000
 20
0.000000
 30
0.000000
  0
HATCH
  5
22D
100
AcDbEntity
  8
SCHRAFF
 62
    51
440
     0
100
AcDbHatch
 10
0.000000
 20
0.000000
 30
0.000000
210
0.000000
220
0.000000
230
1.000000
  2
SOLID
 70
     1
 71
     1
 91
     1
 92
    18
 72
     1
 73
     0
 93
     9
 10
-147.500018
 20
296.250078
 42
0.000000
 10
-147.500018
 20
-49.249941
 42
0.000000
 10
-67.500018
 20
-49.249941
 42
0.000000
 10
-67.500018
 20
153.750059
 42
0.000000
 10
-87.500018
 20
153.750059
 42
0.000000
 10
-87.500018
 20
213.750059
 42
0.000000
 10
-67.500018
 20
213.750059
 42
0.000000
 10
-67.500018
 20
296.250078
 42
0.000000
 10
-147.500018
 20
296.250078
 42
0.000000
 97
     0
 75
     0
 76
     1
 98
     0
  0
ENDBLK
  5
22E
100
AcDbEntity
  8
0
100
AcDbBlockEnd
  0
BLOCK
  5
22F
100
AcDbEntity
  8
SCHRAFF
100
AcDbBlockBegin
  2
B-12
 70
    66
 10
0.000000
 20
0.000000
 30
0.000000
  0
HATCH
  5
230
100
AcDbEntity
  8
SCHRAFF
 62
    51
440
     0
100
AcDbHatch
 10
0.000000
 20
0.000000
 30
0.000000
210
0.000000
220
0.000000
230
1.000000
  2
SOLID
 70
     1
 71
     1
 91
     1
 92
    18
 72
     1
 73
     0
 93
     5
 10
212.500023
 20
-51.249941
 42
0.000000
 10
-147.500018
 20
-51.249941
 42
0.000000
 10
-147.500018
 20
-131.249941
 42
0.000000
 10
212.500023
 20
-131.249941
 42
0.000000
 10
212.500023
 20
-51.249941
 42
0.000000
 97
     0
 75
     0
 76
     1
 98
     0
  0
ENDBLK
  5
231
100
AcDbEntity
  8
0
100
AcDbBlockEnd
  0
BLOCK
  5
232
100
AcDbEntity
  8
SCHRAFF
100
AcDbBlockBegin
  2
B-13
 70
    66
 10
0.000000
 20
0.000000
 30
0.000000
  0
HATCH
  5
233
100
AcDbEntity
  8
SCHRAFF
  6
CONTINUOUS
 62
     9
100
AcDbHatch
 10
0.000000
 20
0.000000
 30
0.000000
210
0.000000
220
0.000000
230
1.000000
  2
_U
 70
     0
 71
     1
 91
     1
 92
    18
 72
     1
 73
     0
 93
     5
 10
-147.500018
 20
-131.249941
 42
0.000000
 10
212.500023
 20
-131.249941
 42
0.000000
 10
212.500023
 20
-51.249941
 42
0.000000
 10
-147.500018
 20
-51.249941
 42
0.000000
 10
-147.500018
 20
-131.249941
 42
0.000000
 97
     0
 75
     0
 76
     0
 52
0.000000
 41
1.000000
 77
     0
 78
     1
 53
90.000000
 43
-0.000000
 44
0.000000
 45
-13.750000
 46
0.000000
 79
     0
 98
     0
  0
HATCH
  5
234
100
AcDbEntity
  8
SCHRAFF
  6
CONTINUOUS
 62
     9
100
AcDbHatch
 10
0.000000
 20
0.000000
 30
0.000000
210
0.000000
220
0.000000
230
1.000000
  2
_U
 70
     0
 71
     1
 91
     1
 92
    18
 72
     1
 73
     0
 93
     9
 10
-67.500018
 20
-49.249941
 42
0.000000
 10
-67.500018
 20
153.750059
 42
0.000000
 10
-87.500018
 20
153.750059
 42
0.000000
 10
-87.500018
 20
213.750059
 42
0.000000
 10
-67.500018
 20
213.750059
 42
0.000000
 10
-67.500018
 20
296.250078
 42
0.000000
 10
-147.500018
 20
296.250078
 42
0.000000
 10
-147.500018
 20
-49.249941
 42
0.000000
 10
-67.500018
 20
-49.249941
 42
0.000000
 97
     0
 75
     0
 76
     0
 52
0.000000
 41
1.000000
 77
     0
 78
     1
 53
90.000000
 43
-0.000000
 44
0.000000
 45
-13.750000
 46
0.000000
 79
     0
 98
     0
  0
ENDBLK
  5
235
100
AcDbEntity
  8
0
100
AcDbBlockEnd
  0
BLOCK
  5
236
100
AcDbEntity
  8
SCHRAFF
100
AcDbBlockBegin
  2
B-14
 70
    66
 10
0.000000
 20
0.000000
 30
0.000000
  0
HATCH
  5
237
100
AcDbEntity
  8
SCHRAFF
  6
CONTINUOUS
 62
     9
100
AcDbHatch
 10
0.000000
 20
0.000000
 30
0.000000
210
0.000000
220
0.000000
230
1.000000
  2
_U
 70
     0
 71
     1
 91
     1
 92
    18
 72
     1
 73
     0
 93
     7
 10
-152.500018
 20
-136.249941
 42
0.000000
 10
-152.500018
 20
296.250078
 42
0.000000
 10
-212.500018
 20
296.250078
 42
0.000000
 10
-212.500018
 20
-196.249941
 42
0.000000
 10
212.500023
 20
-196.249941
 42
0.000000
 10
212.500023
 20
-136.249941
 42
0.000000
 10
-152.500018
 20
-136.249941
 42
0.000000
 97
     0
 75
     0
 76
     0
 52
0.000000
 41
1.000000
 77
     0
 78
     1
 53
45.000000
 43
-0.000000
 44
0.000000
 45
-17.677670
 46
17.677670
 79
     0
 98
     0
  0
ENDBLK
  5
238
100
AcDbEntity
  8
0
100
AcDbBlockEnd
  0
BLOCK
  5
239
100
AcDbEntity
  8
Detail
100
AcDbBlockBegin
  2
B-15
 70
    66
 10
0.000000
 20
0.000000
 30
0.000000
  0
LWPOLYLINE
  5
23A
100
AcDbEntity
  8
Detail
  6
CONTINUOUS
 62
     6
100
AcDbPolyline
 90
     3
 10
-152.500018
 20
296.250078
 42
0.000000
 10
-152.500018
 20
-136.249941
 42
0.000000
 10
212.500023
 20
-136.249941
 42
0.000000
  0
LWPOLYLINE
  5
23E
100
AcDbEntity
  8
Detail
  6
CONTINUOUS
 62
     6
100
AcDbPolyline
 90
     3
 10
212.500023
 20
-131.249941
 42
0.000000
 10
-147.500018
 20
-131.249941
 42
0.000000
 10
-147.500018
 20
296.250078
 42
0.000000
  0
ENDBLK
  5
242
100
AcDbEntity
  8
0
100
AcDbBlockEnd
  0
BLOCK
  5
243
100
AcDbEntity
  8
Detail
100
AcDbBlockBegin
  2
B-16
 70
    66
 10
0.000000
 20
0.000000
 30
0.000000
  0
ENDBLK
  5
244
100
AcDbEntity
  8
0
100
AcDbBlockEnd
  0
BLOCK
  5
245
100
AcDbEntity
  8
Detail
100
AcDbBlockBegin
  2
B-17
 70
    66
 10
0.000000
 20
0.000000
 30
0.000000
  0
LWPOLYLINE
  5
246
100
AcDbEntity
  8
Detail
  6
CONTINUOUS
 62
     2
100
AcDbPolyline
 90
     3
 10
212.500023
 20
-136.249941
 42
0.000000
 10
-152.500018
 20
-136.249941
 42
0.000000
 10
-152.500018
 20
296.250078
 42
0.000000
  0
ENDBLK
  5
24A
100
AcDbEntity
  8
0
100
AcDbBlockEnd
  0
BLOCK
  5
24B
100
AcDbEntity
  8
SCHRAFF
100
AcDbBlockBegin
  2
B-18
 70
    66
 10
0.000000
 20
0.000000
 30
0.000000
  0
HATCH
  5
24C
100
AcDbEntity
  8
SCHRAFF
 62
     9
440
     0
100
AcDbHatch
 10
0.000000
 20
0.000000
 30
0.000000
210
0.000000
220
0.000000
230
1.000000
  2
SOLID
 70
     1
 71
     1
 91
     1
 92
    18
 72
     1
 73
     0
 93
     5
 10
212.500023
 20
-45.249941
 42
0.000000
 10
-51.500018
 20
-45.249941
 42
0.000000
 10
-51.500018
 20
-43.249941
 42
0.000000
 10
212.500023
 20
-43.249941
 42
0.000000
 10
212.500023
 20
-45.249941
 42
0.000000
 97
     0
 75
     0
 76
     1
 98
     0
  0
HATCH
  5
24D
100
AcDbEntity
  8
SCHRAFF
 62
   253
440
     0
100
AcDbHatch
 10
0.000000
 20
0.000000
 30
0.000000
210
0.000000
220
0.000000
230
1.000000
  2
SOLID
 70
     1
 71
     1
 91
     1
 92
    18
 72
     1
 73
     0
 93
     5
 10
-51.500018
 20
-39.249941
 42
0.000000
 10
212.500023
 20
-39.249941
 42
0.000000
 10
212.500023
 20
-43.249941
 42
0.000000
 10
-51.500018
 20
-43.249941
 42
0.000000
 10
-51.500018
 20
-39.249941
 42
0.000000
 97
     0
 75
     0
 76
     1
 98
     0
  0
ENDBLK
  5
24E
100
AcDbEntity
  8
0
100
AcDbBlockEnd
  0
BLOCK
  5
24F
100
AcDbEntity
  8
Detail
100
AcDbBlockBegin
  2
B-19
 70
    66
 10
0.000000
 20
0.000000
 30
0.000000
  0
LWPOLYLINE
  5
250
100
AcDbEntity
  8
Detail
  6
CONTINUOUS
 62
     6
100
AcDbPolyline
 90
     4
 10
212.500023
 20
-45.249941
 42
0.000000
 10
-51.500018
 20
-45.249941
 42
0.000000
 10
-51.500018
 20
-43.249941
 42
0.000000
 10
212.500023
 20
-43.249941
 42
0.000000
  0
ENDBLK
  5
255
100
AcDbEntity
  8
0
100
AcDbBlockEnd
  0
BLOCK
  5
256
100
AcDbEntity
  8
Detail
100
AcDbBlockBegin
  2
B-20
 70
    66
 10
0.000000
 20
0.000000
 30
0.000000
  0
LWPOLYLINE
  5
257
100
AcDbEntity
  8
Detail
  6
CONTINUOUS
 62
     6
100
AcDbPolyline
 90
     4
 10
212.500023
 20
-43.249941
 42
0.000000
 10
-51.500018
 20
-43.249941
 42
0.000000
 10
-51.500018
 20
-39.249941
 42
0.000000
 10
212.500023
 20
-39.249941
 42
0.000000
  0
ENDBLK
  5
25C
100
AcDbEntity
  8
0
100
AcDbBlockEnd
  0
BLOCK
  5
25D
100
AcDbEntity
  8
Detail
100
AcDbBlockBegin
  2
B-21
 70
    66
 10
0.000000
 20
0.000000
 30
0.000000
  0
LWPOLYLINE
  5
25E
100
AcDbEntity
  8
Detail
  6
CONTINUOUS
 62
     3
100
AcDbPolyline
 90
     5
 10
-51.500018
 20
-31.249941
 42
0.000000
 10
-51.500018
 20
-39.249941
 42
0.000000
 10
148.499982
 20
-39.249941
 42
0.000000
 10
148.499982
 20
-31.249941
 42
0.000000
 10
-51.500018
 20
-31.249941
 42
0.000000
  0
ENDBLK
  5
264
100
AcDbEntity
  8
0
100
AcDbBlockEnd
  0
BLOCK
  5
265
100
AcDbEntity
  8
Detail
100
AcDbBlockBegin
  2
B-22
 70
    66
 10
0.000000
 20
0.000000
 30
0.000000
  0
LWPOLYLINE
  5
266
100
AcDbEntity
  8
Detail
  6
CONTINUOUS
 62
     6
100
AcDbPolyline
 90
     4
 10
-67.500018
 20
296.250078
 42
0.000000
 10
-67.500018
 20
-51.249941
 42
0.000000
 10
-63.500018
 20
-51.249941
 42
0.000000
 10
-63.500018
 20
296.250078
 42
0.000000
  0
ENDBLK
  5
26B
100
AcDbEntity
  8
0
100
AcDbBlockEnd
  0
BLOCK
  5
26C
100
AcDbEntity
  8
Detail
100
AcDbBlockBegin
  2
B-23
 70
    66
 10
0.000000
 20
0.000000
 30
0.000000
  0
LWPOLYLINE
  5
26D
100
AcDbEntity
  8
Detail
  6
CONTINUOUS
 62
     6
100
AcDbPolyline
 90
   320
 10
-61.250077
 20
296.250078
 42
0.000000
 10
-61.000018
 20
295.750059
 42
0.000000
 10
-61.500018
 20
294.750059
 42
0.000000
 10
-61.500018
 20
293.750059
 42
0.000000
 10
-62.000018
 20
292.750059
 42
0.000000
 10
-61.500018
 20
291.750059
 42
0.000000
 10
-61.500018
 20
290.750059
 42
0.000000
 10
-61.000018
 20
289.750059
 42
0.000000
 10
-61.500018
 20
288.739453
 42
0.000000
 10
-61.500018
 20
287.750059
 42
0.000000
 10
-62.000018
 20
286.750059
 42
0.000000
 10
-61.500018
 20
285.750059
 42
0.000000
 10
-61.500018
 20
284.750059
 42
0.000000
 10
-61.000018
 20
283.750059
 42
0.000000
 10
-61.500018
 20
282.750059
 42
0.000000
 10
-61.500018
 20
281.750059
 42
0.000000
 10
-62.000018
 20
280.750059
 42
0.000000
 10
-61.500018
 20
279.750059
 42
0.000000
 10
-61.500018
 20
278.750059
 42
0.000000
 10
-61.000018
 20
277.750059
 42
0.000000
 10
-61.500018
 20
276.750059
 42
0.000000
 10
-61.500018
 20
275.750059
 42
0.000000
 10
-62.000018
 20
274.750059
 42
0.000000
 10
-61.500018
 20
273.750059
 42
0.000000
 10
-61.500018
 20
272.750059
 42
0.000000
 10
-61.000018
 20
271.750059
 42
0.000000
 10
-61.500018
 20
270.739453
 42
0.000000
 10
-61.500018
 20
269.750059
 42
0.000000
 10
-62.000018
 20
268.750059
 42
0.000000
 10
-61.500018
 20
267.750059
 42
0.000000
 10
-61.500018
 20
266.750059
 42
0.000000
 10
-61.000018
 20
265.750059
 42
0.000000
 10
-61.500018
 20
264.750059
 42
0.000000
 10
-61.500018
 20
263.750059
 42
0.000000
 10
-62.000018
 20
262.750059
 42
0.000000
 10
-61.500018
 20
261.750059
 42
0.000000
 10
-61.500018
 20
260.750059
 42
0.000000
 10
-61.000018
 20
259.750059
 42
0.000000
 10
-61.500018
 20
258.750059
 42
0.000000
 10
-61.500018
 20
257.750059
 42
0.000000
 10
-62.000018
 20
256.750059
 42
0.000000
 10
-61.500018
 20
255.750059
 42
0.000000
 10
-61.500018
 20
254.750059
 42
0.000000
 10
-61.000018
 20
253.750059
 42
0.000000
 10
-61.500018
 20
252.750059
 42
0.000000
 10
-61.500018
 20
251.750059
 42
0.000000
 10
-62.000018
 20
250.750059
 42
0.000000
 10
-61.500018
 20
249.750059
 42
0.000000
 10
-61.500018
 20
248.750059
 42
0.000000
 10
-61.000018
 20
247.750059
 42
0.000000
 10
-61.500018
 20
246.742392
 42
0.000000
 10
-61.500018
 20
245.750059
 42
0.000000
 10
-62.000018
 20
244.750059
 42
0.000000
 10
-61.500018
 20
243.750059
 42
0.000000
 10
-61.500018
 20
242.750059
 42
0.000000
 10
-61.000018
 20
241.750059
 42
0.000000
 10
-61.500018
 20
240.750059
 42
0.000000
 10
-61.500018
 20
239.750059
 42
0.000000
 10
-62.000018
 20
238.750059
 42
0.000000
 10
-61.500018
 20
237.750059
 42
0.000000
 10
-61.500018
 20
236.750059
 42
0.000000
 10
-61.000018
 20
235.750059
 42
0.000000
 10
-61.500018
 20
234.750059
 42
0.000000
 10
-61.500018
 20
233.750059
 42
0.000000
 10
-62.000018
 20
232.750059
 42
0.000000
 10
-61.500018
 20
231.750059
 42
0.000000
 10
-61.500018
 20
230.750059
 42
0.000000
 10
-61.000018
 20
229.750059
 42
0.000000
 10
-61.500018
 20
228.750059
 42
0.000000
 10
-61.500018
 20
227.750059
 42
0.000000
 10
-62.000018
 20
226.750059
 42
0.000000
 10
-61.500018
 20
225.750059
 42
0.000000
 10
-61.500018
 20
224.750059
 42
0.000000
 10
-61.000018
 20
223.750059
 42
0.000000
 10
-61.500018
 20
222.750059
 42
0.000000
 10
-61.500018
 20
221.750059
 42
0.000000
 10
-62.000018
 20
220.750059
 42
0.000000
 10
-61.500018
 20
219.750059
 42
0.000000
 10
-61.500018
 20
218.750059
 42
0.000000
 10
-61.000018
 20
217.750059
 42
0.000000
 10
-61.500018
 20
216.750059
 42
0.000000
 10
-61.500018
 20
215.750059
 42
0.000000
 10
-62.000018
 20
214.750059
 42
0.000000
 10
-61.500018
 20
213.750059
 42
0.000000
 10
-61.500018
 20
212.750059
 42
0.000000
 10
-61.000018
 20
211.750059
 42
0.000000
 10
-61.500018
 20
210.750059
 42
0.000000
 10
-61.500018
 20
209.750059
 42
0.000000
 10
-62.000018
 20
208.750059
 42
0.000000
 10
-61.500018
 20
207.750059
 42
0.000000
 10
-61.500018
 20
206.750059
 42
0.000000
 10
-61.000018
 20
205.750059
 42
0.000000
 10
-61.500018
 20
204.750059
 42
0.000000
 10
-61.500018
 20
203.750059
 42
0.000000
 10
-62.000018
 20
202.750059
 42
0.000000
 10
-61.500018
 20
201.750059
 42
0.000000
 10
-61.500018
 20
200.750059
 42
0.000000
 10
-61.000018
 20
199.750059
 42
0.000000
 10
-61.500018
 20
198.750059
 42
0.000000
 10
-61.500018
 20
197.750059
 42
0.000000
 10
-62.000018
 20
196.750059
 42
0.000000
 10
-61.500018
 20
195.750059
 42
0.000000
 10
-61.500018
 20
194.750059
 42
0.000000
 10
-61.000018
 20
193.750059
 42
0.000000
 10
-61.500018
 20
192.750059
 42
0.000000
 10
-61.500018
 20
191.750059
 42
0.000000
 10
-62.000018
 20
190.750059
 42
0.000000
 10
-61.500018
 20
189.750059
 42
0.000000
 10
-61.500018
 20
188.750059
 42
0.000000
 10
-61.000018
 20
187.750059
 42
0.000000
 10
-61.500018
 20
186.750059
 42
0.000000
 10
-61.500018
 20
185.750059
 42
0.000000
 10
-62.000018
 20
184.750059
 42
0.000000
 10
-61.500018
 20
183.750059
 42
0.000000
 10
-61.500018
 20
182.750059
 42
0.000000
 10
-61.000018
 20
181.750059
 42
0.000000
 10
-61.500018
 20
180.750059
 42
0.000000
 10
-61.500018
 20
179.750059
 42
0.000000
 10
-62.000018
 20
178.750059
 42
0.000000
 10
-61.500018
 20
177.750059
 42
0.000000
 10
-61.500018
 20
176.750059
 42
0.000000
 10
-61.000018
 20
175.750059
 42
0.000000
 10
-61.500018
 20
174.750059
 42
0.000000
 10
-61.500018
 20
173.750059
 42
0.000000
 10
-62.000018
 20
172.750059
 42
0.000000
 10
-61.500018
 20
171.750059
 42
0.000000
 10
-61.495620
 20
170.741263
 42
0.000000
 10
-61.000018
 20
169.750059
 42
0.000000
 10
-61.500018
 20
168.750059
 42
0.000000
 10
-61.500018
 20
167.750059
 42
0.000000
 10
-62.000018
 20
166.750059
 42
0.000000
 10
-61.500018
 20
165.750059
 42
0.000000
 10
-61.500018
 20
164.750059
 42
0.000000
 10
-61.000018
 20
163.750059
 42
0.000000
 10
-61.500018
 20
162.750059
 42
0.000000
 10
-61.500018
 20
161.750059
 42
0.000000
 10
-62.000018
 20
160.750059
 42
0.000000
 10
-61.500018
 20
159.750059
 42
0.000000
 10
-61.500018
 20
158.750059
 42
0.000000
 10
-61.000018
 20
157.750059
 42
0.000000
 10
-61.500018
 20
156.750059
 42
0.000000
 10
-61.500018
 20
155.750059
 42
0.000000
 10
-62.000018
 20
154.750059
 42
0.000000
 10
-61.500018
 20
153.750059
 42
0.000000
 10
-61.500018
 20
152.750059
 42
0.000000
 10
-61.000018
 20
151.750059
 42
0.000000
 10
-61.500018
 20
150.750059
 42
0.000000
 10
-61.500018
 20
149.750059
 42
0.000000
 10
-62.000018
 20
148.750059
 42
0.000000
 10
-61.500018
 20
147.750059
 42
0.000000
 10
-61.500018
 20
146.750059
 42
0.000000
 10
-61.000018
 20
145.750059
 42
0.000000
 10
-61.500018
 20
144.750059
 42
0.000000
 10
-61.500018
 20
143.750059
 42
0.000000
 10
-62.000018
 20
142.750059
 42
0.000000
 10
-61.500018
 20
141.750059
 42
0.000000
 10
-61.500018
 20
140.750059
 42
0.000000
 10
-61.000018
 20
139.750059
 42
0.000000
 10
-61.500018
 20
138.742392
 42
0.000000
 10
-61.500018
 20
137.750059
 42
0.000000
 10
-62.000018
 20
136.750059
 42
0.000000
 10
-61.500018
 20
135.750059
 42
0.000000
 10
-61.500018
 20
134.750059
 42
0.000000
 10
-61.000018
 20
133.750059
 42
0.000000
 10
-61.500018
 20
132.750059
 42
0.000000
 10
-61.500018
 20
131.750059
 42
0.000000
 10
-62.000018
 20
130.750059
 42
0.000000
 10
-61.500018
 20
129.750059
 42
0.000000
 10
-61.500018
 20
128.750059
 42
0.000000
 10
-61.000018
 20
127.750059
 42
0.000000
 10
-61.500018
 20
126.750059
 42
0.000000
 10
-61.500018
 20
125.750059
 42
0.000000
 10
-62.000018
 20
124.750059
 42
0.000000
 10
-61.500018
 20
123.750059
 42
0.000000
 10
-61.500018
 20
122.750059
 42
0.000000
 10
-61.000018
 20
121.750059
 42
0.000000
 10
-61.500018
 20
120.750059
 42
0.000000
 10
-61.500018
 20
119.750059
 42
0.000000
 10
-62.000018
 20
118.750059
 42
0.000000
 10
-61.500018
 20
117.750059
 42
0.000000
 10
-61.500018
 20
116.750059
 42
0.000000
 10
-61.000018
 20
115.750059
 42
0.000000
 10
-61.500018
 20
114.750059
 42
0.000000
 10
-61.500018
 20
113.750059
 42
0.000000
 10
-62.000018
 20
112.750059
 42
0.000000
 10
-61.500018
 20
111.750059
 42
0.000000
 10
-61.500018
 20
110.750059
 42
0.000000
 10
-61.000018
 20
109.750059
 42
0.000000
 10
-61.500018
 20
108.750059
 42
0.000000
 10
-61.500018
 20
107.750059
 42
0.000000
 10
-62.000018
 20
106.750059
 42
0.000000
 10
-61.500018
 20
105.750059
 42
0.000000
 10
-61.500018
 20
104.750059
 42
0.000000
 10
-61.000018
 20
103.750059
 42
0.000000
 10
-61.500018
 20
102.750059
 42
0.000000
 10
-61.500018
 20
101.750059
 42
0.000000
 10
-62.000018
 20
100.750059
 42
0.000000
 10
-61.500018
 20
99.750059
 42
0.000000
 10
-61.500018
 20
98.750059
 42
0.000000
 10
-61.000018
 20
97.750059
 42
0.000000
 10
-61.500018
 20
96.750059
 42
0.000000
 10
-61.500018
 20
95.750059
 42
0.000000
 10
-62.000018
 20
94.750059
 42
0.000000
 10
-61.500018
 20
93.750059
 42
0.000000
 10
-61.500018
 20
92.750059
 42
0.000000
 10
-61.000018
 20
91.750059
 42
0.000000
 10
-61.500018
 20
90.750059
 42
0.000000
 10
-61.500018
 20
89.750059
 42
0.000000
 10
-62.000018
 20
88.750059
 42
0.000000
 10
-61.500018
 20
87.750059
 42
0.000000
 10
-61.500018
 20
86.750059
 42
0.000000
 10
-61.000018
 20
85.750059
 42
0.000000
 10
-61.500018
 20
84.750059
 42
0.000000
 10
-61.500018
 20
83.750059
 42
0.000000
 10
-62.000018
 20
82.750059
 42
0.000000
 10
-61.500018
 20
81.750059
 42
0.000000
 10
-61.500018
 20
80.750059
 42
0.000000
 10
-61.000018
 20
79.750059
 42
0.000000
 10
-61.500018
 20
78.750059
 42
0.000000
 10
-61.500018
 20
77.750059
 42
0.000000
 10
-62.000018
 20
76.750059
 42
0.000000
 10
-61.500018
 20
75.750059
 42
0.000000
 10
-61.500018
 20
74.750059
 42
0.000000
 10
-61.000018
 20
73.750059
 42
0.000000
 10
-61.500018
 20
72.750059
 42
0.000000
 10
-61.500018
 20
71.750059
 42
0.000000
 10
-62.000018
 20
70.750059
 42
0.000000
 10
-61.500018
 20
69.750059
 42
0.000000
 10
-61.500018
 20
68.750059
 42
0.000000
 10
-61.000018
 20
67.750059
 42
0.000000
 10
-61.500018
 20
66.750059
 42
0.000000
 10
-61.500018
 20
65.750059
 42
0.000000
 10
-62.000018
 20
64.750059
 42
0.000000
 10
-61.500018
 20
63.750059
 42
0.000000
 10
-61.500018
 20
62.750059
 42
0.000000
 10
-61.000018
 20
61.750059
 42
0.000000
 10
-61.500018
 20
60.750059
 42
0.000000
 10
-61.500018
 20
59.750059
 42
0.000000
 10
-62.000018
 20
58.750059
 42
0.000000
 10
-61.500018
 20
57.750059
 42
0.000000
 10
-61.500018
 20
56.750059
 42
0.000000
 10
-61.000018
 20
55.750059
 42
0.000000
 10
-61.500018
 20
54.750059
 42
0.000000
 10
-61.500018
 20
53.750059
 42
0.000000
 10
-62.000018
 20
52.750059
 42
0.000000
 10
-61.500018
 20
51.750059
 42
0.000000
 10
-61.500018
 20
50.750059
 42
0.000000
 10
-61.000018
 20
49.750059
 42
0.000000
 10
-61.500018
 20
48.750059
 42
0.000000
 10
-61.500018
 20
47.750059
 42
0.000000
 10
-62.000018
 20
46.750059
 42
0.000000
 10
-61.500018
 20
45.750059
 42
0.000000
 10
-61.500018
 20
44.750059
 42
0.000000
 10
-61.000018
 20
43.750059
 42
0.000000
 10
-61.500018
 20
42.750059
 42
0.000000
 10
-61.500018
 20
41.750059
 42
0.000000
 10
-62.000018
 20
40.750059
 42
0.000000
 10
-61.500018
 20
39.750059
 42
0.000000
 10
-61.500018
 20
38.750059
 42
0.000000
 10
-61.000018
 20
37.750059
 42
0.000000
 10
-61.500018
 20
36.750059
 42
0.000000
 10
-61.500018
 20
35.750059
 42
0.000000
 10
-62.000018
 20
34.750059
 42
0.000000
 10
-61.500018
 20
33.750059
 42
0.000000
 10
-61.500018
 20
32.750059
 42
0.000000
 10
-61.000018
 20
31.750059
 42
0.000000
 10
-61.500018
 20
30.750059
 42
0.000000
 10
-61.500018
 20
29.750059
 42
0.000000
 10
-62.000018
 20
28.750059
 42
0.000000
 10
-61.500018
 20
27.750059
 42
0.000000
 10
-61.500018
 20
26.750059
 42
0.000000
 10
-61.000018
 20
25.750059
 42
0.000000
 10
-61.500018
 20
24.750059
 42
0.000000
 10
-61.500018
 20
23.750059
 42
0.000000
 10
-62.000018
 20
22.750059
 42
0.000000
 10
-61.500018
 20
21.750059
 42
0.000000
 10
-61.500018
 20
20.750059
 42
0.000000
 10
-61.000018
 20
19.750059
 42
0.000000
 10
-61.500018
 20
18.750059
 42
0.000000
 10
-61.500018
 20
17.750059
 42
0.000000
 10
-62.000018
 20
16.750059
 42
0.000000
 10
-61.500018
 20
15.750059
 42
0.000000
 10
-61.500018
 20
14.750059
 42
0.000000
 10
-61.000018
 20
13.750059
 42
0.000000
 10
-61.500018
 20
12.750059
 42
0.000000
 10
-61.500018
 20
11.750059
 42
0.000000
 10
-62.000018
 20
10.750059
 42
0.000000
 10
-61.500018
 20
9.750059
 42
0.000000
 10
-61.500018
 20
8.750059
 42
0.000000
 10
-61.000018
 20
7.750059
 42
0.000000
 10
-61.500018
 20
6.750059
 42
0.000000
 10
-61.500018
 20
5.750059
 42
0.000000
 10
-62.000018
 20
4.750059
 42
0.000000
 10
-61.500018
 20
3.750059
 42
0.000000
 10
-61.500018
 20
2.750059
 42
0.000000
 10
-61.000018
 20
1.750059
 42
0.000000
 10
-61.500018
 20
0.742392
 42
0.000000
 10
-61.500018
 20
-0.249941
 42
0.000000
 10
-62.000018
 20
-1.249941
 42
0.000000
 10
-61.500018
 20
-2.249941
 42
0.000000
 10
-61.500018
 20
-3.249941
 42
0.000000
 10
-61.000018
 20
-4.249941
 42
0.000000
 10
-61.500018
 20
-5.249941
 42
0.000000
 10
-61.500018
 20
-6.249941
 42
0.000000
 10
-62.000018
 20
-7.249941
 42
0.000000
 10
-61.500018
 20
-8.249941
 42
0.000000
 10
-61.500018
 20
-9.249941
 42
0.000000
 10
-61.000018
 20
-10.249941
 42
0.000000
 10
-61.500018
 20
-11.249941
 42
0.000000
 10
-61.500018
 20
-12.249941
 42
0.000000
 10
-62.000018
 20
-13.249941
 42
0.000000
 10
-61.500018
 20
-14.249941
 42
0.000000
 10
-61.500018
 20
-15.249941
 42
0.000000
 10
-61.000018
 20
-16.249941
 42
0.000000
 10
-61.500018
 20
-17.249941
 42
0.000000
 10
-61.500018
 20
-18.249941
 42
0.000000
 10
-62.000018
 20
-19.249941
 42
0.000000
 10
-61.500018
 20
-20.249941
 42
0.000000
 10
-61.500018
 20
-21.249941
 42
0.000000
 10
-61.500018
 20
-51.249941
 42
0.000000
  0
ENDBLK
  5
3AE
100
AcDbEntity
  8
0
100
AcDbBlockEnd
  0
BLOCK
  5
3AF
100
AcDbEntity
  8
Detail
100
AcDbBlockBegin
  2
B-24
 70
    66
 10
0.000000
 20
0.000000
 30
0.000000
  0
LWPOLYLINE
  5
3B0
100
AcDbEntity
  8
Detail
  6
HIDDEN
 62
     9
100
AcDbPolyline
 90
     2
 10
-64.500018
 20
296.250078
 42
0.000000
 10
-64.500018
 20
-51.249941
 42
0.000000
  0
ENDBLK
  5
3B3
100
AcDbEntity
  8
0
100
AcDbBlockEnd
  0
BLOCK
  5
3B4
100
AcDbEntity
  8
SCHRAFF
100
AcDbBlockBegin
  2
B-25
 70
    66
 10
0.000000
 20
0.000000
 30
0.000000
  0
HATCH
  5
3B5
100
AcDbEntity
  8
SCHRAFF
 62
     9
440
     0
100
AcDbHatch
 10
0.000000
 20
0.000000
 30
0.000000
210
0.000000
220
0.000000
230
1.000000
  2
SOLID
 70
     1
 71
     1
 91
     1
 92
    18
 72
     1
 73
     0
 93
     3
 10
-51.500018
 20
-44.249941
 42
1.000000
 10
-61.500018
 20
-44.249941
 42
1.000000
 10
-51.500018
 20
-44.249941
 42
0.000000
 97
     0
 75
     0
 76
     1
 98
     0
  0
LWPOLYLINE
  5
3B6
100
AcDbEntity
  8
Detail
  6
HIDDEN
 62
     9
100
AcDbPolyline
 90
     2
 10
-51.500018
 20
-46.249941
 42
0.000000
 10
212.500023
 20
-46.249941
 42
0.000000
  0
LWPOLYLINE
  5
3B9
100
AcDbEntity
  8
Detail
  6
CONTINUOUS
 62
     6
100
AcDbPolyline
 90
     4
 10
212.500023
 20
-51.249941
 42
0.000000
 10
-51.500018
 20
-51.249941
 42
0.000000
 10
-51.500018
 20
-45.249941
 42
0.000000
 10
212.500023
 20
-45.249941
 42
0.000000
  0
CIRCLE
  5
3BE
100
AcDbEntity
  8
Detail
  6
CONTINUOUS
 62
     4
100
AcDbCircle
 10
-56.500018
 20
-44.249941
 40
5.000000
  0
ENDBLK
  5
3BF
100
AcDbEntity
  8
0
100
AcDbBlockEnd
  0
BLOCK
  5
3C0
100
AcDbEntity
  8
Detail
100
AcDbBlockBegin
  2
B-26
 70
    66
 10
0.000000
 20
0.000000
 30
0.000000
  0
LWPOLYLINE
  5
3C1
100
AcDbEntity
  8
Detail
  6
CONTINUOUS
 62
     3
100
AcDbPolyline
 90
     4
 10
212.500023
 20
-39.249941
 42
0.000000
 10
158.499982
 20
-39.249941
 42
0.000000
 10
158.499982
 20
-31.249941
 42
0.000000
 10
212.500023
 20
-31.249941
 42
0.000000
  0
ENDBLK
  5
3C6
100
AcDbEntity
  8
0
100
AcDbBlockEnd
  0
BLOCK
  5
3C7
100
AcDbEntity
  8
Detail
100
AcDbBlockBegin
  2
B-27
 70
    66
 10
0.000000
 20
0.000000
 30
0.000000
  0
MTEXT
  5
3C9
100
AcDbEntity
  8
Detail
 62
     7
100
AcDbMText
 10
79.375020
 20
286.250053
 30
0.000000
 40
4.999990
 41
38.902407
 71
     1
 72
     5
  1
Klebemörtel
  7
Arial
 50
0.000000
  0
ENDBLK
  5
3CA
100
AcDbEntity
  8
0
100
AcDbBlockEnd
  0
BLOCK
  5
3CB
100
AcDbEntity
  8
SCHRAFF
100
AcDbBlockBegin
  2
B-28
 70
    66
 10
0.000000
 20
0.000000
 30
0.000000
  0
HATCH
  5
3CC
100
AcDbEntity
  8
SCHRAFF
 62
     7
440
     0
100
AcDbHatch
 10
0.000000
 20
0.000000
 30
0.000000
210
0.000000
220
0.000000
230
1.000000
  2
SOLID
 70
     1
 71
     1
 91
     1
 92
    18
 72
     1
 73
     0
 93
     3
 10
-149.500018
 20
283.750058
 42
1.000000
 10
-150.500018
 20
283.750058
 42
1.000000
 10
-149.500018
 20
283.750058
 42
0.000000
 97
     0
 75
     0
 76
     1
 98
     0
  0
CIRCLE
  5
3CD
100
AcDbEntity
  8
Detail
  6
CONTINUOUS
 62
     7
100
AcDbCircle
 10
-150.000018
 20
283.750058
 40
0.500000
  0
ENDBLK
  5
3CE
100
AcDbEntity
  8
0
100
AcDbBlockEnd
  0
BLOCK
  5
3CF
100
AcDbEntity
  8
Detail
100
AcDbBlockBegin
  2
B-29
 70
    66
 10
0.000000
 20
0.000000
 30
0.000000
  0
MTEXT
  5
3D0
100
AcDbEntity
  8
Detail
 62
     7
100
AcDbMText
 10
79.375020
 20
261.250055
 30
0.000000
 40
4.999990
 41
59.482357
 71
     1
 72
     5
  1
WDVS-Dämmstoff
  7
Arial
 50
0.000000
  0
ENDBLK
  5
3D1
100
AcDbEntity
  8
0
100
AcDbBlockEnd
  0
BLOCK
  5
3D2
100
AcDbEntity
  8
Detail
100
AcDbBlockBegin
  2
B-30
 70
    66
 10
0.000000
 20
0.000000
 30
0.000000
  0
MTEXT
  5
3D3
100
AcDbEntity
  8
Detail
 62
     7
100
AcDbMText
 10
79.375020
 20
236.250055
 30
0.000000
 40
4.999990
 41
60.059856
 71
     1
 72
     5
  1
Armierungsschicht
  7
Arial
 50
0.000000
  0
ENDBLK
  5
3D4
100
AcDbEntity
  8
0
100
AcDbBlockEnd
  0
BLOCK
  5
3D5
100
AcDbEntity
  8
Detail
100
AcDbBlockBegin
  2
B-31
 70
    66
 10
0.000000
 20
0.000000
 30
0.000000
  0
MTEXT
  5
3D6
100
AcDbEntity
  8
Detail
 62
     7
100
AcDbMText
 10
79.375020
 20
211.250055
 30
0.000000
 40
4.999990
 41
30.449927
 71
     1
 72
     5
  1
Deckputz
  7
Arial
 50
0.000000
  0
ENDBLK
  5
3D7
100
AcDbEntity
  8
0
100
AcDbBlockEnd
  0
BLOCK
  5
3D8
100
AcDbEntity
  8
Detail
100
AcDbBlockBegin
  2
B-32
 70
    66
 10
0.000000
 20
0.000000
 30
0.000000
  0
MTEXT
  5
3D9
100
AcDbEntity
  8
Detail
 62
     7
100
AcDbMText
 10
79.375019
 20
181.250065
 30
0.000000
 40
4.999990
 41
82.372302
 71
     7
 72
     5
  1
Verdübelung versenkt mit
  7
Arial
 50
0.000000
  0
MTEXT
  5
3DA
100
AcDbEntity
  8
Detail
 62
     7
100
AcDbMText
 10
79.375019
 20
173.750080
 30
0.000000
 40
4.999990
 41
82.634802
 71
     7
 72
     5
  1
Thermorondell abgedeckt
  7
Arial
 50
0.000000
  0
ENDBLK
  5
3DB
100
AcDbEntity
  8
0
100
AcDbBlockEnd
  0
BLOCK
  5
3DC
100
AcDbEntity
  8
Detail
100
AcDbBlockBegin
  2
B-33
 70
    66
 10
0.000000
 20
0.000000
 30
0.000000
  0
MTEXT
  5
3DD
100
AcDbEntity
  8
Detail
 62
     7
100
AcDbMText
 10
79.375020
 20
131.250066
 30
0.000000
 40
4.999990
 41
65.624843
 71
     7
 72
     5
  1
PE-Rundschnur und
  7
Arial
 50
0.000000
  0
MTEXT
  5
3DE
100
AcDbEntity
  8
Detail
 62
     7
100
AcDbMText
 10
79.375020
 20
123.750081
 30
0.000000
 40
4.999990
 41
67.304838
 71
     7
 72
     5
  1
elastischer Dichtstoff
  7
Arial
 50
0.000000
  0
ENDBLK
  5
3DF
100
AcDbEntity
  8
0
100
AcDbBlockEnd
  0
BLOCK
  5
3E0
100
AcDbEntity
  8
Detail
100
AcDbBlockBegin
  2
B-34
 70
    66
 10
0.000000
 20
0.000000
 30
0.000000
  0
LWPOLYLINE
  5
3E1
100
AcDbEntity
  8
Detail
  6
CONTINUOUS
 62
     7
100
AcDbPolyline
 90
     2
 10
77.500023
 20
158.750059
 42
0.000000
 10
-107.500018
 20
158.750059
 42
0.000000
  0
ENDBLK
  5
3E4
100
AcDbEntity
  8
0
100
AcDbBlockEnd
  0
BLOCK
  5
3E5
100
AcDbEntity
  8
Detail
100
AcDbBlockBegin
  2
B-35
 70
    66
 10
0.000000
 20
0.000000
 30
0.000000
  0
MTEXT
  5
3E6
100
AcDbEntity
  8
Detail
 62
     7
100
AcDbMText
 10
79.375020
 20
161.250056
 30
0.000000
 40
4.999990
 41
59.482357
 71
     1
 72
     5
  1
WDVS-Dämmstoff
  7
Arial
 50
0.000000
  0
ENDBLK
  5
3E7
100
AcDbEntity
  8
0
100
AcDbBlockEnd
  0
BLOCK
  5
3E8
100
AcDbEntity
  8
Detail
100
AcDbBlockBegin
  2
B-36
 70
    66
 10
0.000000
 20
0.000000
 30
0.000000
  0
LWPOLYLINE
  5
3E9
100
AcDbEntity
  8
Detail
  6
CONTINUOUS
 62
     7
100
AcDbPolyline
 90
     3
 10
77.500023
 20
83.750059
 42
0.000000
 10
-16.500018
 20
83.750059
 42
0.000000
 10
-16.500017
 20
-48.249941
 42
0.000000
  0
ENDBLK
  5
3ED
100
AcDbEntity
  8
0
100
AcDbBlockEnd
  0
BLOCK
  5
3EE
100
AcDbEntity
  8
Detail
100
AcDbBlockBegin
  2
B-37
 70
    66
 10
0.000000
 20
0.000000
 30
0.000000
  0
MTEXT
  5
3EF
100
AcDbEntity
  8
Detail
 62
     7
100
AcDbMText
 10
79.375020
 20
81.250066
 30
0.000000
 40
4.999990
 41
71.872328
 71
     7
 72
     5
  1
Armierungsschicht mit
  7
Arial
 50
0.000000
  0
MTEXT
  5
3F0
100
AcDbEntity
  8
Detail
 62
     7
100
AcDbMText
 10
79.375020
 20
73.750081
 30
0.000000
 40
4.999990
 41
68.827335
 71
     7
 72
     5
  1
Ceratherm Mörtel DP
  7
Arial
 50
0.000000
  0
ENDBLK
  5
3F1
100
AcDbEntity
  8
0
100
AcDbBlockEnd
  0
BLOCK
  5
3F2
100
AcDbEntity
  8
Detail
100
AcDbBlockBegin
  2
B-38
 70
    66
 10
0.000000
 20
0.000000
 30
0.000000
  0
MTEXT
  5
3F3
100
AcDbEntity
  8
Detail
 62
     7
100
AcDbMText
 10
79.375020
 20
56.250068
 30
0.000000
 40
4.999990
 41
69.929832
 71
     7
 72
     5
  1
Ausgleichsschicht mit
  7
Arial
 50
0.000000
  0
MTEXT
  5
3F4
100
AcDbEntity
  8
Detail
 62
     7
100
AcDbMText
 10
79.375020
 20
48.750083
 30
0.000000
 40
4.999990
 41
68.827335
 71
     7
 72
     5
  1
Ceratherm Mörtel DP
  7
Arial
 50
0.000000
  0
ENDBLK
  5
3F5
100
AcDbEntity
  8
0
100
AcDbBlockEnd
  0
BLOCK
  5
3F6
100
AcDbEntity
  8
Detail
100
AcDbBlockBegin
  2
B-39
 70
    66
 10
0.000000
 20
0.000000
 30
0.000000
  0
LWPOLYLINE
  5
3F7
100
AcDbEntity
  8
Detail
  6
CONTINUOUS
 62
     7
100
AcDbPolyline
 90
     3
 10
77.500023
 20
58.750059
 42
0.000000
 10
3.499982
 20
58.750059
 42
0.000000
 10
3.499982
 20
-44.249941
 42
0.000000
  0
ENDBLK
  5
3FB
100
AcDbEntity
  8
0
100
AcDbBlockEnd
  0
BLOCK
  5
3FC
100
AcDbEntity
  8
Detail
100
AcDbBlockBegin
  2
B-40
 70
    66
 10
0.000000
 20
0.000000
 30
0.000000
  0
MTEXT
  5
3FD
100
AcDbEntity
  8
Detail
 62
     7
100
AcDbMText
 10
79.375020
 20
36.250059
 30
0.000000
 40
4.999990
 41
44.939892
 71
     1
 72
     5
  1
Verlegemörtel
  7
Arial
 50
0.000000
  0
ENDBLK
  5
3FE
100
AcDbEntity
  8
0
100
AcDbBlockEnd
  0
BLOCK
  5
3FF
100
AcDbEntity
  8
Detail
100
AcDbBlockBegin
  2
B-41
 70
    66
 10
0.000000
 20
0.000000
 30
0.000000
  0
LWPOLYLINE
  5
400
100
AcDbEntity
  8
Detail
  6
CONTINUOUS
 62
     7
100
AcDbPolyline
 90
     3
 10
77.500023
 20
33.750059
 42
0.000000
 10
23.499982
 20
33.750059
 42
0.000000
 10
23.499982
 20
-41.249941
 42
0.000000
  0
ENDBLK
  5
404
100
AcDbEntity
  8
0
100
AcDbBlockEnd
  0
BLOCK
  5
405
100
AcDbEntity
  8
Detail
100
AcDbBlockBegin
  2
B-42
 70
    66
 10
0.000000
 20
0.000000
 30
0.000000
  0
MTEXT
  5
406
100
AcDbEntity
  8
Detail
 62
     7
100
AcDbMText
 10
79.375020
 20
11.250059
 30
0.000000
 40
4.999990
 41
48.982382
 71
     1
 72
     5
  1
Hartbekleidung
  7
Arial
 50
0.000000
  0
ENDBLK
  5
407
100
AcDbEntity
  8
0
100
AcDbBlockEnd
  0
BLOCK
  5
408
100
AcDbEntity
  8
Detail
100
AcDbBlockBegin
  2
B-43
 70
    66
 10
0.000000
 20
0.000000
 30
0.000000
  0
LWPOLYLINE
  5
409
100
AcDbEntity
  8
Detail
  6
CONTINUOUS
 62
     7
100
AcDbPolyline
 90
     3
 10
77.500023
 20
8.750059
 42
0.000000
 10
43.499982
 20
8.750059
 42
0.000000
 10
43.499982
 20
-35.249941
 42
0.000000
  0
ENDBLK
  5
40D
100
AcDbEntity
  8
0
100
AcDbBlockEnd
  0
BLOCK
  5
40E
100
AcDbEntity
  8
Detail
100
AcDbBlockBegin
  2
B-44
 70
    66
 10
0.000000
 20
0.000000
 30
0.000000
  0
MTEXT
  5
40F
100
AcDbEntity
  8
Detail
 62
     7
100
AcDbMText
 10
79.375020
 20
-13.749941
 30
0.000000
 40
4.999990
 41
40.897402
 71
     1
 72
     5
  1
Fugenmörtel
  7
Arial
 50
0.000000
  0
ENDBLK
  5
410
100
AcDbEntity
  8
0
100
AcDbBlockEnd
  0
BLOCK
  5
411
100
AcDbEntity
  8
SCHRAFF
100
AcDbBlockBegin
  2
B-45
 70
    66
 10
0.000000
 20
0.000000
 30
0.000000
  0
HATCH
  5
412
100
AcDbEntity
  8
SCHRAFF
 62
     7
440
     0
100
AcDbHatch
 10
0.000000
 20
0.000000
 30
0.000000
210
0.000000
220
0.000000
230
1.000000
  2
SOLID
 70
     1
 71
     1
 91
     1
 92
    18
 72
     1
 73
     0
 93
     3
 10
-107.000018
 20
258.750058
 42
1.000000
 10
-108.000018
 20
258.750058
 42
1.000000
 10
-107.000018
 20
258.750058
 42
0.000000
 97
     0
 75
     0
 76
     1
 98
     0
  0
CIRCLE
  5
413
100
AcDbEntity
  8
Detail
  6
CONTINUOUS
 62
     7
100
AcDbCircle
 10
-107.500018
 20
258.750058
 40
0.500000
  0
ENDBLK
  5
414
100
AcDbEntity
  8
0
100
AcDbBlockEnd
  0
BLOCK
  5
415
100
AcDbEntity
  8
SCHRAFF
100
AcDbBlockBegin
  2
B-46
 70
    66
 10
0.000000
 20
0.000000
 30
0.000000
  0
HATCH
  5
416
100
AcDbEntity
  8
SCHRAFF
 62
     7
440
     0
100
AcDbHatch
 10
0.000000
 20
0.000000
 30
0.000000
210
0.000000
220
0.000000
230
1.000000
  2
SOLID
 70
     1
 71
     1
 91
     1
 92
    18
 72
     1
 73
     0
 93
     3
 10
-65.000018
 20
233.750059
 42
1.000000
 10
-66.000018
 20
233.750059
 42
1.000000
 10
-65.000018
 20
233.750059
 42
0.000000
 97
     0
 75
     0
 76
     1
 98
     0
  0
CIRCLE
  5
417
100
AcDbEntity
  8
Detail
  6
CONTINUOUS
 62
     7
100
AcDbCircle
 10
-65.500018
 20
233.750059
 40
0.500000
  0
ENDBLK
  5
418
100
AcDbEntity
  8
0
100
AcDbBlockEnd
  0
BLOCK
  5
419
100
AcDbEntity
  8
SCHRAFF
100
AcDbBlockBegin
  2
B-47
 70
    66
 10
0.000000
 20
0.000000
 30
0.000000
  0
HATCH
  5
41A
100
AcDbEntity
  8
SCHRAFF
 62
     7
440
     0
100
AcDbHatch
 10
0.000000
 20
0.000000
 30
0.000000
210
0.000000
220
0.000000
230
1.000000
  2
SOLID
 70
     1
 71
     1
 91
     1
 92
    18
 72
     1
 73
     0
 93
     3
 10
-62.000018
 20
208.750059
 42
1.000000
 10
-63.000018
 20
208.750059
 42
1.000000
 10
-62.000018
 20
208.750059
 42
0.000000
 97
     0
 75
     0
 76
     1
 98
     0
  0
CIRCLE
  5
41B
100
AcDbEntity
  8
Detail
  6
CONTINUOUS
 62
     7
100
AcDbCircle
 10
-62.500018
 20
208.750059
 40
0.500000
  0
ENDBLK
  5
41C
100
AcDbEntity
  8
0
100
AcDbBlockEnd
  0
BLOCK
  5
41D
100
AcDbEntity
  8
SCHRAFF
100
AcDbBlockBegin
  2
B-48
 70
    66
 10
0.000000
 20
0.000000
 30
0.000000
  0
HATCH
  5
41E
100
AcDbEntity
  8
SCHRAFF
 62
     7
440
     0
100
AcDbHatch
 10
0.000000
 20
0.000000
 30
0.000000
210
0.000000
220
0.000000
230
1.000000
  2
SOLID
 70
     1
 71
     1
 91
     1
 92
    18
 72
     1
 73
     0
 93
     3
 10
-85.500018
 20
183.750058
 42
1.000000
 10
-86.500018
 20
183.750058
 42
1.000000
 10
-85.500018
 20
183.750058
 42
0.000000
 97
     0
 75
     0
 76
     1
 98
     0
  0
CIRCLE
  5
41F
100
AcDbEntity
  8
Detail
  6
CONTINUOUS
 62
     7
100
AcDbCircle
 10
-86.000018
 20
183.750058
 40
0.500000
  0
ENDBLK
  5
420
100
AcDbEntity
  8
0
100
AcDbBlockEnd
  0
BLOCK
  5
421
100
AcDbEntity
  8
SCHRAFF
100
AcDbBlockBegin
  2
B-49
 70
    66
 10
0.000000
 20
0.000000
 30
0.000000
  0
HATCH
  5
422
100
AcDbEntity
  8
SCHRAFF
 62
     7
440
     0
100
AcDbHatch
 10
0.000000
 20
0.000000
 30
0.000000
210
0.000000
220
0.000000
230
1.000000
  2
SOLID
 70
     1
 71
     1
 91
     1
 92
    18
 72
     1
 73
     0
 93
     3
 10
-56.000018
 20
-44.249941
 42
1.000000
 10
-57.000018
 20
-44.249941
 42
1.000000
 10
-56.000018
 20
-44.249941
 42
0.000000
 97
     0
 75
     0
 76
     1
 98
     0
  0
CIRCLE
  5
423
100
AcDbEntity
  8
Detail
  6
CONTINUOUS
 62
     7
100
AcDbCircle
 10
-56.500018
 20
-44.249941
 40
0.500000
  0
ENDBLK
  5
424
100
AcDbEntity
  8
0
100
AcDbBlockEnd
  0
BLOCK
  5
425
100
AcDbEntity
  8
SCHRAFF
100
AcDbBlockBegin
  2
B-50
 70
    66
 10
0.000000
 20
0.000000
 30
0.000000
  0
HATCH
  5
426
100
AcDbEntity
  8
SCHRAFF
 62
     7
440
     0
100
AcDbHatch
 10
0.000000
 20
0.000000
 30
0.000000
210
0.000000
220
0.000000
230
1.000000
  2
SOLID
 70
     1
 71
     1
 91
     1
 92
    18
 72
     1
 73
     0
 93
     3
 10
-107.000018
 20
158.750059
 42
1.000000
 10
-108.000018
 20
158.750059
 42
1.000000
 10
-107.000018
 20
158.750059
 42
0.000000
 97
     0
 75
     0
 76
     1
 98
     0
  0
CIRCLE
  5
427
100
AcDbEntity
  8
Detail
  6
CONTINUOUS
 62
     7
100
AcDbCircle
 10
-107.500018
 20
158.750059
 40
0.500000
  0
ENDBLK
  5
428
100
AcDbEntity
  8
0
100
AcDbBlockEnd
  0
BLOCK
  5
429
100
AcDbEntity
  8
SCHRAFF
100
AcDbBlockBegin
  2
B-51
 70
    66
 10
0.000000
 20
0.000000
 30
0.000000
  0
HATCH
  5
42A
100
AcDbEntity
  8
SCHRAFF
 62
     7
440
     0
100
AcDbHatch
 10
0.000000
 20
0.000000
 30
0.000000
210
0.000000
220
0.000000
230
1.000000
  2
SOLID
 70
     1
 71
     1
 91
     1
 92
    18
 72
     1
 73
     0
 93
     3
 10
-16.000017
 20
-48.249941
 42
1.000000
 10
-17.000017
 20
-48.249941
 42
1.000000
 10
-16.000017
 20
-48.249941
 42
0.000000
 97
     0
 75
     0
 76
     1
 98
     0
  0
CIRCLE
  5
42B
100
AcDbEntity
  8
Detail
  6
CONTINUOUS
 62
     7
100
AcDbCircle
 10
-16.500017
 20
-48.249941
 40
0.500000
  0
ENDBLK
  5
42C
100
AcDbEntity
  8
0
100
AcDbBlockEnd
  0
BLOCK
  5
42D
100
AcDbEntity
  8
SCHRAFF
100
AcDbBlockBegin
  2
B-52
 70
    66
 10
0.000000
 20
0.000000
 30
0.000000
  0
HATCH
  5
42E
100
AcDbEntity
  8
SCHRAFF
 62
     7
440
     0
100
AcDbHatch
 10
0.000000
 20
0.000000
 30
0.000000
210
0.000000
220
0.000000
230
1.000000
  2
SOLID
 70
     1
 71
     1
 91
     1
 92
    18
 72
     1
 73
     0
 93
     3
 10
3.999982
 20
-44.249941
 42
1.000000
 10
2.999982
 20
-44.249941
 42
1.000000
 10
3.999982
 20
-44.249941
 42
0.000000
 97
     0
 75
     0
 76
     1
 98
     0
  0
CIRCLE
  5
42F
100
AcDbEntity
  8
Detail
  6
CONTINUOUS
 62
     7
100
AcDbCircle
 10
3.499982
 20
-44.249941
 40
0.500000
  0
ENDBLK
  5
430
100
AcDbEntity
  8
0
100
AcDbBlockEnd
  0
BLOCK
  5
431
100
AcDbEntity
  8
SCHRAFF
100
AcDbBlockBegin
  2
B-53
 70
    66
 10
0.000000
 20
0.000000
 30
0.000000
  0
HATCH
  5
432
100
AcDbEntity
  8
SCHRAFF
 62
     7
440
     0
100
AcDbHatch
 10
0.000000
 20
0.000000
 30
0.000000
210
0.000000
220
0.000000
230
1.000000
  2
SOLID
 70
     1
 71
     1
 91
     1
 92
    18
 72
     1
 73
     0
 93
     3
 10
23.999982
 20
-41.249941
 42
1.000000
 10
22.999982
 20
-41.249941
 42
1.000000
 10
23.999982
 20
-41.249941
 42
0.000000
 97
     0
 75
     0
 76
     1
 98
     0
  0
CIRCLE
  5
433
100
AcDbEntity
  8
Detail
  6
CONTINUOUS
 62
     7
100
AcDbCircle
 10
23.499982
 20
-41.249941
 40
0.500000
  0
ENDBLK
  5
434
100
AcDbEntity
  8
0
100
AcDbBlockEnd
  0
BLOCK
  5
435
100
AcDbEntity
  8
SCHRAFF
100
AcDbBlockBegin
  2
B-54
 70
    66
 10
0.000000
 20
0.000000
 30
0.000000
  0
HATCH
  5
436
100
AcDbEntity
  8
SCHRAFF
 62
     7
440
     0
100
AcDbHatch
 10
0.000000
 20
0.000000
 30
0.000000
210
0.000000
220
0.000000
230
1.000000
  2
SOLID
 70
     1
 71
     1
 91
     1
 92
    18
 72
     1
 73
     0
 93
     3
 10
43.999982
 20
-35.249941
 42
1.000000
 10
42.999982
 20
-35.249941
 42
1.000000
 10
43.999982
 20
-35.249941
 42
0.000000
 97
     0
 75
     0
 76
     1
 98
     0
  0
CIRCLE
  5
437
100
AcDbEntity
  8
Detail
  6
CONTINUOUS
 62
     7
100
AcDbCircle
 10
43.499982
 20
-35.249941
 40
0.500000
  0
ENDBLK
  5
438
100
AcDbEntity
  8
0
100
AcDbBlockEnd
  0
BLOCK
  5
439
100
AcDbEntity
  8
SCHRAFF
100
AcDbBlockBegin
  2
B-55
 70
    66
 10
0.000000
 20
0.000000
 30
0.000000
  0
HATCH
  5
43A
100
AcDbEntity
  8
SCHRAFF
 62
     7
440
     0
100
AcDbHatch
 10
0.000000
 20
0.000000
 30
0.000000
210
0.000000
220
0.000000
230
1.000000
  2
SOLID
 70
     1
 71
     1
 91
     1
 92
    18
 72
     1
 73
     0
 93
     3
 10
153.999982
 20
-36.249941
 42
1.000000
 10
152.999982
 20
-36.249941
 42
1.000000
 10
153.999982
 20
-36.249941
 42
0.000000
 97
     0
 75
     0
 76
     1
 98
     0
  0
CIRCLE
  5
43B
100
AcDbEntity
  8
Detail
  6
CONTINUOUS
 62
     7
100
AcDbCircle
 10
153.499982
 20
-36.249941
 40
0.500000
  0
ENDBLK
  5
43C
100
AcDbEntity
  8
0
100
AcDbBlockEnd
  0
BLOCK
  5
43D
100
AcDbEntity
  8
Detail
100
AcDbBlockBegin
  2
B-56
 70
    66
 10
0.000000
 20
0.000000
 30
0.000000
  0
ENDBLK
  5
43E
100
AcDbEntity
  8
0
100
AcDbBlockEnd
  0
BLOCK
  5
43F
100
AcDbEntity
  8
Detail
100
AcDbBlockBegin
  2
B-57
 70
    66
 10
0.000000
 20
0.000000
 30
0.000000
  0
LWPOLYLINE
  5
440
100
AcDbEntity
  8
Detail
  6
CONTINUOUS
 62
     7
100
AcDbPolyline
 90
     4
 10
77.500023
 20
108.750059
 42
0.000000
 10
-36.503421
 20
108.750059
 42
0.000000
 10
-36.493127
 20
-77.749941
 42
0.000000
 10
102.550335
 20
-77.749941
 42
0.000000
  0
ENDBLK
  5
445
100
AcDbEntity
  8
0
100
AcDbBlockEnd
  0
BLOCK
  5
446
100
AcDbEntity
  8
SCHRAFF
100
AcDbBlockBegin
  2
B-58
 70
    66
 10
0.000000
 20
0.000000
 30
0.000000
  0
HATCH
  5
447
100
AcDbEntity
  8
SCHRAFF
 62
     7
440
     0
100
AcDbHatch
 10
0.000000
 20
0.000000
 30
0.000000
210
0.000000
220
0.000000
230
1.000000
  2
SOLID
 70
     1
 71
     1
 91
     1
 92
    18
 72
     1
 73
     0
 93
     3
 10
103.050335
 20
-77.749941
 42
1.000000
 10
102.050335
 20
-77.749941
 42
1.000000
 10
103.050335
 20
-77.749941
 42
0.000000
 97
     0
 75
     0
 76
     1
 98
     0
  0
CIRCLE
  5
448
100
AcDbEntity
  8
Detail
  6
CONTINUOUS
 62
     7
100
AcDbCircle
 10
102.550335
 20
-77.749941
 40
0.500000
  0
ENDBLK
  5
449
100
AcDbEntity
  8
0
100
AcDbBlockEnd
  0
BLOCK
  5
44A
100
AcDbEntity
  8
Detail
100
AcDbBlockBegin
  2
B-59
 70
    66
 10
0.000000
 20
0.000000
 30
0.000000
  0
MTEXT
  5
44B
100
AcDbEntity
  8
Detail
 62
     7
100
AcDbMText
 10
79.375020
 20
106.250066
 30
0.000000
 40
4.999990
 41
61.109853
 71
     7
 72
     5
  1
Verdübelung durch
  7
Arial
 50
0.000000
  0
MTEXT
  5
44C
100
AcDbEntity
  8
Detail
 62
     7
100
AcDbMText
 10
79.375020
 20
98.750081
 30
0.000000
 40
4.999990
 41
59.797356
 71
     7
 72
     5
  1
Gewebearmierung
  7
Arial
 50
0.000000
  0
ENDBLK
  5
44D
100
AcDbEntity
  8
0
100
AcDbBlockEnd
  0
BLOCK
  5
44E
100
AcDbEntity
  8
Detail
100
AcDbBlockBegin
  2
B-60
 70
    66
 10
0.000000
 20
0.000000
 30
0.000000
  0
LWPOLYLINE
  5
44F
100
AcDbEntity
  8
Detail
  6
CONTINUOUS
 62
     9
100
AcDbPolyline
 90
     2
 10
-116.000018
 20
190.750059
 42
0.000000
 10
-116.000018
 20
176.770646
 42
0.000000
  0
LWPOLYLINE
  5
452
100
AcDbEntity
  8
Detail
  6
CONTINUOUS
 62
     9
100
AcDbPolyline
 90
    83
 10
-87.500018
 20
153.750059
 42
0.000000
 10
-87.000018
 20
153.750059
 42
0.000000
 10
-86.000018
 20
158.750059
 42
0.000000
 10
-86.000018
 20
208.750059
 42
0.000000
 10
-87.000018
 20
213.750059
 42
0.000000
 10
-87.500018
 20
213.750059
 42
0.000000
 10
-87.500018
 20
196.750059
 42
0.000000
 10
-88.750018
 20
193.000059
 42
0.000000
 10
-92.500018
 20
191.750059
 42
0.000000
 10
-116.000018
 20
190.750059
 42
0.000000
 10
-122.000018
 20
188.250059
 42
0.000000
 10
-164.462215
 20
187.710059
 42
0.000000
 10
-165.828158
 20
187.463049
 42
0.000000
 10
-165.903911
 20
187.710059
 42
0.000000
 10
-168.686215
 20
187.710059
 42
0.000000
 10
-170.052158
 20
187.463049
 42
0.000000
 10
-170.127911
 20
187.710059
 42
0.000000
 10
-172.910215
 20
187.710059
 42
0.000000
 10
-174.276158
 20
187.463049
 42
0.000000
 10
-174.351827
 20
187.705259
 42
0.000000
 10
-177.134215
 20
187.710059
 42
0.000000
 10
-178.500158
 20
187.463049
 42
0.000000
 10
-178.575911
 20
187.710059
 42
0.000000
 10
-181.358215
 20
187.710059
 42
0.000000
 10
-182.724158
 20
187.463049
 42
0.000000
 10
-182.799911
 20
187.710059
 42
0.000000
 10
-185.582215
 20
187.710059
 42
0.000000
 10
-186.948158
 20
187.463049
 42
0.000000
 10
-187.023911
 20
187.710059
 42
0.000000
 10
-189.806215
 20
187.710059
 42
0.000000
 10
-191.172158
 20
187.463049
 42
0.000000
 10
-191.247911
 20
187.710059
 42
0.000000
 10
-194.030215
 20
187.710059
 42
0.000000
 10
-195.396158
 20
187.463049
 42
0.000000
 10
-195.471911
 20
187.710059
 42
0.000000
 10
-198.254215
 20
187.710059
 42
0.000000
 10
-199.458372
 20
187.427626
 42
0.000000
 10
-199.917355
 20
187.590058
 42
0.000000
 10
-200.894215
 20
187.155803
 42
0.000000
 10
-201.134215
 20
186.630059
 42
0.000000
 10
-201.902215
 20
186.630059
 42
0.000000
 10
-203.420108
 20
186.089091
 42
0.000000
 10
-204.253725
 20
184.710059
 42
0.000000
 10
-206.000018
 20
183.750059
 42
0.000000
 10
-204.253725
 20
182.790059
 42
0.000000
 10
-203.420108
 20
181.411027
 42
0.000000
 10
-202.157414
 20
180.883665
 42
0.000000
 10
-201.134215
 20
180.870059
 42
0.000000
 10
-200.894215
 20
180.344315
 42
0.000000
 10
-200.142059
 20
179.910059
 42
0.000000
 10
-199.692646
 20
179.910059
 42
0.000000
 10
-199.458372
 20
180.072491
 42
0.000000
 10
-198.254215
 20
179.790059
 42
0.000000
 10
-195.471911
 20
179.790059
 42
0.000000
 10
-195.396158
 20
180.037068
 42
0.000000
 10
-194.030215
 20
179.790059
 42
0.000000
 10
-191.247911
 20
179.790059
 42
0.000000
 10
-191.172158
 20
180.037068
 42
0.000000
 10
-189.806215
 20
179.790059
 42
0.000000
 10
-187.023911
 20
179.790059
 42
0.000000
 10
-186.948158
 20
180.037068
 42
0.000000
 10
-185.582215
 20
179.790059
 42
0.000000
 10
-182.799911
 20
179.790059
 42
0.000000
 10
-182.724158
 20
180.037068
 42
0.000000
 10
-181.358215
 20
179.790059
 42
0.000000
 10
-178.575911
 20
179.790059
 42
0.000000
 10
-178.500158
 20
180.037068
 42
0.000000
 10
-177.134215
 20
179.790059
 42
0.000000
 10
-174.351827
 20
179.794859
 42
0.000000
 10
-174.276158
 20
180.037068
 42
0.000000
 10
-172.910215
 20
179.790059
 42
0.000000
 10
-170.127911
 20
179.790059
 42
0.000000
 10
-170.052158
 20
180.037068
 42
0.000000
 10
-168.686215
 20
179.790059
 42
0.000000
 10
-165.903911
 20
179.790059
 42
0.000000
 10
-165.828158
 20
180.037068
 42
0.000000
 10
-164.462215
 20
179.790059
 42
0.000000
 10
-122.000018
 20
179.250059
 42
0.000000
 10
-116.000018
 20
176.750059
 42
0.000000
 10
-92.500018
 20
175.750059
 42
0.000000
 10
-88.750018
 20
174.500059
 42
0.000000
 10
-87.500018
 20
170.750059
 42
0.000000
 10
-87.500018
 20
153.750059
 42
0.000000
  0
LWPOLYLINE
  5
4A6
100
AcDbEntity
  8
Detail
  6
CONTINUOUS
 62
     9
100
AcDbPolyline
 90
   203
 10
-206.000018
 20
183.750059
 42
0.000000
 10
-203.886942
 20
184.625324
 42
0.000000
 10
-203.385367
 20
185.494077
 42
0.000000
 10
-202.996692
 20
184.994077
 42
0.000000
 10
-201.916355
 20
185.441568
 42
0.000000
 10
-201.414780
 20
186.310321
 42
0.000000
 10
-201.026105
 20
185.810321
 42
0.000000
 10
-200.447328
 20
186.050059
 42
0.000000
 10
-199.846289
 20
186.050059
 42
0.000000
 10
-199.557614
 20
186.550059
 42
0.000000
 10
-199.168939
 20
186.050059
 42
0.000000
 10
-198.036289
 20
186.050059
 42
0.000000
 10
-197.747614
 20
186.550059
 42
0.000000
 10
-197.358939
 20
186.050059
 42
0.000000
 10
-196.226289
 20
186.050059
 42
0.000000
 10
-195.937614
 20
186.550059
 42
0.000000
 10
-195.548939
 20
186.050059
 42
0.000000
 10
-194.416289
 20
186.050059
 42
0.000000
 10
-194.127614
 20
186.550059
 42
0.000000
 10
-193.738939
 20
186.050059
 42
0.000000
 10
-192.606289
 20
186.050059
 42
0.000000
 10
-192.317614
 20
186.550059
 42
0.000000
 10
-191.928939
 20
186.050059
 42
0.000000
 10
-190.796289
 20
186.050059
 42
0.000000
 10
-190.507614
 20
186.550059
 42
0.000000
 10
-190.118939
 20
186.050059
 42
0.000000
 10
-188.986289
 20
186.050059
 42
0.000000
 10
-188.697614
 20
186.550059
 42
0.000000
 10
-188.308939
 20
186.050059
 42
0.000000
 10
-187.176289
 20
186.050059
 42
0.000000
 10
-186.887614
 20
186.550059
 42
0.000000
 10
-186.498939
 20
186.050059
 42
0.000000
 10
-185.366289
 20
186.050059
 42
0.000000
 10
-185.077614
 20
186.550059
 42
0.000000
 10
-184.688939
 20
186.050059
 42
0.000000
 10
-183.556289
 20
186.050059
 42
0.000000
 10
-183.267614
 20
186.550059
 42
0.000000
 10
-182.878939
 20
186.050059
 42
0.000000
 10
-181.746289
 20
186.050059
 42
0.000000
 10
-181.457614
 20
186.550059
 42
0.000000
 10
-181.068939
 20
186.050059
 42
0.000000
 10
-179.936289
 20
186.050059
 42
0.000000
 10
-179.647614
 20
186.550059
 42
0.000000
 10
-179.258939
 20
186.050059
 42
0.000000
 10
-178.126289
 20
186.050059
 42
0.000000
 10
-177.837614
 20
186.550059
 42
0.000000
 10
-177.448939
 20
186.050059
 42
0.000000
 10
-176.316289
 20
186.050059
 42
0.000000
 10
-176.027614
 20
186.550059
 42
0.000000
 10
-175.638939
 20
186.050059
 42
0.000000
 10
-174.506289
 20
186.050059
 42
0.000000
 10
-174.217614
 20
186.550059
 42
0.000000
 10
-173.828939
 20
186.050059
 42
0.000000
 10
-172.696289
 20
186.050059
 42
0.000000
 10
-172.407614
 20
186.550059
 42
0.000000
 10
-172.018939
 20
186.050059
 42
0.000000
 10
-170.886289
 20
186.050059
 42
0.000000
 10
-170.597614
 20
186.550059
 42
0.000000
 10
-170.186425
 20
186.050059
 42
0.000000
 10
-169.076289
 20
186.050059
 42
0.000000
 10
-168.787614
 20
186.550059
 42
0.000000
 10
-168.398939
 20
186.050059
 42
0.000000
 10
-167.266289
 20
186.050059
 42
0.000000
 10
-166.977614
 20
186.550059
 42
0.000000
 10
-166.588939
 20
186.050059
 42
0.000000
 10
-165.456289
 20
186.050059
 42
0.000000
 10
-165.167614
 20
186.550059
 42
0.000000
 10
-164.778939
 20
186.050059
 42
0.000000
 10
-163.646289
 20
186.050059
 42
0.000000
 10
-163.357614
 20
186.550059
 42
0.000000
 10
-162.968939
 20
186.050059
 42
0.000000
 10
-161.836289
 20
186.050059
 42
0.000000
 10
-161.547614
 20
186.550059
 42
0.000000
 10
-161.158939
 20
186.050059
 42
0.000000
 10
-160.026289
 20
186.050059
 42
0.000000
 10
-159.737614
 20
186.550059
 42
0.000000
 10
-159.348939
 20
186.050059
 42
0.000000
 10
-158.216289
 20
186.050059
 42
0.000000
 10
-157.927614
 20
186.550059
 42
0.000000
 10
-157.538939
 20
186.050059
 42
0.000000
 10
-156.406289
 20
186.050059
 42
0.000000
 10
-156.117614
 20
186.550059
 42
0.000000
 10
-155.728939
 20
186.050059
 42
0.000000
 10
-154.596289
 20
186.050059
 42
0.000000
 10
-154.307614
 20
186.550059
 42
0.000000
 10
-153.918939
 20
186.050059
 42
0.000000
 10
-152.786289
 20
186.050059
 42
0.000000
 10
-152.497614
 20
186.550059
 42
0.000000
 10
-152.108939
 20
186.050059
 42
0.000000
 10
-150.976289
 20
186.050059
 42
0.000000
 10
-150.687614
 20
186.550059
 42
0.000000
 10
-150.298939
 20
186.050059
 42
0.000000
 10
-149.166289
 20
186.050059
 42
0.000000
 10
-148.877614
 20
186.550059
 42
0.000000
 10
-148.488939
 20
186.050059
 42
0.000000
 10
-147.356289
 20
186.050059
 42
0.000000
 10
-147.067614
 20
186.550059
 42
0.000000
 10
-146.678939
 20
186.050059
 42
0.000000
 10
-146.000018
 20
186.050059
 42
0.000000
 10
-145.826813
 20
186.150059
 42
0.000000
 10
-122.000018
 20
188.250059
 42
0.000000
 10
-122.000018
 20
179.250059
 42
0.000000
 10
-145.826813
 20
181.350059
 42
0.000000
 10
-146.000018
 20
181.450059
 42
0.000000
 10
-146.162614
 20
180.950059
 42
0.000000
 10
-146.451289
 20
181.450059
 42
0.000000
 10
-147.583939
 20
181.450059
 42
0.000000
 10
-147.972614
 20
180.950059
 42
0.000000
 10
-148.261289
 20
181.450059
 42
0.000000
 10
-149.393939
 20
181.450059
 42
0.000000
 10
-149.782614
 20
180.950059
 42
0.000000
 10
-150.071289
 20
181.450059
 42
0.000000
 10
-151.203939
 20
181.450059
 42
0.000000
 10
-151.592614
 20
180.950059
 42
0.000000
 10
-151.881289
 20
181.450059
 42
0.000000
 10
-153.013939
 20
181.450059
 42
0.000000
 10
-153.402614
 20
180.950059
 42
0.000000
 10
-153.691289
 20
181.450059
 42
0.000000
 10
-154.823939
 20
181.450059
 42
0.000000
 10
-155.212614
 20
180.950059
 42
0.000000
 10
-155.501289
 20
181.450059
 42
0.000000
 10
-156.633939
 20
181.450059
 42
0.000000
 10
-157.022614
 20
180.950059
 42
0.000000
 10
-157.311289
 20
181.450059
 42
0.000000
 10
-158.443939
 20
181.450059
 42
0.000000
 10
-158.832614
 20
180.950059
 42
0.000000
 10
-159.121289
 20
181.450059
 42
0.000000
 10
-160.253939
 20
181.450059
 42
0.000000
 10
-160.642614
 20
180.950059
 42
0.000000
 10
-160.931289
 20
181.450059
 42
0.000000
 10
-162.063939
 20
181.450059
 42
0.000000
 10
-162.452614
 20
180.950059
 42
0.000000
 10
-162.741289
 20
181.450059
 42
0.000000
 10
-163.873939
 20
181.450059
 42
0.000000
 10
-164.262614
 20
180.950059
 42
0.000000
 10
-164.551289
 20
181.450059
 42
0.000000
 10
-165.683939
 20
181.450059
 42
0.000000
 10
-166.072614
 20
180.950059
 42
0.000000
 10
-166.361289
 20
181.450059
 42
0.000000
 10
-167.493939
 20
181.450059
 42
0.000000
 10
-167.882614
 20
180.950059
 42
0.000000
 10
-168.171289
 20
181.450059
 42
0.000000
 10
-169.303939
 20
181.450059
 42
0.000000
 10
-169.692614
 20
180.950059
 42
0.000000
 10
-169.981289
 20
181.450059
 42
0.000000
 10
-171.113939
 20
181.450059
 42
0.000000
 10
-171.502614
 20
180.950059
 42
0.000000
 10
-171.791289
 20
181.450059
 42
0.000000
 10
-172.923939
 20
181.450059
 42
0.000000
 10
-173.312614
 20
180.950059
 42
0.000000
 10
-173.601289
 20
181.450059
 42
0.000000
 10
-174.733939
 20
181.450059
 42
0.000000
 10
-175.122614
 20
180.950059
 42
0.000000
 10
-175.411289
 20
181.450059
 42
0.000000
 10
-176.543939
 20
181.450059
 42
0.000000
 10
-176.932614
 20
180.950059
 42
0.000000
 10
-177.221289
 20
181.450059
 42
0.000000
 10
-178.353939
 20
181.450059
 42
0.000000
 10
-178.742614
 20
180.950059
 42
0.000000
 10
-179.031289
 20
181.450059
 42
0.000000
 10
-180.163939
 20
181.450059
 42
0.000000
 10
-180.552614
 20
180.950059
 42
0.000000
 10
-180.841289
 20
181.450059
 42
0.000000
 10
-181.973939
 20
181.450059
 42
0.000000
 10
-182.362614
 20
180.950059
 42
0.000000
 10
-182.651289
 20
181.450059
 42
0.000000
 10
-183.783939
 20
181.450059
 42
0.000000
 10
-184.172614
 20
180.950059
 42
0.000000
 10
-184.461289
 20
181.450059
 42
0.000000
 10
-185.593939
 20
181.450059
 42
0.000000
 10
-185.982614
 20
180.950059
 42
0.000000
 10
-186.271289
 20
181.450059
 42
0.000000
 10
-187.403939
 20
181.450059
 42
0.000000
 10
-187.792614
 20
180.950059
 42
0.000000
 10
-188.081289
 20
181.450059
 42
0.000000
 10
-189.213939
 20
181.450059
 42
0.000000
 10
-189.602614
 20
180.950059
 42
0.000000
 10
-189.891289
 20
181.450059
 42
0.000000
 10
-191.023939
 20
181.450059
 42
0.000000
 10
-191.412614
 20
180.950059
 42
0.000000
 10
-191.701289
 20
181.450059
 42
0.000000
 10
-192.833939
 20
181.450059
 42
0.000000
 10
-193.222614
 20
180.950059
 42
0.000000
 10
-193.511289
 20
181.450059
 42
0.000000
 10
-194.643939
 20
181.450059
 42
0.000000
 10
-195.032614
 20
180.950059
 42
0.000000
 10
-195.321289
 20
181.450059
 42
0.000000
 10
-196.453939
 20
181.450059
 42
0.000000
 10
-196.842614
 20
180.950059
 42
0.000000
 10
-197.131289
 20
181.450059
 42
0.000000
 10
-198.263939
 20
181.450059
 42
0.000000
 10
-198.652614
 20
180.950059
 42
0.000000
 10
-198.941289
 20
181.450059
 42
0.000000
 10
-200.073939
 20
181.450059
 42
0.000000
 10
-200.462614
 20
180.950059
 42
0.000000
 10
-200.846829
 20
181.615538
 42
0.000000
 10
-201.775689
 20
182.000284
 42
0.000000
 10
-202.164364
 20
181.500284
 42
0.000000
 10
-202.665938
 20
182.369038
 42
0.000000
 10
-203.449302
 20
182.693518
 42
0.000000
 10
-203.837977
 20
182.193518
 42
0.000000
 10
-204.339552
 20
183.062271
 42
0.000000
 10
-206.000018
 20
183.750059
 42
0.000000
  0
ENDBLK
  5
572
100
AcDbEntity
  8
0
100
AcDbBlockEnd
  0
BLOCK
  5
573
100
AcDbEntity
  8
Detail
100
AcDbBlockBegin
  2
B-62
 70
    66
 10
0.000000
 20
0.000000
 30
0.000000
  0
LWPOLYLINE
  5
574
100
AcDbEntity
  8
Detail
  6
CONTINUOUS
 62
     3
100
AcDbPolyline
 90
     5
 10
-67.500018
 20
213.750059
 42
0.000000
 10
-87.500018
 20
213.750059
 42
0.000000
 10
-87.500018
 20
153.750059
 42
0.000000
 10
-67.500018
 20
153.750059
 42
0.000000
 10
-67.500018
 20
213.750059
 42
0.000000
  0
ENDBLK
  5
57A
100
AcDbEntity
  8
0
100
AcDbBlockEnd
  0
BLOCK
  5
57B
100
AcDbEntity
  8
Detail
100
AcDbBlockBegin
  2
B-63
 70
    66
 10
0.000000
 20
0.000000
 30
0.000000
  0
MTEXT
  5
57C
100
AcDbEntity
  8
Detail
 62
     7
100
AcDbMText
 10
-211.093768
 20
-225.937528
 30
0.000000
 40
3.749990
 41
353.428963
 71
     7
 72
     5
  1
Capatect Details sind allgemeine planerische Vorschläge. Sie stellen schematisch die Ausführung dar. Ihnen zugrunde liegen die entsprechenden 
  7
Arial
 50
0.000000
  0
MTEXT
  5
57D
100
AcDbEntity
  8
Detail
 62
     7
100
AcDbMText
 10
-211.093768
 20
-231.562513
 30
0.000000
 40
3.749990
 41
392.764473
 71
     7
 72
     5
  1
Produktdatenblätter sowie Systemzulassungen. Die Möglichkeit der Detailanwendung sowie deren Vollständigkeit sind im speziellen Anwendungsfall vom Planer / 
  7
Arial
 50
0.000000
  0
MTEXT
  5
57E
100
AcDbEntity
  8
Detail
 62
     7
100
AcDbMText
 10
-211.093768
 20
-237.187498
 30
0.000000
 40
3.749990
 41
107.887184
 71
     7
 72
     5
  1
Unternehmer eigenverantwortlich zu prüfen. 
  7
Arial
 50
0.000000
  0
ENDBLK
  5
57F
100
AcDbEntity
  8
0
100
AcDbBlockEnd
  0
BLOCK
  5
580
100
AcDbEntity
  8
Detail
100
AcDbBlockBegin
  2
B-64
 70
    66
 10
0.000000
 20
0.000000
 30
0.000000
  0
LWPOLYLINE
  5
581
100
AcDbEntity
  8
Detail
  6
CONTINUOUS
 62
     6
100
AcDbPolyline
 90
     2
 10
237.500023
 20
-246.249941
 42
0.000000
 10
-237.500018
 20
-246.249941
 42
0.000000
  0
ENDBLK
  5
584
100
AcDbEntity
  8
0
100
AcDbBlockEnd
  0
BLOCK
  5
585
100
AcDbEntity
  8
Detail
100
AcDbBlockBegin
  2
B-65
 70
    66
 10
0.000000
 20
0.000000
 30
0.000000
  0
MTEXT
  5
586
100
AcDbEntity
  8
Detail
 62
     7
100
AcDbMText
 10
-210.625002
 20
-258.281291
 30
0.000000
 40
5.625000
 41
125.744063
 71
     7
 72
     5
  1
System:	Kombinationsfassade
  7
Arial
 50
0.000000
  0
MTEXT
  5
587
100
AcDbEntity
  8
Detail
 62
     7
100
AcDbMText
 10
-210.625002
 20
-266.718791
 30
0.000000
 40
5.625000
 41
158.287500
 71
     7
 72
     5
  1
	WDVS Putz / WDVS Hartbekleidung 
  7
Arial
 50
0.000000
  0
ENDBLK
  5
588
100
AcDbEntity
  8
0
100
AcDbBlockEnd
  0
BLOCK
  5
589
100
AcDbEntity
  8
Detail
100
AcDbBlockBegin
  2
B-66
 70
    66
 10
0.000000
 20
0.000000
 30
0.000000
  0
MTEXT
  5
58A
100
AcDbEntity
  8
Detail
 62
     7
100
AcDbMText
 10
-210.625002
 20
-295.781291
 30
0.000000
 40
5.625000
 41
127.929375
 71
     7
 72
     5
  1
Detail:	Systemübergang  Innenecke
  7
Arial
 50
0.000000
  0
MTEXT
  5
58B
100
AcDbEntity
  8
Detail
 62
     7
100
AcDbMText
 10
-210.625002
 20
-304.218791
 30
0.000000
 40
5.625000
 41
89.775000
 71
     7
 72
     5
  1
	(Horizontalschnitt)
  7
Arial
 50
0.000000
  0
ENDBLK
  5
58C
100
AcDbEntity
  8
0
100
AcDbBlockEnd
  0
BLOCK
  5
58D
100
AcDbEntity
  8
Detail
100
AcDbBlockBegin
  2
B-67
 70
    66
 10
0.000000
 20
0.000000
 30
0.000000
  0
MTEXT
  5
58E
100
AcDbEntity
  8
Detail
 62
     7
100
AcDbMText
 10
6.314834
 20
-252.500041
 30
0.000000
 40
5.000000
 41
93.712500
 71
     1
 72
     5
  1
Plannummer:	310-0414
  7
Arial
 50
0.000000
  0
ENDBLK
  5
58F
100
AcDbEntity
  8
0
100
AcDbBlockEnd
  0
BLOCK
  5
590
100
AcDbEntity
  8
Detail
100
AcDbBlockBegin
  2
B-68
 70
    66
 10
0.000000
 20
0.000000
 30
0.000000
  0
MTEXT
  5
591
100
AcDbEntity
  8
Detail
 62
     7
100
AcDbMText
 10
6.314834
 20
-277.500041
 30
0.000000
 40
5.000000
 41
91.035000
 71
     1
 72
     5
  1
Massstab:		ca. 1:2,5
  7
Arial
 50
0.000000
  0
ENDBLK
  5
592
100
AcDbEntity
  8
0
100
AcDbBlockEnd
  0
BLOCK
  5
593
100
AcDbEntity
  8
Detail
100
AcDbBlockBegin
  2
B-69
 70
    66
 10
0.000000
 20
0.000000
 30
0.000000
  0
MTEXT
  5
594
100
AcDbEntity
  8
Detail
 62
     7
100
AcDbMText
 10
6.314834
 20
-302.500041
 30
0.000000
 40
5.000000
 41
99.435000
 71
     1
 72
     5
  1
Aktualisierung:	14.07.2016
  7
Arial
 50
0.000000
  0
ENDBLK
  5
595
100
AcDbEntity
  8
0
100
AcDbBlockEnd
  0
BLOCK
  5
596
100
AcDbEntity
  8
Detail
100
AcDbBlockBegin
  2
B-70
 70
    66
 10
0.000000
 20
0.000000
 30
0.000000
  0
LWPOLYLINE
  5
597
100
AcDbEntity
  8
Detail
  6
CONTINUOUS
 62
     6
100
AcDbPolyline
 90
     2
 10
-20.560166
 20
-321.249941
 42
0.000000
 10
-20.560166
 20
-246.249941
 42
0.000000
  0
LWPOLYLINE
  5
59A
100
AcDbEntity
  8
Detail
  6
CONTINUOUS
 62
     6
100
AcDbPolyline
 90
     2
 10
-237.500018
 20
-321.249941
 42
0.000000
 10
120.969928
 20
-321.249941
 42
0.000000
  0
LWPOLYLINE
  5
59D
100
AcDbEntity
  8
Detail
  6
CONTINUOUS
 62
     6
100
AcDbPolyline
 90
     2
 10
-20.560166
 20
-271.249941
 42
0.000000
 10
120.969928
 20
-271.249941
 42
0.000000
  0
LWPOLYLINE
  5
5A0
100
AcDbEntity
  8
Detail
  6
CONTINUOUS
 62
     6
100
AcDbPolyline
 90
     2
 10
-20.560166
 20
-296.249941
 42
0.000000
 10
120.969928
 20
-296.249941
 42
0.000000
  0
ENDBLK
  5
5A3
100
AcDbEntity
  8
0
100
AcDbBlockEnd
  0
BLOCK
  5
5A4
100
AcDbEntity
  8
Detail
100
AcDbBlockBegin
  2
B-71
 70
    66
 10
0.000000
 20
0.000000
 30
0.000000
  0
MTEXT
  5
5A5
100
AcDbEntity
  8
Detail
 62
     7
100
AcDbMText
 10
-210.625009
 20
-332.500016
 30
0.000000
 40
4.999980
 41
58.117268
 71
     7
 72
     5
  1
DAW Schweiz AG
  7
Arial
 50
0.000000
  0
MTEXT
  5
5A6
100
AcDbEntity
  8
Detail
 62
     7
100
AcDbMText
 10
-210.625009
 20
-339.999986
 30
0.000000
 40
4.999980
 41
108.149567
 71
     7
 72
     5
  1
Gewerbestrasse 6, 8606 Nänikon
  7
Arial
 50
0.000000
  0
ENDBLK
  5
5A7
100
AcDbEntity
  8
0
100
AcDbBlockEnd
  0
BLOCK
  5
5A8
100
AcDbEntity
  8
Detail
100
AcDbBlockBegin
  2
B-72
 70
    66
 10
0.000000
 20
0.000000
 30
0.000000
  0
LWPOLYLINE
  5
5A9
100
AcDbEntity
  8
Detail
  6
CONTINUOUS
 62
     6
100
AcDbPolyline
 90
     2
 10
-20.560166
 20
-283.749941
 42
0.000000
 10
-237.500018
 20
-283.749941
 42
0.000000
  0
ENDBLK
  5
5AC
100
AcDbEntity
  8
0
100
AcDbBlockEnd
  0
BLOCK
  5
5AD
100
AcDbEntity
  8
Detail
100
AcDbBlockBegin
  2
B-73
 70
    66
 10
0.000000
 20
0.000000
 30
0.000000
  0
MTEXT
  5
5AE
100
AcDbEntity
  8
Detail
 62
     7
100
AcDbMText
 10
-85.625025
 20
-332.500016
 30
0.000000
 40
4.999980
 41
72.134711
 71
     7
 72
     5
  1
Telefon 043 399 42 22
  7
Arial
 50
0.000000
  0
MTEXT
  5
5AF
100
AcDbEntity
  8
Detail
 62
     7
100
AcDbMText
 10
-85.625025
 20
-339.999986
 30
0.000000
 40
4.999980
 41
71.767213
 71
     7
 72
     5
  1
Telefax 043 399 42 23
  7
Arial
 50
0.000000
  0
ENDBLK
  5
5B0
100
AcDbEntity
  8
0
100
AcDbBlockEnd
  0
BLOCK
  5
5B1
100
AcDbEntity
  8
Detail
100
AcDbBlockBegin
  2
B-74
 70
    66
 10
0.000000
 20
0.000000
 30
0.000000
  0
MTEXT
  5
5B2
100
AcDbEntity
  8
Detail
 62
     7
100
AcDbMText
 10
39.374975
 20
-332.500019
 30
0.000000
 40
4.999982
 41
51.922313
 71
     7
 72
     5
  1
info@daw.swiss
  7
Arial
 50
0.000000
  0
MTEXT
  5
5B3
100
AcDbEntity
  8
Detail
 62
     7
100
AcDbMText
 10
39.374975
 20
-339.999993
 30
0.000000
 40
4.999982
 41
54.599803
 71
     7
 72
     5
  1
www.capatect.ch
  7
Arial
 50
0.000000
  0
ENDBLK
  5
5B4
100
AcDbEntity
  8
0
100
AcDbBlockEnd
  0
BLOCK
  5
5B5
100
AcDbEntity
  8
Detail
100
AcDbBlockBegin
  2
B-75
 70
    66
 10
0.000000
 20
0.000000
 30
0.000000
  0
LWPOLYLINE
  5
5B6
100
AcDbEntity
  8
Detail
  6
CONTINUOUS
 62
     6
100
AcDbPolyline
 90
     2
 10
120.969928
 20
-346.249941
 42
0.000000
 10
120.969928
 20
-246.249941
 42
0.000000
  0
ENDBLK
  5
5B9
100
AcDbEntity
  8
0
100
AcDbBlockEnd
  0
BLOCK
  5
5BA
100
AcDbEntity
  8
Detail
100
AcDbBlockBegin
  2
B-76
 70
    66
 10
0.000000
 20
0.000000
 30
0.000000
  0
LWPOLYLINE
  5
5BB
100
AcDbEntity
  8
Detail
  6
CONTINUOUS
 62
     6
100
AcDbPolyline
 90
     5
 10
-237.500018
 20
-346.249941
 42
0.000000
 10
237.500023
 20
-346.249941
 42
0.000000
 10
237.500023
 20
346.250078
 42
0.000000
 10
-237.500018
 20
346.250078
 42
0.000000
 10
-237.500018
 20
-346.249941
 42
0.000000
  0
ENDBLK
  5
5C1
100
AcDbEntity
  8
0
100
AcDbBlockEnd
  0
BLOCK
  5
5C2
100
AcDbEntity
  8
Detail
100
AcDbBlockBegin
  2
B-77
 70
    66
 10
0.000000
 20
0.000000
 30
0.000000
  0
LWPOLYLINE
  5
5C3
100
AcDbEntity
  8
Detail
  6
CONTINUOUS
 62
     9
100
AcDbPolyline
 90
     2
 10
95.550335
 20
-74.749941
 42
0.000000
 10
109.529748
 20
-74.749941
 42
0.000000
  0
LWPOLYLINE
  5
5C6
100
AcDbEntity
  8
Detail
  6
CONTINUOUS
 62
     9
100
AcDbPolyline
 90
    83
 10
132.550335
 20
-46.249941
 42
0.000000
 10
132.550335
 20
-45.749941
 42
0.000000
 10
127.550335
 20
-44.749941
 42
0.000000
 10
77.550335
 20
-44.749941
 42
0.000000
 10
72.550335
 20
-45.749941
 42
0.000000
 10
72.550335
 20
-46.249941
 42
0.000000
 10
89.550335
 20
-46.249941
 42
0.000000
 10
93.300335
 20
-47.499941
 42
0.000000
 10
94.550335
 20
-51.249941
 42
0.000000
 10
95.550335
 20
-74.749941
 42
0.000000
 10
98.050335
 20
-80.749941
 42
0.000000
 10
98.590335
 20
-143.212138
 42
0.000000
 10
98.837345
 20
-144.578081
 42
0.000000
 10
98.590335
 20
-144.653834
 42
0.000000
 10
98.590335
 20
-147.436138
 42
0.000000
 10
98.837345
 20
-148.802081
 42
0.000000
 10
98.590335
 20
-148.877834
 42
0.000000
 10
98.590335
 20
-151.660138
 42
0.000000
 10
98.837345
 20
-153.026081
 42
0.000000
 10
98.595135
 20
-153.101750
 42
0.000000
 10
98.590335
 20
-155.884138
 42
0.000000
 10
98.837345
 20
-157.250081
 42
0.000000
 10
98.590335
 20
-157.325834
 42
0.000000
 10
98.590335
 20
-160.108138
 42
0.000000
 10
98.837345
 20
-161.474081
 42
0.000000
 10
98.590335
 20
-161.549834
 42
0.000000
 10
98.590335
 20
-164.332138
 42
0.000000
 10
98.837345
 20
-165.698081
 42
0.000000
 10
98.590335
 20
-165.773834
 42
0.000000
 10
98.590335
 20
-168.556138
 42
0.000000
 10
98.837345
 20
-169.922081
 42
0.000000
 10
98.590335
 20
-169.997834
 42
0.000000
 10
98.590335
 20
-172.780138
 42
0.000000
 10
98.837345
 20
-174.146081
 42
0.000000
 10
98.590335
 20
-174.221834
 42
0.000000
 10
98.590335
 20
-177.004138
 42
0.000000
 10
98.872768
 20
-178.208294
 42
0.000000
 10
98.710336
 20
-178.667277
 42
0.000000
 10
99.144592
 20
-179.644138
 42
0.000000
 10
99.670335
 20
-179.884138
 42
0.000000
 10
99.670335
 20
-180.652138
 42
0.000000
 10
100.211303
 20
-182.170031
 42
0.000000
 10
101.590335
 20
-183.003648
 42
0.000000
 10
102.550335
 20
-184.749941
 42
0.000000
 10
103.510335
 20
-183.003648
 42
0.000000
 10
104.889367
 20
-182.170031
 42
0.000000
 10
105.416729
 20
-180.907337
 42
0.000000
 10
105.430335
 20
-179.884138
 42
0.000000
 10
105.956079
 20
-179.644138
 42
0.000000
 10
106.390335
 20
-178.891982
 42
0.000000
 10
106.390335
 20
-178.442569
 42
0.000000
 10
106.227903
 20
-178.208294
 42
0.000000
 10
106.510335
 20
-177.004138
 42
0.000000
 10
106.510335
 20
-174.221834
 42
0.000000
 10
106.263326
 20
-174.146081
 42
0.000000
 10
106.510335
 20
-172.780138
 42
0.000000
 10
106.510335
 20
-169.997834
 42
0.000000
 10
106.263326
 20
-169.922081
 42
0.000000
 10
106.510335
 20
-168.556138
 42
0.000000
 10
106.510335
 20
-165.773834
 42
0.000000
 10
106.263326
 20
-165.698081
 42
0.000000
 10
106.510335
 20
-164.332138
 42
0.000000
 10
106.510335
 20
-161.549834
 42
0.000000
 10
106.263326
 20
-161.474081
 42
0.000000
 10
106.510335
 20
-160.108138
 42
0.000000
 10
106.510335
 20
-157.325834
 42
0.000000
 10
106.263326
 20
-157.250081
 42
0.000000
 10
106.510335
 20
-155.884138
 42
0.000000
 10
106.505535
 20
-153.101750
 42
0.000000
 10
106.263326
 20
-153.026081
 42
0.000000
 10
106.510335
 20
-151.660138
 42
0.000000
 10
106.510335
 20
-148.877834
 42
0.000000
 10
106.263326
 20
-148.802081
 42
0.000000
 10
106.510335
 20
-147.436138
 42
0.000000
 10
106.510335
 20
-144.653834
 42
0.000000
 10
106.263326
 20
-144.578081
 42
0.000000
 10
106.510335
 20
-143.212138
 42
0.000000
 10
107.050335
 20
-80.749941
 42
0.000000
 10
109.550335
 20
-74.749941
 42
0.000000
 10
110.550335
 20
-51.249941
 42
0.000000
 10
111.800335
 20
-47.499941
 42
0.000000
 10
115.550335
 20
-46.249941
 42
0.000000
 10
132.550335
 20
-46.249941
 42
0.000000
  0
LWPOLYLINE
  5
61A
100
AcDbEntity
  8
Detail
  6
CONTINUOUS
 62
     9
100
AcDbPolyline
 90
   203
 10
102.550335
 20
-184.749941
 42
0.000000
 10
101.675070
 20
-182.636865
 42
0.000000
 10
100.806317
 20
-182.135290
 42
0.000000
 10
101.306317
 20
-181.746615
 42
0.000000
 10
100.858826
 20
-180.666278
 42
0.000000
 10
99.990073
 20
-180.164703
 42
0.000000
 10
100.490073
 20
-179.776028
 42
0.000000
 10
100.250335
 20
-179.197251
 42
0.000000
 10
100.250335
 20
-178.596212
 42
0.000000
 10
99.750335
 20
-178.307537
 42
0.000000
 10
100.250335
 20
-177.918862
 42
0.000000
 10
100.250335
 20
-176.786212
 42
0.000000
 10
99.750335
 20
-176.497537
 42
0.000000
 10
100.250335
 20
-176.108862
 42
0.000000
 10
100.250335
 20
-174.976212
 42
0.000000
 10
99.750335
 20
-174.687537
 42
0.000000
 10
100.250335
 20
-174.298862
 42
0.000000
 10
100.250335
 20
-173.166212
 42
0.000000
 10
99.750335
 20
-172.877537
 42
0.000000
 10
100.250335
 20
-172.488862
 42
0.000000
 10
100.250335
 20
-171.356212
 42
0.000000
 10
99.750335
 20
-171.067537
 42
0.000000
 10
100.250335
 20
-170.678862
 42
0.000000
 10
100.250335
 20
-169.546212
 42
0.000000
 10
99.750335
 20
-169.257537
 42
0.000000
 10
100.250335
 20
-168.868862
 42
0.000000
 10
100.250335
 20
-167.736212
 42
0.000000
 10
99.750335
 20
-167.447537
 42
0.000000
 10
100.250335
 20
-167.058862
 42
0.000000
 10
100.250335
 20
-165.926212
 42
0.000000
 10
99.750335
 20
-165.637537
 42
0.000000
 10
100.250335
 20
-165.248862
 42
0.000000
 10
100.250335
 20
-164.116212
 42
0.000000
 10
99.750335
 20
-163.827537
 42
0.000000
 10
100.250335
 20
-163.438862
 42
0.000000
 10
100.250335
 20
-162.306212
 42
0.000000
 10
99.750335
 20
-162.017537
 42
0.000000
 10
100.250335
 20
-161.628862
 42
0.000000
 10
100.250335
 20
-160.496212
 42
0.000000
 10
99.750335
 20
-160.207537
 42
0.000000
 10
100.250335
 20
-159.818862
 42
0.000000
 10
100.250335
 20
-158.686212
 42
0.000000
 10
99.750335
 20
-158.397537
 42
0.000000
 10
100.250335
 20
-158.008862
 42
0.000000
 10
100.250335
 20
-156.876212
 42
0.000000
 10
99.750335
 20
-156.587537
 42
0.000000
 10
100.250335
 20
-156.198862
 42
0.000000
 10
100.250335
 20
-155.066212
 42
0.000000
 10
99.750335
 20
-154.777537
 42
0.000000
 10
100.250335
 20
-154.388862
 42
0.000000
 10
100.250335
 20
-153.256212
 42
0.000000
 10
99.750335
 20
-152.967537
 42
0.000000
 10
100.250335
 20
-152.578862
 42
0.000000
 10
100.250335
 20
-151.446212
 42
0.000000
 10
99.750335
 20
-151.157537
 42
0.000000
 10
100.250335
 20
-150.768862
 42
0.000000
 10
100.250335
 20
-149.636212
 42
0.000000
 10
99.750335
 20
-149.347537
 42
0.000000
 10
100.250335
 20
-148.936348
 42
0.000000
 10
100.250335
 20
-147.826212
 42
0.000000
 10
99.750335
 20
-147.537537
 42
0.000000
 10
100.250335
 20
-147.148862
 42
0.000000
 10
100.250335
 20
-146.016212
 42
0.000000
 10
99.750335
 20
-145.727537
 42
0.000000
 10
100.250335
 20
-145.338862
 42
0.000000
 10
100.250335
 20
-144.206212
 42
0.000000
 10
99.750335
 20
-143.917537
 42
0.000000
 10
100.250335
 20
-143.528862
 42
0.000000
 10
100.250335
 20
-142.396212
 42
0.000000
 10
99.750335
 20
-142.107537
 42
0.000000
 10
100.250335
 20
-141.718862
 42
0.000000
 10
100.250335
 20
-140.586212
 42
0.000000
 10
99.750335
 20
-140.297537
 42
0.000000
 10
100.250335
 20
-139.908862
 42
0.000000
 10
100.250335
 20
-138.776212
 42
0.000000
 10
99.750335
 20
-138.487537
 42
0.000000
 10
100.250335
 20
-138.098862
 42
0.000000
 10
100.250335
 20
-136.966212
 42
0.000000
 10
99.750335
 20
-136.677537
 42
0.000000
 10
100.250335
 20
-136.288862
 42
0.000000
 10
100.250335
 20
-135.156212
 42
0.000000
 10
99.750335
 20
-134.867537
 42
0.000000
 10
100.250335
 20
-134.478862
 42
0.000000
 10
100.250335
 20
-133.346212
 42
0.000000
 10
99.750335
 20
-133.057537
 42
0.000000
 10
100.250335
 20
-132.668862
 42
0.000000
 10
100.250335
 20
-131.536212
 42
0.000000
 10
99.750335
 20
-131.247537
 42
0.000000
 10
100.250335
 20
-130.858862
 42
0.000000
 10
100.250335
 20
-129.726212
 42
0.000000
 10
99.750335
 20
-129.437537
 42
0.000000
 10
100.250335
 20
-129.048862
 42
0.000000
 10
100.250335
 20
-127.916212
 42
0.000000
 10
99.750335
 20
-127.627537
 42
0.000000
 10
100.250335
 20
-127.238862
 42
0.000000
 10
100.250335
 20
-126.106212
 42
0.000000
 10
99.750335
 20
-125.817537
 42
0.000000
 10
100.250335
 20
-125.428862
 42
0.000000
 10
100.250335
 20
-124.749941
 42
0.000000
 10
100.150335
 20
-124.576736
 42
0.000000
 10
98.050335
 20
-80.749941
 42
0.000000
 10
107.050335
 20
-80.749941
 42
0.000000
 10
104.950335
 20
-124.576736
 42
0.000000
 10
104.850335
 20
-124.749941
 42
0.000000
 10
105.350335
 20
-124.912537
 42
0.000000
 10
104.850335
 20
-125.201212
 42
0.000000
 10
104.850335
 20
-126.333862
 42
0.000000
 10
105.350335
 20
-126.722537
 42
0.000000
 10
104.850335
 20
-127.011212
 42
0.000000
 10
104.850335
 20
-128.143862
 42
0.000000
 10
105.350335
 20
-128.532537
 42
0.000000
 10
104.850335
 20
-128.821212
 42
0.000000
 10
104.850335
 20
-129.953862
 42
0.000000
 10
105.350335
 20
-130.342537
 42
0.000000
 10
104.850335
 20
-130.631212
 42
0.000000
 10
104.850335
 20
-131.763862
 42
0.000000
 10
105.350335
 20
-132.152537
 42
0.000000
 10
104.850335
 20
-132.441212
 42
0.000000
 10
104.850335
 20
-133.573862
 42
0.000000
 10
105.350335
 20
-133.962537
 42
0.000000
 10
104.850335
 20
-134.251212
 42
0.000000
 10
104.850335
 20
-135.383862
 42
0.000000
 10
105.350335
 20
-135.772537
 42
0.000000
 10
104.850335
 20
-136.061212
 42
0.000000
 10
104.850335
 20
-137.193862
 42
0.000000
 10
105.350335
 20
-137.582537
 42
0.000000
 10
104.850335
 20
-137.871212
 42
0.000000
 10
104.850335
 20
-139.003862
 42
0.000000
 10
105.350335
 20
-139.392537
 42
0.000000
 10
104.850335
 20
-139.681212
 42
0.000000
 10
104.850335
 20
-140.813862
 42
0.000000
 10
105.350335
 20
-141.202537
 42
0.000000
 10
104.850335
 20
-141.491212
 42
0.000000
 10
104.850335
 20
-142.623862
 42
0.000000
 10
105.350335
 20
-143.012537
 42
0.000000
 10
104.850335
 20
-143.301212
 42
0.000000
 10
104.850335
 20
-144.433862
 42
0.000000
 10
105.350335
 20
-144.822537
 42
0.000000
 10
104.850335
 20
-145.111212
 42
0.000000
 10
104.850335
 20
-146.243862
 42
0.000000
 10
105.350335
 20
-146.632537
 42
0.000000
 10
104.850335
 20
-146.921212
 42
0.000000
 10
104.850335
 20
-148.053862
 42
0.000000
 10
105.350335
 20
-148.442537
 42
0.000000
 10
104.850335
 20
-148.731212
 42
0.000000
 10
104.850335
 20
-149.863862
 42
0.000000
 10
105.350335
 20
-150.252537
 42
0.000000
 10
104.850335
 20
-150.541212
 42
0.000000
 10
104.850335
 20
-151.673862
 42
0.000000
 10
105.350335
 20
-152.062537
 42
0.000000
 10
104.850335
 20
-152.351212
 42
0.000000
 10
104.850335
 20
-153.483862
 42
0.000000
 10
105.350335
 20
-153.872537
 42
0.000000
 10
104.850335
 20
-154.161212
 42
0.000000
 10
104.850335
 20
-155.293862
 42
0.000000
 10
105.350335
 20
-155.682537
 42
0.000000
 10
104.850335
 20
-155.971212
 42
0.000000
 10
104.850335
 20
-157.103862
 42
0.000000
 10
105.350335
 20
-157.492537
 42
0.000000
 10
104.850335
 20
-157.781212
 42
0.000000
 10
104.850335
 20
-158.913862
 42
0.000000
 10
105.350335
 20
-159.302537
 42
0.000000
 10
104.850335
 20
-159.591212
 42
0.000000
 10
104.850335
 20
-160.723862
 42
0.000000
 10
105.350335
 20
-161.112537
 42
0.000000
 10
104.850335
 20
-161.401212
 42
0.000000
 10
104.850335
 20
-162.533862
 42
0.000000
 10
105.350335
 20
-162.922537
 42
0.000000
 10
104.850335
 20
-163.211212
 42
0.000000
 10
104.850335
 20
-164.343862
 42
0.000000
 10
105.350335
 20
-164.732537
 42
0.000000
 10
104.850335
 20
-165.021212
 42
0.000000
 10
104.850335
 20
-166.153862
 42
0.000000
 10
105.350335
 20
-166.542537
 42
0.000000
 10
104.850335
 20
-166.831212
 42
0.000000
 10
104.850335
 20
-167.963862
 42
0.000000
 10
105.350335
 20
-168.352537
 42
0.000000
 10
104.850335
 20
-168.641212
 42
0.000000
 10
104.850335
 20
-169.773862
 42
0.000000
 10
105.350335
 20
-170.162537
 42
0.000000
 10
104.850335
 20
-170.451212
 42
0.000000
 10
104.850335
 20
-171.583862
 42
0.000000
 10
105.350335
 20
-171.972537
 42
0.000000
 10
104.850335
 20
-172.261212
 42
0.000000
 10
104.850335
 20
-173.393862
 42
0.000000
 10
105.350335
 20
-173.782537
 42
0.000000
 10
104.850335
 20
-174.071212
 42
0.000000
 10
104.850335
 20
-175.203862
 42
0.000000
 10
105.350335
 20
-175.592537
 42
0.000000
 10
104.850335
 20
-175.881212
 42
0.000000
 10
104.850335
 20
-177.013862
 42
0.000000
 10
105.350335
 20
-177.402537
 42
0.000000
 10
104.850335
 20
-177.691212
 42
0.000000
 10
104.850335
 20
-178.823862
 42
0.000000
 10
105.350335
 20
-179.212537
 42
0.000000
 10
104.684856
 20
-179.596752
 42
0.000000
 10
104.300110
 20
-180.525612
 42
0.000000
 10
104.800110
 20
-180.914287
 42
0.000000
 10
103.931356
 20
-181.415861
 42
0.000000
 10
103.606876
 20
-182.199225
 42
0.000000
 10
104.106876
 20
-182.587900
 42
0.000000
 10
103.238123
 20
-183.089475
 42
0.000000
 10
102.550335
 20
-184.749941
 42
0.000000
  0
ENDBLK
  5
6E6
100
AcDbEntity
  8
0
100
AcDbBlockEnd
  0
BLOCK
  5
6E7
100
AcDbEntity
  8
L
100
AcDbBlockBegin
  2
B-79
 70
    66
 10
0.000000
 20
0.000000
 30
0.000000
  0
LWPOLYLINE
  5
6E8
100
AcDbEntity
  8
L
  6
CONTINUOUS
 62
     3
100
AcDbPolyline
 90
     4
 10
212.500023
 20
-131.249941
 42
0.000000
 10
-147.500018
 20
-131.249941
 42
0.000000
 10
-147.500018
 20
-51.249941
 42
0.000000
 10
212.500023
 20
-51.249941
 42
0.000000
  0
LWPOLYLINE
  5
6ED
100
AcDbEntity
  8
L
  6
CONTINUOUS
 62
     3
100
AcDbPolyline
 90
     8
 10
-67.500018
 20
296.250078
 42
0.000000
 10
-67.500018
 20
213.750059
 42
0.000000
 10
-87.500018
 20
213.750059
 42
0.000000
 10
-87.500018
 20
153.750059
 42
0.000000
 10
-67.500018
 20
153.750059
 42
0.000000
 10
-67.500018
 20
-49.249941
 42
0.000000
 10
-147.500018
 20
-49.249941
 42
0.000000
 10
-147.500018
 20
296.250078
 42
0.000000
  0
ENDBLK
  5
6F6
100
AcDbEntity
  8
0
100
AcDbBlockEnd
  0
BLOCK
  5
6F7
100
AcDbEntity
  8
Detail
100
AcDbBlockBegin
  2
B-80
 70
    66
 10
0.000000
 20
0.000000
 30
0.000000
  0
LWPOLYLINE
  5
6F8
100
AcDbEntity
  8
Detail
  6
CONTINUOUS
 62
     7
100
AcDbPolyline
 90
     3
 10
77.500023
 20
133.750059
 42
0.000000
 10
-56.500018
 20
133.750059
 42
0.000000
 10
-56.500018
 20
-44.249941
 42
0.000000
  0
ENDBLK
  5
6FC
100
AcDbEntity
  8
0
100
AcDbBlockEnd
  0
BLOCK
  5
6FD
100
AcDbEntity
  8
Detail
100
AcDbBlockBegin
  2
B-81
 70
    66
 10
0.000000
 20
0.000000
 30
0.000000
  0
LWPOLYLINE
  5
6FE
100
AcDbEntity
  8
Detail
  6
CONTINUOUS
 62
     4
100
AcDbPolyline
 90
     2
 10
148.499982
 20
-31.249941
 42
0.400000
 10
158.499982
 20
-31.249941
 42
0.000000
  0
ENDBLK
  5
701
100
AcDbEntity
  8
0
100
AcDbBlockEnd
  0
BLOCK
  5
702
100
AcDbEntity
  8
Detail
100
AcDbBlockBegin
  2
B-82
 70
    66
 10
0.000000
 20
0.000000
 30
0.000000
  0
LWPOLYLINE
  5
703
100
AcDbEntity
  8
Detail
  6
CONTINUOUS
 62
     7
100
AcDbPolyline
 90
     2
 10
77.500023
 20
183.750060
 42
0.000000
 10
-86.000018
 20
183.750058
 42
0.000000
  0
ENDBLK
  5
706
100
AcDbEntity
  8
0
100
AcDbBlockEnd
  0
BLOCK
  5
707
100
AcDbEntity
  8
Detail
100
AcDbBlockBegin
  2
B-83
 70
    66
 10
0.000000
 20
0.000000
 30
0.000000
  0
LWPOLYLINE
  5
708
100
AcDbEntity
  8
Detail
  6
CONTINUOUS
 62
     7
100
AcDbPolyline
 90
     4
 10
77.500023
 20
-16.249941
 42
0.000000
 10
63.499982
 20
-16.249943
 42
0.000000
 10
63.499982
 20
-36.249941
 42
0.000000
 10
153.499982
 20
-36.249941
 42
0.000000
  0
ENDBLK
  5
70D
100
AcDbEntity
  8
0
100
AcDbBlockEnd
  0
BLOCK
  5
70E
100
AcDbEntity
  8
Detail
100
AcDbBlockBegin
  2
B-84
 70
    66
 10
0.000000
 20
0.000000
 30
0.000000
  0
LWPOLYLINE
  5
70F
100
AcDbEntity
  8
Detail
  6
CONTINUOUS
 62
     7
100
AcDbPolyline
 90
     2
 10
77.500023
 20
208.750060
 42
0.000000
 10
-62.500018
 20
208.750059
 42
0.000000
  0
LWPOLYLINE
  5
712
100
AcDbEntity
  8
Detail
  6
CONTINUOUS
 62
     7
100
AcDbPolyline
 90
     2
 10
77.500023
 20
233.750060
 42
0.000000
 10
-65.500018
 20
233.750059
 42
0.000000
  0
ENDBLK
  5
715
100
AcDbEntity
  8
0
100
AcDbBlockEnd
  0
BLOCK
  5
716
100
AcDbEntity
  8
Detail
100
AcDbBlockBegin
  2
B-85
 70
    66
 10
0.000000
 20
0.000000
 30
0.000000
  0
LWPOLYLINE
  5
717
100
AcDbEntity
  8
Detail
  6
CONTINUOUS
 62
     7
100
AcDbPolyline
 90
     2
 10
77.500023
 20
258.750060
 42
0.000000
 10
-107.500018
 20
258.750058
 42
0.000000
  0
ENDBLK
  5
71A
100
AcDbEntity
  8
0
100
AcDbBlockEnd
  0
BLOCK
  5
71B
100
AcDbEntity
  8
Detail
100
AcDbBlockBegin
  2
B-86
 70
    66
 10
0.000000
 20
0.000000
 30
0.000000
  0
LWPOLYLINE
  5
71C
100
AcDbEntity
  8
Detail
  6
CONTINUOUS
 62
     7
100
AcDbPolyline
 90
     2
 10
77.500023
 20
283.750060
 42
0.000000
 10
-150.000018
 20
283.750058
 42
0.000000
  0
ENDBLK
  5
71F
100
AcDbEntity
  8
0
100
AcDbBlockEnd
  0
BLOCK
  5
720
100
AcDbEntity
  8
Detail
100
AcDbBlockBegin
  2
B-87
 70
    66
 10
0.000000
 20
0.000000
 30
0.000000
  0
LWPOLYLINE
  5
721
100
AcDbEntity
  8
Detail
  6
CONTINUOUS
 62
     4
100
AcDbPolyline
 90
     2
 10
-51.500018
 20
-31.249941
 42
-0.400000
 10
-61.500018
 20
-31.249941
 42
0.000000
  0
ENDBLK
  5
724
100
AcDbEntity
  8
0
100
AcDbBlockEnd
  0
ENDSEC
  0
SECTION
  2
ENTITIES
  0
INSERT
  5
725
100
AcDbEntity
  8
0
100
AcDbBlockReference
  2
B
 10
0.000000
 20
0.000000
 30
0.000000
 41
1.000000
 42
1.000000
 43
1.000000
 50
0.000000
  0
INSERT
  5
726
100
AcDbEntity
  8
0
100
AcDbBlockReference
  2
B-2
 10
0.000000
 20
0.000000
 30
0.000000
 41
1.000000
 42
1.000000
 43
1.000000
 50
0.000000
  0
INSERT
  5
727
100
AcDbEntity
  8
0
100
AcDbBlockReference
  2
B-3
 10
0.000000
 20
0.000000
 30
0.000000
 41
1.000000
 42
1.000000
 43
1.000000
 50
0.000000
  0
INSERT
  5
728
100
AcDbEntity
  8
0
100
AcDbBlockReference
  2
B-4
 10
0.000000
 20
0.000000
 30
0.000000
 41
1.000000
 42
1.000000
 43
1.000000
 50
0.000000
  0
INSERT
  5
729
100
AcDbEntity
  8
0
100
AcDbBlockReference
  2
B-5
 10
0.000000
 20
0.000000
 30
0.000000
 41
1.000000
 42
1.000000
 43
1.000000
 50
0.000000
  0
INSERT
  5
72A
100
AcDbEntity
  8
0
100
AcDbBlockReference
  2
B-6
 10
0.000000
 20
0.000000
 30
0.000000
 41
1.000000
 42
1.000000
 43
1.000000
 50
0.000000
  0
INSERT
  5
72B
100
AcDbEntity
  8
0
100
AcDbBlockReference
  2
B-7
 10
0.000000
 20
0.000000
 30
0.000000
 41
1.000000
 42
1.000000
 43
1.000000
 50
0.000000
  0
INSERT
  5
72C
100
AcDbEntity
  8
0
100
AcDbBlockReference
  2
B-8
 10
0.000000
 20
0.000000
 30
0.000000
 41
1.000000
 42
1.000000
 43
1.000000
 50
0.000000
  0
INSERT
  5
72D
100
AcDbEntity
  8
0
100
AcDbBlockReference
  2
B-9
 10
0.000000
 20
0.000000
 30
0.000000
 41
1.000000
 42
1.000000
 43
1.000000
 50
0.000000
  0
INSERT
  5
72E
100
AcDbEntity
  8
0
100
AcDbBlockReference
  2
B-10
 10
0.000000
 20
0.000000
 30
0.000000
 41
1.000000
 42
1.000000
 43
1.000000
 50
0.000000
  0
INSERT
  5
72F
100
AcDbEntity
  8
0
100
AcDbBlockReference
  2
B-11
 10
0.000000
 20
0.000000
 30
0.000000
 41
1.000000
 42
1.000000
 43
1.000000
 50
0.000000
  0
INSERT
  5
730
100
AcDbEntity
  8
0
100
AcDbBlockReference
  2
B-12
 10
0.000000
 20
0.000000
 30
0.000000
 41
1.000000
 42
1.000000
 43
1.000000
 50
0.000000
  0
INSERT
  5
731
100
AcDbEntity
  8
0
100
AcDbBlockReference
  2
B-13
 10
0.000000
 20
0.000000
 30
0.000000
 41
1.000000
 42
1.000000
 43
1.000000
 50
0.000000
  0
INSERT
  5
732
100
AcDbEntity
  8
0
100
AcDbBlockReference
  2
B-14
 10
0.000000
 20
0.000000
 30
0.000000
 41
1.000000
 42
1.000000
 43
1.000000
 50
0.000000
  0
INSERT
  5
733
100
AcDbEntity
  8
Detail
100
AcDbBlockReference
  2
B-15
 10
0.000000
 20
0.000000
 30
0.000000
 41
1.000000
 42
1.000000
 43
1.000000
 50
0.000000
  0
INSERT
  5
734
100
AcDbEntity
  8
Detail
100
AcDbBlockReference
  2
B-16
 10
0.000000
 20
0.000000
 30
0.000000
 41
1.000000
 42
1.000000
 43
1.000000
 50
0.000000
  0
INSERT
  5
735
100
AcDbEntity
  8
Detail
100
AcDbBlockReference
  2
B-17
 10
0.000000
 20
0.000000
 30
0.000000
 41
1.000000
 42
1.000000
 43
1.000000
 50
0.000000
  0
INSERT
  5
736
100
AcDbEntity
  8
0
100
AcDbBlockReference
  2
B-18
 10
0.000000
 20
0.000000
 30
0.000000
 41
1.000000
 42
1.000000
 43
1.000000
 50
0.000000
  0
INSERT
  5
737
100
AcDbEntity
  8
Detail
100
AcDbBlockReference
  2
B-19
 10
0.000000
 20
0.000000
 30
0.000000
 41
1.000000
 42
1.000000
 43
1.000000
 50
0.000000
  0
INSERT
  5
738
100
AcDbEntity
  8
Detail
100
AcDbBlockReference
  2
B-20
 10
0.000000
 20
0.000000
 30
0.000000
 41
1.000000
 42
1.000000
 43
1.000000
 50
0.000000
  0
INSERT
  5
739
100
AcDbEntity
  8
Detail
100
AcDbBlockReference
  2
B-21
 10
0.000000
 20
0.000000
 30
0.000000
 41
1.000000
 42
1.000000
 43
1.000000
 50
0.000000
  0
INSERT
  5
73A
100
AcDbEntity
  8
Detail
100
AcDbBlockReference
  2
B-22
 10
0.000000
 20
0.000000
 30
0.000000
 41
1.000000
 42
1.000000
 43
1.000000
 50
0.000000
  0
INSERT
  5
73B
100
AcDbEntity
  8
Detail
100
AcDbBlockReference
  2
B-23
 10
0.000000
 20
0.000000
 30
0.000000
 41
1.000000
 42
1.000000
 43
1.000000
 50
0.000000
  0
INSERT
  5
73C
100
AcDbEntity
  8
Detail
100
AcDbBlockReference
  2
B-24
 10
0.000000
 20
0.000000
 30
0.000000
 41
1.000000
 42
1.000000
 43
1.000000
 50
0.000000
  0
INSERT
  5
73D
100
AcDbEntity
  8
0
100
AcDbBlockReference
  2
B-25
 10
0.000000
 20
0.000000
 30
0.000000
 41
1.000000
 42
1.000000
 43
1.000000
 50
0.000000
  0
INSERT
  5
73E
100
AcDbEntity
  8
Detail
100
AcDbBlockReference
  2
B-26
 10
0.000000
 20
0.000000
 30
0.000000
 41
1.000000
 42
1.000000
 43
1.000000
 50
0.000000
  0
INSERT
  5
73F
100
AcDbEntity
  8
Detail
100
AcDbBlockReference
  2
B-27
 10
0.000000
 20
0.000000
 30
0.000000
 41
1.000000
 42
1.000000
 43
1.000000
 50
0.000000
  0
INSERT
  5
740
100
AcDbEntity
  8
0
100
AcDbBlockReference
  2
B-28
 10
0.000000
 20
0.000000
 30
0.000000
 41
1.000000
 42
1.000000
 43
1.000000
 50
0.000000
  0
INSERT
  5
741
100
AcDbEntity
  8
Detail
100
AcDbBlockReference
  2
B-29
 10
0.000000
 20
0.000000
 30
0.000000
 41
1.000000
 42
1.000000
 43
1.000000
 50
0.000000
  0
INSERT
  5
742
100
AcDbEntity
  8
Detail
100
AcDbBlockReference
  2
B-30
 10
0.000000
 20
0.000000
 30
0.000000
 41
1.000000
 42
1.000000
 43
1.000000
 50
0.000000
  0
INSERT
  5
743
100
AcDbEntity
  8
Detail
100
AcDbBlockReference
  2
B-31
 10
0.000000
 20
0.000000
 30
0.000000
 41
1.000000
 42
1.000000
 43
1.000000
 50
0.000000
  0
INSERT
  5
744
100
AcDbEntity
  8
Detail
100
AcDbBlockReference
  2
B-32
 10
0.000000
 20
0.000000
 30
0.000000
 41
1.000000
 42
1.000000
 43
1.000000
 50
0.000000
  0
INSERT
  5
745
100
AcDbEntity
  8
Detail
100
AcDbBlockReference
  2
B-33
 10
0.000000
 20
0.000000
 30
0.000000
 41
1.000000
 42
1.000000
 43
1.000000
 50
0.000000
  0
INSERT
  5
746
100
AcDbEntity
  8
Detail
100
AcDbBlockReference
  2
B-34
 10
0.000000
 20
0.000000
 30
0.000000
 41
1.000000
 42
1.000000
 43
1.000000
 50
0.000000
  0
INSERT
  5
747
100
AcDbEntity
  8
Detail
100
AcDbBlockReference
  2
B-35
 10
0.000000
 20
0.000000
 30
0.000000
 41
1.000000
 42
1.000000
 43
1.000000
 50
0.000000
  0
INSERT
  5
748
100
AcDbEntity
  8
Detail
100
AcDbBlockReference
  2
B-36
 10
0.000000
 20
0.000000
 30
0.000000
 41
1.000000
 42
1.000000
 43
1.000000
 50
0.000000
  0
INSERT
  5
749
100
AcDbEntity
  8
Detail
100
AcDbBlockReference
  2
B-37
 10
0.000000
 20
0.000000
 30
0.000000
 41
1.000000
 42
1.000000
 43
1.000000
 50
0.000000
  0
INSERT
  5
74A
100
AcDbEntity
  8
Detail
100
AcDbBlockReference
  2
B-38
 10
0.000000
 20
0.000000
 30
0.000000
 41
1.000000
 42
1.000000
 43
1.000000
 50
0.000000
  0
INSERT
  5
74B
100
AcDbEntity
  8
Detail
100
AcDbBlockReference
  2
B-39
 10
0.000000
 20
0.000000
 30
0.000000
 41
1.000000
 42
1.000000
 43
1.000000
 50
0.000000
  0
INSERT
  5
74C
100
AcDbEntity
  8
Detail
100
AcDbBlockReference
  2
B-40
 10
0.000000
 20
0.000000
 30
0.000000
 41
1.000000
 42
1.000000
 43
1.000000
 50
0.000000
  0
INSERT
  5
74D
100
AcDbEntity
  8
Detail
100
AcDbBlockReference
  2
B-41
 10
0.000000
 20
0.000000
 30
0.000000
 41
1.000000
 42
1.000000
 43
1.000000
 50
0.000000
  0
INSERT
  5
74E
100
AcDbEntity
  8
Detail
100
AcDbBlockReference
  2
B-42
 10
0.000000
 20
0.000000
 30
0.000000
 41
1.000000
 42
1.000000
 43
1.000000
 50
0.000000
  0
INSERT
  5
74F
100
AcDbEntity
  8
Detail
100
AcDbBlockReference
  2
B-43
 10
0.000000
 20
0.000000
 30
0.000000
 41
1.000000
 42
1.000000
 43
1.000000
 50
0.000000
  0
INSERT
  5
750
100
AcDbEntity
  8
Detail
100
AcDbBlockReference
  2
B-44
 10
0.000000
 20
0.000000
 30
0.000000
 41
1.000000
 42
1.000000
 43
1.000000
 50
0.000000
  0
INSERT
  5
751
100
AcDbEntity
  8
0
100
AcDbBlockReference
  2
B-45
 10
0.000000
 20
0.000000
 30
0.000000
 41
1.000000
 42
1.000000
 43
1.000000
 50
0.000000
  0
INSERT
  5
752
100
AcDbEntity
  8
0
100
AcDbBlockReference
  2
B-46
 10
0.000000
 20
0.000000
 30
0.000000
 41
1.000000
 42
1.000000
 43
1.000000
 50
0.000000
  0
INSERT
  5
753
100
AcDbEntity
  8
0
100
AcDbBlockReference
  2
B-47
 10
0.000000
 20
0.000000
 30
0.000000
 41
1.000000
 42
1.000000
 43
1.000000
 50
0.000000
  0
INSERT
  5
754
100
AcDbEntity
  8
0
100
AcDbBlockReference
  2
B-48
 10
0.000000
 20
0.000000
 30
0.000000
 41
1.000000
 42
1.000000
 43
1.000000
 50
0.000000
  0
INSERT
  5
755
100
AcDbEntity
  8
0
100
AcDbBlockReference
  2
B-49
 10
0.000000
 20
0.000000
 30
0.000000
 41
1.000000
 42
1.000000
 43
1.000000
 50
0.000000
  0
INSERT
  5
756
100
AcDbEntity
  8
0
100
AcDbBlockReference
  2
B-50
 10
0.000000
 20
0.000000
 30
0.000000
 41
1.000000
 42
1.000000
 43
1.000000
 50
0.000000
  0
INSERT
  5
757
100
AcDbEntity
  8
0
100
AcDbBlockReference
  2
B-51
 10
0.000000
 20
0.000000
 30
0.000000
 41
1.000000
 42
1.000000
 43
1.000000
 50
0.000000
  0
INSERT
  5
758
100
AcDbEntity
  8
0
100
AcDbBlockReference
  2
B-52
 10
0.000000
 20
0.000000
 30
0.000000
 41
1.000000
 42
1.000000
 43
1.000000
 50
0.000000
  0
INSERT
  5
759
100
AcDbEntity
  8
0
100
AcDbBlockReference
  2
B-53
 10
0.000000
 20
0.000000
 30
0.000000
 41
1.000000
 42
1.000000
 43
1.000000
 50
0.000000
  0
INSERT
  5
75A
100
AcDbEntity
  8
0
100
AcDbBlockReference
  2
B-54
 10
0.000000
 20
0.000000
 30
0.000000
 41
1.000000
 42
1.000000
 43
1.000000
 50
0.000000
  0
INSERT
  5
75B
100
AcDbEntity
  8
0
100
AcDbBlockReference
  2
B-55
 10
0.000000
 20
0.000000
 30
0.000000
 41
1.000000
 42
1.000000
 43
1.000000
 50
0.000000
  0
INSERT
  5
75C
100
AcDbEntity
  8
Detail
100
AcDbBlockReference
  2
B-56
 10
0.000000
 20
0.000000
 30
0.000000
 41
1.000000
 42
1.000000
 43
1.000000
 50
0.000000
  0
INSERT
  5
75D
100
AcDbEntity
  8
Detail
100
AcDbBlockReference
  2
B-57
 10
0.000000
 20
0.000000
 30
0.000000
 41
1.000000
 42
1.000000
 43
1.000000
 50
0.000000
  0
INSERT
  5
75E
100
AcDbEntity
  8
0
100
AcDbBlockReference
  2
B-58
 10
0.000000
 20
0.000000
 30
0.000000
 41
1.000000
 42
1.000000
 43
1.000000
 50
0.000000
  0
INSERT
  5
75F
100
AcDbEntity
  8
Detail
100
AcDbBlockReference
  2
B-59
 10
0.000000
 20
0.000000
 30
0.000000
 41
1.000000
 42
1.000000
 43
1.000000
 50
0.000000
  0
INSERT
  5
760
100
AcDbEntity
  8
Detail
100
AcDbBlockReference
  2
B-60
 10
0.000000
 20
0.000000
 30
0.000000
 41
1.000000
 42
1.000000
 43
1.000000
 50
0.000000
  0
INSERT
  5
761
100
AcDbEntity
  8
Detail
100
AcDbBlockReference
  2
B-62
 10
0.000000
 20
0.000000
 30
0.000000
 41
1.000000
 42
1.000000
 43
1.000000
 50
0.000000
  0
INSERT
  5
762
100
AcDbEntity
  8
Detail
100
AcDbBlockReference
  2
B-63
 10
0.000000
 20
0.000000
 30
0.000000
 41
1.000000
 42
1.000000
 43
1.000000
 50
0.000000
  0
INSERT
  5
763
100
AcDbEntity
  8
Detail
100
AcDbBlockReference
  2
B-64
 10
0.000000
 20
0.000000
 30
0.000000
 41
1.000000
 42
1.000000
 43
1.000000
 50
0.000000
  0
INSERT
  5
764
100
AcDbEntity
  8
Detail
100
AcDbBlockReference
  2
B-65
 10
0.000000
 20
0.000000
 30
0.000000
 41
1.000000
 42
1.000000
 43
1.000000
 50
0.000000
  0
INSERT
  5
765
100
AcDbEntity
  8
Detail
100
AcDbBlockReference
  2
B-66
 10
0.000000
 20
0.000000
 30
0.000000
 41
1.000000
 42
1.000000
 43
1.000000
 50
0.000000
  0
INSERT
  5
766
100
AcDbEntity
  8
Detail
100
AcDbBlockReference
  2
B-67
 10
0.000000
 20
0.000000
 30
0.000000
 41
1.000000
 42
1.000000
 43
1.000000
 50
0.000000
  0
INSERT
  5
767
100
AcDbEntity
  8
Detail
100
AcDbBlockReference
  2
B-68
 10
0.000000
 20
0.000000
 30
0.000000
 41
1.000000
 42
1.000000
 43
1.000000
 50
0.000000
  0
INSERT
  5
768
100
AcDbEntity
  8
Detail
100
AcDbBlockReference
  2
B-69
 10
0.000000
 20
0.000000
 30
0.000000
 41
1.000000
 42
1.000000
 43
1.000000
 50
0.000000
  0
INSERT
  5
769
100
AcDbEntity
  8
Detail
100
AcDbBlockReference
  2
B-70
 10
0.000000
 20
0.000000
 30
0.000000
 41
1.000000
 42
1.000000
 43
1.000000
 50
0.000000
  0
INSERT
  5
76A
100
AcDbEntity
  8
Detail
100
AcDbBlockReference
  2
B-71
 10
0.000000
 20
0.000000
 30
0.000000
 41
1.000000
 42
1.000000
 43
1.000000
 50
0.000000
  0
INSERT
  5
76B
100
AcDbEntity
  8
Detail
100
AcDbBlockReference
  2
B-72
 10
0.000000
 20
0.000000
 30
0.000000
 41
1.000000
 42
1.000000
 43
1.000000
 50
0.000000
  0
INSERT
  5
76C
100
AcDbEntity
  8
Detail
100
AcDbBlockReference
  2
B-73
 10
0.000000
 20
0.000000
 30
0.000000
 41
1.000000
 42
1.000000
 43
1.000000
 50
0.000000
  0
INSERT
  5
76D
100
AcDbEntity
  8
Detail
100
AcDbBlockReference
  2
B-74
 10
0.000000
 20
0.000000
 30
0.000000
 41
1.000000
 42
1.000000
 43
1.000000
 50
0.000000
  0
INSERT
  5
76E
100
AcDbEntity
  8
Detail
100
AcDbBlockReference
  2
B-75
 10
0.000000
 20
0.000000
 30
0.000000
 41
1.000000
 42
1.000000
 43
1.000000
 50
0.000000
  0
INSERT
  5
76F
100
AcDbEntity
  8
Detail
100
AcDbBlockReference
  2
B-76
 10
0.000000
 20
0.000000
 30
0.000000
 41
1.000000
 42
1.000000
 43
1.000000
 50
0.000000
  0
INSERT
  5
770
100
AcDbEntity
  8
Detail
100
AcDbBlockReference
  2
B-77
 10
0.000000
 20
0.000000
 30
0.000000
 41
1.000000
 42
1.000000
 43
1.000000
 50
0.000000
  0
INSERT
  5
771
100
AcDbEntity
  8
L
100
AcDbBlockReference
  2
B-79
 10
0.000000
 20
0.000000
 30
0.000000
 41
1.000000
 42
1.000000
 43
1.000000
 50
0.000000
  0
INSERT
  5
772
100
AcDbEntity
  8
Detail
100
AcDbBlockReference
  2
B-80
 10
0.000000
 20
0.000000
 30
0.000000
 41
1.000000
 42
1.000000
 43
1.000000
 50
0.000000
  0
INSERT
  5
773
100
AcDbEntity
  8
Detail
100
AcDbBlockReference
  2
B-81
 10
0.000000
 20
0.000000
 30
0.000000
 41
1.000000
 42
1.000000
 43
1.000000
 50
0.000000
  0
INSERT
  5
774
100
AcDbEntity
  8
Detail
100
AcDbBlockReference
  2
B-82
 10
0.000000
 20
0.000000
 30
0.000000
 41
1.000000
 42
1.000000
 43
1.000000
 50
0.000000
  0
INSERT
  5
775
100
AcDbEntity
  8
Detail
100
AcDbBlockReference
  2
B-83
 10
0.000000
 20
0.000000
 30
0.000000
 41
1.000000
 42
1.000000
 43
1.000000
 50
0.000000
  0
INSERT
  5
776
100
AcDbEntity
  8
Detail
100
AcDbBlockReference
  2
B-84
 10
0.000000
 20
0.000000
 30
0.000000
 41
1.000000
 42
1.000000
 43
1.000000
 50
0.000000
  0
INSERT
  5
777
100
AcDbEntity
  8
Detail
100
AcDbBlockReference
  2
B-85
 10
0.000000
 20
0.000000
 30
0.000000
 41
1.000000
 42
1.000000
 43
1.000000
 50
0.000000
  0
INSERT
  5
778
100
AcDbEntity
  8
Detail
100
AcDbBlockReference
  2
B-86
 10
0.000000
 20
0.000000
 30
0.000000
 41
1.000000
 42
1.000000
 43
1.000000
 50
0.000000
  0
INSERT
  5
779
100
AcDbEntity
  8
Detail
100
AcDbBlockReference
  2
B-87
 10
0.000000
 20
0.000000
 30
0.000000
 41
1.000000
 42
1.000000
 43
1.000000
 50
0.000000
  0
ENDSEC
  0
SECTION
  2
OBJECTS
  0
DICTIONARY
  5
C
330
0
100
AcDbDictionary
281
     1
  3
ACAD_COLOR
350
6B
  3
ACAD_GROUP
350
D
  3
ACAD_IMAGE_DICT
350
1E2
  3
ACAD_IMAGE_VARS
350
1E3
  3
ACAD_MATERIAL
350
6A
  3
ACAD_MLINESTYLE
350
17
  3
ACAD_PLOTSETTINGS
350
19
  3
ACAD_PLOTSTYLENAME
350
E
  3
ACAD_SCALELIST
350
10C
  3
ACAD_TABLESTYLE
350
7E
  3
ACAD_VISUALSTYLE
350
EF
  3
ACDB_RECOMPOSE_DATA
350
15D
  3
AcDbVariableDictionary
350
5E
  0
DICTIONARY
  5
13C
330
10
100
AcDbDictionary
280
     1
281
     1
  0
DICTIONARY
  5
203
330
202
100
AcDbDictionary
280
     1
281
     1
  0
DICTIONARY
  5
6B
102
{ACAD_REACTORS
330
C
102
}
330
C
100
AcDbDictionary
281
     1
  0
DICTIONARY
  5
D
102
{ACAD_REACTORS
330
C
102
}
330
C
100
AcDbDictionary
281
     1
  0
DICTIONARY
  5
1E2
102
{ACAD_REACTORS
330
C
102
}
330
C
100
AcDbDictionary
281
     1
  3
Kombinationsfassde_Systemübergang Innenecke_6_1.tif
350
212
  0
RASTERVARIABLES
  5
1E3
102
{ACAD_REACTORS
330
C
102
}
330
C
100
AcDbRasterVariables
 90
        0
 70
     1
 71
     1
 72
     1
  0
DICTIONARY
  5
6A
102
{ACAD_REACTORS
330
C
102
}
330
C
100
AcDbDictionary
281
     1
  3
ByBlock
350
ED
  3
ByLayer
350
EC
  3
Global
350
EE
  0
DICTIONARY
  5
12D
102
{ACAD_REACTORS
330
C
102
}
330
C
100
AcDbDictionary
281
     1
  3
Annotative
350
13B
  3
Standard
350
12E
  0
DICTIONARY
  5
17
102
{ACAD_REACTORS
330
C
102
}
330
C
100
AcDbDictionary
281
     1
  3
Standard
350
18
  0
DICTIONARY
  5
19
102
{ACAD_REACTORS
330
C
102
}
330
C
100
AcDbDictionary
281
     1
  0
ACDBDICTIONARYWDFLT
  5
E
102
{ACAD_REACTORS
330
C
102
}
330
C
100
AcDbDictionary
281
     1
  3
Normal
350
F
100
AcDbDictionaryWithDefault
340
F
  0
DICTIONARY
  5
10C
102
{ACAD_REACTORS
330
C
102
}
330
C
100
AcDbDictionary
281
     1
  3
A0
350
10D
  3
A1
350
1BE
  3
A2
350
1BF
  3
A3
350
1C0
  3
A4
350
1C1
  3
A5
350
1C2
  3
A6
350
1C3
  3
A7
350
1C4
  3
A8
350
1C5
  3
A9
350
1C6
  3
B0
350
1C7
  3
B1
350
1C8
  3
B2
350
1C9
  3
B3
350
1CA
  3
B4
350
1CB
  3
B5
350
1CC
  3
B6
350
1CD
  0
DICTIONARY
  5
7E
102
{ACAD_REACTORS
330
C
102
}
330
C
100
AcDbDictionary
281
     1
  3
Standard
350
7F
  0
DICTIONARY
  5
EF
102
{ACAD_REACTORS
330
C
102
}
330
C
100
AcDbDictionary
281
     1
  3
2dWireframe
350
F5
  3
3D Hidden
350
F7
  3
3dWireframe
350
F6
  3
Basic
350
F4
  3
Brighten
350
FB
  3
ColorChange
350
FF
  3
Conceptual
350
F8
  3
Dim
350
FA
  3
Facepattern
350
FE
  3
Flat
350
F0
  3
FlatWithEdges
350
F1
  3
Gouraud
350
F2
  3
GouraudWithEdges
350
F3
  3
Linepattern
350
FD
  3
Realistic
350
F9
  3
Thicken
350
FC
  0
XRECORD
  5
15D
102
{ACAD_REACTORS
330
C
102
}
330
C
100
AcDbXrecord
280
     1
 90
        1
330
7F
  0
DICTIONARY
  5
5E
102
{ACAD_REACTORS
330
C
102
}
330
C
100
AcDbDictionary
281
     1
  3
CANNOSCALE
350
146
  3
CMLEADERSTYLE
350
145
  3
CTABLESTYLE
350
84
  3
DIMASSOC
350
5F
  3
HIDETEXT
350
63
  3
LAYEREVAL
350
1AE
  3
LAYERNOTIFY
350
1AF
  0
MATERIAL
  5
ED
102
{ACAD_REACTORS
330
6A
102
}
330
6A
100
AcDbMaterial
  1
ByBlock
 94
       63
  0
MATERIAL
  5
EC
102
{ACAD_REACTORS
330
6A
102
}
330
6A
100
AcDbMaterial
  1
ByLayer
 94
       63
  0
MATERIAL
  5
EE
102
{ACAD_XDICTIONARY
360
173
102
}
102
{ACAD_REACTORS
330
6A
102
}
330
6A
100
AcDbMaterial
  1
Global
 43
0.0007999999797903
 43
0.0
 43
0.0
 43
0.0
 43
0.0
 43
0.0007999999797903
 43
0.0
 43
0.0
 43
0.0
 43
0.0
 43
1.0
 43
0.0
 43
0.0
 43
0.0
 43
0.0
 43
1.0
 49
0.0007999999797903
 49
0.0
 49
0.0
 49
0.0
 49
0.0
 49
0.0007999999797903
 49
0.0
 49
0.0
 49
0.0
 49
0.0
 49
1.0
 49
0.0
 49
0.0
 49
0.0
 49
0.0
 49
1.0
142
0.0007999999797903
142
0.0
142
0.0
142
0.0
142
0.0
142
0.0007999999797903
142
0.0
142
0.0
142
0.0
142
0.0
142
1.0
142
0.0
142
0.0
142
0.0
142
0.0
142
1.0
144
0.0007999999797903
144
0.0
144
0.0
144
0.0
144
0.0
144
0.0007999999797903
144
0.0
144
0.0
144
0.0
144
0.0
144
1.0
144
0.0
144
0.0
144
0.0
144
0.0
144
1.0
 94
       63
1001
ACAD
1070
    -1
1070
     3
1070
     0
1000

1071
        0
1070
     0
  0
MLINESTYLE
  5
18
102
{ACAD_REACTORS
330
17
102
}
330
17
100
AcDbMlineStyle
  2
STANDARD
 70
     0
  3

 62
   256
 51
90.0
 52
90.0
 71
     2
 49
0.5
 62
   256
  6
BYLAYER
 49
-0.5
 62
   256
  6
BYLAYER
  0
ACDBPLACEHOLDER
  5
F
102
{ACAD_REACTORS
330
E
102
}
330
E
  0
SCALE
  5
10D
102
{ACAD_REACTORS
330
10C
102
}
330
10C
100
AcDbScale
 70
     0
300
1:1
140
1.0
141
1.0
290
     1
  0
SCALE
  5
1BE
102
{ACAD_REACTORS
330
10C
102
}
330
10C
100
AcDbScale
 70
     0
300
1:2
140
1.0
141
2.0
290
     0
  0
SCALE
  5
1BF
102
{ACAD_REACTORS
330
10C
102
}
330
10C
100
AcDbScale
 70
     0
300
1:4
140
1.0
141
4.0
290
     0
  0
SCALE
  5
1C0
102
{ACAD_REACTORS
330
10C
102
}
330
10C
100
AcDbScale
 70
     0
300
1:5
140
1.0
141
5.0
290
     0
  0
SCALE
  5
1C1
102
{ACAD_REACTORS
330
10C
102
}
330
10C
100
AcDbScale
 70
     0
300
1:8
140
1.0
141
8.0
290
     0
  0
SCALE
  5
1C2
102
{ACAD_REACTORS
330
10C
102
}
330
10C
100
AcDbScale
 70
     0
300
1:10
140
1.0
141
10.0
290
     0
  0
SCALE
  5
1C3
102
{ACAD_REACTORS
330
10C
102
}
330
10C
100
AcDbScale
 70
     0
300
1:16
140
1.0
141
16.0
290
     0
  0
SCALE
  5
1C4
102
{ACAD_REACTORS
330
10C
102
}
330
10C
100
AcDbScale
 70
     0
300
1:20
140
1.0
141
20.0
290
     0
  0
SCALE
  5
1C5
102
{ACAD_REACTORS
330
10C
102
}
330
10C
100
AcDbScale
 70
     0
300
1:30
140
1.0
141
30.0
290
     0
  0
SCALE
  5
1C6
102
{ACAD_REACTORS
330
10C
102
}
330
10C
100
AcDbScale
 70
     0
300
1:40
140
1.0
141
40.0
290
     0
  0
SCALE
  5
1C7
102
{ACAD_REACTORS
330
10C
102
}
330
10C
100
AcDbScale
 70
     0
300
1:50
140
1.0
141
50.0
290
     0
  0
SCALE
  5
1C8
102
{ACAD_REACTORS
330
10C
102
}
330
10C
100
AcDbScale
 70
     0
300
1:100
140
1.0
141
100.0
290
     0
  0
SCALE
  5
1C9
102
{ACAD_REACTORS
330
10C
102
}
330
10C
100
AcDbScale
 70
     0
300
2:1
140
2.0
141
1.0
290
     0
  0
SCALE
  5
1CA
102
{ACAD_REACTORS
330
10C
102
}
330
10C
100
AcDbScale
 70
     0
300
4:1
140
4.0
141
1.0
290
     0
  0
SCALE
  5
1CB
102
{ACAD_REACTORS
330
10C
102
}
330
10C
100
AcDbScale
 70
     0
300
8:1
140
8.0
141
1.0
290
     0
  0
SCALE
  5
1CC
102
{ACAD_REACTORS
330
10C
102
}
330
10C
100
AcDbScale
 70
     0
300
10:1
140
10.0
141
1.0
290
     0
  0
SCALE
  5
1CD
102
{ACAD_REACTORS
330
10C
102
}
330
10C
100
AcDbScale
 70
     0
300
100:1
140
100.0
141
1.0
290
     0
  0
TABLESTYLE
  5
7F
102
{ACAD_XDICTIONARY
360
162
102
}
102
{ACAD_REACTORS
330
7E
102
}
330
7E
100
AcDbTableStyle
  3
Standard
 70
     0
 71
     0
 40
1.5
 41
1.5
280
     0
281
     0
  7
Standard
140
4.5
170
     2
 62
     0
 63
     7
283
     0
 90
      512
 91
        0
  1

274
    -2
284
     1
 64
     0
275
    -2
285
     1
 65
     0
276
    -2
286
     1
 66
     0
277
    -2
287
     1
 67
     0
278
    -2
288
     1
 68
     0
279
    -2
289
     1
 69
     0
  7
Standard
140
6.0
170
     5
 62
     0
 63
     7
283
     0
 90
      512
 91
        0
  1

274
    -2
284
     1
 64
     0
275
    -2
285
     1
 65
     0
276
    -2
286
     1
 66
     0
277
    -2
287
     1
 67
     0
278
    -2
288
     1
 68
     0
279
    -2
289
     1
 69
     0
  7
Standard
140
4.5
170
     5
 62
     0
 63
     7
283
     0
 90
      512
 91
        0
  1

274
    -2
284
     1
 64
     0
275
    -2
285
     1
 65
     0
276
    -2
286
     1
 66
     0
277
    -2
287
     1
 67
     0
278
    -2
288
     1
 68
     0
279
    -2
289
     1
 69
     0
  0
VISUALSTYLE
  5
F5
102
{ACAD_REACTORS
330
EF
102
}
330
EF
100
AcDbVisualStyle
  2
2dWireframe
 70
     4
 71
     0
 72
     2
 73
     1
 90
        0
 40
-0.6
 41
-30.0
 62
     5
 63
     7
421
 16777215
 74
     1
 91
        4
 64
     7
 65
   257
 75
     1
175
     1
 42
1.0
 92
        0
 66
   257
 43
1.0
 76
     1
 77
     6
 78
     2
 67
     7
 79
     5
170
     0
171
     0
290
     0
174
     0
 93
        1
 44
0.0
173
     0
291
     0
 45
0.0
  0
VISUALSTYLE
  5
F7
102
{ACAD_REACTORS
330
EF
102
}
330
EF
100
AcDbVisualStyle
  2
3D Hidden
 70
     6
 71
     1
 72
     2
 73
     2
 90
        0
 40
-0.6
 41
-30.0
 62
     5
 63
     7
421
 16777215
 74
     2
 91
        2
 64
     7
 65
   257
 75
     2
175
     1
 42
40.0
 92
        0
 66
   257
 43
1.0
 76
     1
 77
     6
 78
     2
 67
     7
 79
     3
170
     0
171
     0
290
     0
174
     0
 93
        1
 44
0.0
173
     0
291
     0
 45
0.0
  0
VISUALSTYLE
  5
F6
102
{ACAD_REACTORS
330
EF
102
}
330
EF
100
AcDbVisualStyle
  2
3dWireframe
 70
     5
 71
     0
 72
     2
 73
     1
 90
        0
 40
-0.6
 41
-30.0
 62
     5
 63
     7
421
 16777215
 74
     1
 91
        4
 64
     7
 65
   257
 75
     1
175
     1
 42
1.0
 92
        0
 66
   257
 43
1.0
 76
     1
 77
     6
 78
     2
 67
     7
 79
     5
170
     0
171
     0
290
     0
174
     0
 93
        1
 44
0.0
173
     0
291
     0
 45
0.0
  0
VISUALSTYLE
  5
F4
102
{ACAD_REACTORS
330
EF
102
}
330
EF
100
AcDbVisualStyle
  2
Basic
 70
     7
 71
     1
 72
     0
 73
     1
 90
        0
 40
-0.6
 41
-30.0
 62
     5
 63
     7
421
 16777215
 74
     0
 91
        4
 64
     7
 65
   257
 75
     1
175
     1
 42
1.0
 92
        8
 66
     7
 43
1.0
 76
     1
 77
     6
 78
     2
 67
     7
 79
     5
170
     0
171
     0
290
     0
174
     0
 93
        1
 44
0.0
173
     0
291
     1
 45
0.0
  0
VISUALSTYLE
  5
FB
102
{ACAD_REACTORS
330
EF
102
}
330
EF
100
AcDbVisualStyle
  2
Brighten
 70
    12
 71
     2
 72
     2
 73
     1
 90
        0
 40
-0.6
 41
-30.0
 62
     5
 63
     7
421
 16777215
 74
     1
 91
        4
 64
     7
 65
   257
 75
     1
175
     1
 42
1.0
 92
        8
 66
     7
 43
1.0
 76
     1
 77
     6
 78
     2
 67
     7
 79
     5
170
     0
171
     0
290
     0
174
     0
 93
        1
 44
50.0
173
     0
291
     1
 45
0.0
  0
VISUALSTYLE
  5
FF
102
{ACAD_REACTORS
330
EF
102
}
330
EF
100
AcDbVisualStyle
  2
ColorChange
 70
    16
 71
     2
 72
     2
 73
     3
 90
        0
 40
-0.6
 41
-30.0
 62
     5
 63
     8
421
  8421504
 74
     1
 91
        4
 64
     7
 65
   257
 75
     1
175
     1
 42
1.0
 92
        8
 66
     8
424
  8421504
 43
1.0
 76
     1
 77
     6
 78
     2
 67
     7
 79
     5
170
     0
171
     0
290
     0
174
     0
 93
        1
 44
0.0
173
     0
291
     1
 45
0.0
  0
VISUALSTYLE
  5
F8
102
{ACAD_REACTORS
330
EF
102
}
330
EF
100
AcDbVisualStyle
  2
Conceptual
 70
     9
 71
     3
 72
     2
 73
     1
 90
        0
 40
-0.6
 41
-30.0
 62
     5
 63
     7
421
 16777215
 74
     2
 91
        2
 64
     7
 65
   257
 75
     1
175
     1
 42
40.0
 92
        8
 66
     7
 43
1.0
 76
     1
 77
     6
 78
     2
 67
     7
 79
     3
170
     0
171
     0
290
     0
174
     0
 93
        1
 44
0.0
173
     0
291
     0
 45
0.0
  0
VISUALSTYLE
  5
FA
102
{ACAD_REACTORS
330
EF
102
}
330
EF
100
AcDbVisualStyle
  2
Dim
 70
    11
 71
     2
 72
     2
 73
     1
 90
        0
 40
-0.6
 41
-30.0
 62
     5
 63
     7
421
 16777215
 74
     1
 91
        4
 64
     7
 65
   257
 75
     1
175
     1
 42
1.0
 92
        8
 66
     7
 43
1.0
 76
     1
 77
     6
 78
     2
 67
     7
 79
     5
170
     0
171
     0
290
     0
174
     0
 93
        1
 44
-50.0
173
     0
291
     1
 45
0.0
  0
VISUALSTYLE
  5
FE
102
{ACAD_REACTORS
330
EF
102
}
330
EF
100
AcDbVisualStyle
  2
Facepattern
 70
    15
 71
     2
 72
     2
 73
     1
 90
        0
 40
-0.6
 41
-30.0
 62
     5
 63
     7
421
 16777215
 74
     1
 91
        4
 64
     7
 65
   257
 75
     1
175
     1
 42
1.0
 92
        8
 66
     7
 43
1.0
 76
     1
 77
     6
 78
     2
 67
     7
 79
     5
170
     0
171
     0
290
     0
174
     0
 93
        1
 44
0.0
173
     0
291
     1
 45
0.0
  0
VISUALSTYLE
  5
F0
102
{ACAD_REACTORS
330
EF
102
}
330
EF
100
AcDbVisualStyle
  2
Flat
 70
     0
 71
     2
 72
     1
 73
     1
 90
        2
 40
-0.6
 41
30.0
 62
     5
 63
     7
421
 16777215
 74
     0
 91
        4
 64
     7
 65
   257
 75
     1
175
     1
 42
1.0
 92
        8
 66
     7
 43
1.0
 76
     1
 77
     6
 78
     2
 67
     7
 79
     5
170
     0
171
     0
290
     0
174
     0
 93
        1
 44
0.0
173
     0
291
     1
 45
0.0
  0
VISUALSTYLE
  5
F1
102
{ACAD_REACTORS
330
EF
102
}
330
EF
100
AcDbVisualStyle
  2
FlatWithEdges
 70
     1
 71
     2
 72
     1
 73
     1
 90
        2
 40
-0.6
 41
30.0
 62
     5
 63
     7
421
 16777215
 74
     1
 91
        4
 64
     7
 65
   257
 75
     1
175
     1
 42
1.0
 92
        0
 66
   257
 43
1.0
 76
     1
 77
     6
 78
     2
 67
     7
 79
     5
170
     0
171
     0
290
     0
174
     0
 93
        1
 44
0.0
173
     0
291
     1
 45
0.0
  0
VISUALSTYLE
  5
F2
102
{ACAD_REACTORS
330
EF
102
}
330
EF
100
AcDbVisualStyle
  2
Gouraud
 70
     2
 71
     2
 72
     2
 73
     1
 90
        2
 40
-0.6
 41
30.0
 62
     5
 63
     7
421
 16777215
 74
     0
 91
        4
 64
     7
 65
   257
 75
     1
175
     1
 42
1.0
 92
        0
 66
     7
 43
1.0
 76
     1
 77
     6
 78
     2
 67
     7
 79
     5
170
     0
171
     0
290
     0
174
     0
 93
        1
 44
0.0
173
     0
291
     1
 45
0.0
  0
VISUALSTYLE
  5
F3
102
{ACAD_REACTORS
330
EF
102
}
330
EF
100
AcDbVisualStyle
  2
GouraudWithEdges
 70
     3
 71
     2
 72
     2
 73
     1
 90
        2
 40
-0.6
 41
30.0
 62
     5
 63
     7
421
 16777215
 74
     1
 91
        4
 64
     7
 65
   257
 75
     1
175
     1
 42
1.0
 92
        0
 66
   257
 43
1.0
 76
     1
 77
     6
 78
     2
 67
     7
 79
     5
170
     0
171
     0
290
     0
174
     0
 93
        1
 44
0.0
173
     0
291
     1
 45
0.0
  0
VISUALSTYLE
  5
FD
102
{ACAD_REACTORS
330
EF
102
}
330
EF
100
AcDbVisualStyle
  2
Linepattern
 70
    14
 71
     2
 72
     2
 73
     1
 90
        0
 40
-0.6
 41
-30.0
 62
     5
 63
     7
421
 16777215
 74
     1
 91
        4
 64
     7
 65
   257
 75
     7
175
     7
 42
1.0
 92
        8
 66
     7
 43
1.0
 76
     1
 77
     6
 78
     2
 67
     7
 79
     5
170
     0
171
     0
290
     0
174
     0
 93
        1
 44
0.0
173
     0
291
     1
 45
0.0
  0
VISUALSTYLE
  5
F9
102
{ACAD_REACTORS
330
EF
102
}
330
EF
100
AcDbVisualStyle
  2
Realistic
 70
     8
 71
     2
 72
     2
 73
     1
 90
        0
 40
-0.6
 41
-30.0
 62
     5
 63
     7
421
 16777215
 74
     1
 91
        0
 64
     7
 65
   257
 75
     1
175
     1
 42
1.0
 92
        8
 66
     8
424
  7895160
 43
1.0
 76
     1
 77
     6
 78
     2
 67
     7
 79
     5
170
     0
171
     0
290
     0
174
     0
 93
       13
 44
0.0
173
     0
291
     0
 45
0.0
  0
VISUALSTYLE
  5
FC
102
{ACAD_REACTORS
330
EF
102
}
330
EF
100
AcDbVisualStyle
  2
Thicken
 70
    13
 71
     2
 72
     2
 73
     1
 90
        0
 40
-0.6
 41
-30.0
 62
     5
 63
     7
421
 16777215
 74
     1
 91
        4
 64
     7
 65
   257
 75
     1
175
     1
 42
1.0
 92
       12
 66
     7
 43
1.0
 76
     1
 77
     6
 78
     2
 67
     7
 79
     5
170
     0
171
     0
290
     0
174
     0
 93
        1
 44
0.0
173
     0
291
     1
 45
0.0
  0
DICTIONARYVAR
  5
146
102
{ACAD_REACTORS
330
5E
102
}
330
5E
100
DictionaryVariables
280
     0
  1
1:1
  0
DICTIONARYVAR
  5
145
102
{ACAD_REACTORS
330
5E
102
}
330
5E
100
DictionaryVariables
280
     0
  1
STANDARD
  0
DICTIONARYVAR
  5
84
102
{ACAD_REACTORS
330
5E
102
}
330
5E
100
DictionaryVariables
280
     0
  1
STANDARD
  0
DICTIONARYVAR
  5
5F
102
{ACAD_REACTORS
330
5E
102
}
330
5E
100
DictionaryVariables
280
     0
  1
2
  0
DICTIONARYVAR
  5
63
102
{ACAD_REACTORS
330
5E
102
}
330
5E
100
DictionaryVariables
280
     0
  1
1
  0
DICTIONARYVAR
  5
1AE
102
{ACAD_REACTORS
330
5E
102
}
330
5E
100
DictionaryVariables
280
     0
  1
0
  0
DICTIONARYVAR
  5
1AF
102
{ACAD_REACTORS
330
5E
102
}
330
5E
100
DictionaryVariables
280
     0
  1
0
  0
DICTIONARY
  5
173
330
EE
100
AcDbDictionary
280
     1
281
     1
  3
BUMPTILE
360
175
  3
DIFFUSETILE
360
174
  3
OPACITYTILE
360
176
  3
REFLECTIONTILE
360
177
  0
DICTIONARY
  5
162
330
7F
100
AcDbDictionary
280
     1
281
     1
  3
ACAD_ROUNDTRIP_2008_TABLESTYLE_CELLSTYLEMAP
360
1E7
  0
XRECORD
  5
175
102
{ACAD_REACTORS
330
173
102
}
330
173
100
AcDbXrecord
280
     1
270
     1
271
     1
  0
XRECORD
  5
174
102
{ACAD_REACTORS
330
173
102
}
330
173
100
AcDbXrecord
280
     1
270
     1
271
     1
  0
XRECORD
  5
176
102
{ACAD_REACTORS
330
173
102
}
330
173
100
AcDbXrecord
280
     1
270
     1
271
     1
  0
XRECORD
  5
177
102
{ACAD_REACTORS
330
173
102
}
330
173
100
AcDbXrecord
280
     1
270
     1
271
     1
  0
CELLSTYLEMAP
  5
1E7
102
{ACAD_REACTORS
330
162
102
}
330
162
100
AcDbCellStyleMap
 90
        3
300
CELLSTYLE
  1
TABLEFORMAT_BEGIN
 90
        5
170
     1
 91
        0
 92
    32768
 62
   257
 93
        1
300
CONTENTFORMAT
  1
CONTENTFORMAT_BEGIN
 90
        0
 91
        0
 92
      512
 93
        0
300

 40
0.0
140
1.0
 94
        5
 62
     0
340
11
144
6.0
309
CONTENTFORMAT_END
171
     1
301
MARGIN
  1
CELLMARGIN_BEGIN
 40
1.5
 40
1.5
 40
1.5
 40
1.5
 40
4.5
 40
4.5
309
CELLMARGIN_END
 94
        6
 95
        1
302
GRIDFORMAT
  1
GRIDFORMAT_BEGIN
 90
        0
 91
        1
 62
     0
 92
       -2
340
77A
 93
        0
 40
1.125
309
GRIDFORMAT_END
 95
        2
302
GRIDFORMAT
  1
GRIDFORMAT_BEGIN
 90
        0
 91
        1
 62
     0
 92
       -2
340
77A
 93
        0
 40
1.125
309
GRIDFORMAT_END
 95
        4
302
GRIDFORMAT
  1
GRIDFORMAT_BEGIN
 90
        0
 91
        1
 62
     0
 92
       -2
340
77A
 93
        0
 40
1.125
309
GRIDFORMAT_END
 95
        8
302
GRIDFORMAT
  1
GRIDFORMAT_BEGIN
 90
        0
 91
        1
 62
     0
 92
       -2
340
77A
 93
        0
 40
1.125
309
GRIDFORMAT_END
 95
       16
302
GRIDFORMAT
  1
GRIDFORMAT_BEGIN
 90
        0
 91
        1
 62
     0
 92
       -2
340
77A
 93
        0
 40
1.125
309
GRIDFORMAT_END
 95
       32
302
GRIDFORMAT
  1
GRIDFORMAT_BEGIN
 90
        0
 91
        1
 62
     0
 92
       -2
340
77A
 93
        0
 40
1.125
309
GRIDFORMAT_END
309
TABLEFORMAT_END
  1
CELLSTYLE_BEGIN
 90
        1
 91
        1
300
_TITLE
309
CELLSTYLE_END
300
CELLSTYLE
  1
TABLEFORMAT_BEGIN
 90
        5
170
     1
 91
        0
 92
        0
 62
   257
 93
        1
300
CONTENTFORMAT
  1
CONTENTFORMAT_BEGIN
 90
        0
 91
        0
 92
      512
 93
        0
300

 40
0.0
140
1.0
 94
        5
 62
     0
340
11
144
4.5
309
CONTENTFORMAT_END
171
     1
301
MARGIN
  1
CELLMARGIN_BEGIN
 40
1.5
 40
1.5
 40
1.5
 40
1.5
 40
4.5
 40
4.5
309
CELLMARGIN_END
 94
        6
 95
        1
302
GRIDFORMAT
  1
GRIDFORMAT_BEGIN
 90
        0
 91
        1
 62
     0
 92
       -2
340
77A
 93
        0
 40
1.125
309
GRIDFORMAT_END
 95
        2
302
GRIDFORMAT
  1
GRIDFORMAT_BEGIN
 90
        0
 91
        1
 62
     0
 92
       -2
340
77A
 93
        0
 40
1.125
309
GRIDFORMAT_END
 95
        4
302
GRIDFORMAT
  1
GRIDFORMAT_BEGIN
 90
        0
 91
        1
 62
     0
 92
       -2
340
77A
 93
        0
 40
1.125
309
GRIDFORMAT_END
 95
        8
302
GRIDFORMAT
  1
GRIDFORMAT_BEGIN
 90
        0
 91
        1
 62
     0
 92
       -2
340
77A
 93
        0
 40
1.125
309
GRIDFORMAT_END
 95
       16
302
GRIDFORMAT
  1
GRIDFORMAT_BEGIN
 90
        0
 91
        1
 62
     0
 92
       -2
340
77A
 93
        0
 40
1.125
309
GRIDFORMAT_END
 95
       32
302
GRIDFORMAT
  1
GRIDFORMAT_BEGIN
 90
        0
 91
        1
 62
     0
 92
       -2
340
77A
 93
        0
 40
1.125
309
GRIDFORMAT_END
309
TABLEFORMAT_END
  1
CELLSTYLE_BEGIN
 90
        2
 91
        1
300
_HEADER
309
CELLSTYLE_END
300
CELLSTYLE
  1
TABLEFORMAT_BEGIN
 90
        5
170
     1
 91
        0
 92
        0
 62
   257
 93
        1
300
CONTENTFORMAT
  1
CONTENTFORMAT_BEGIN
 90
        0
 91
        0
 92
      512
 93
        0
300

 40
0.0
140
1.0
 94
        2
 62
     0
340
11
144
4.5
309
CONTENTFORMAT_END
171
     1
301
MARGIN
  1
CELLMARGIN_BEGIN
 40
1.5
 40
1.5
 40
1.5
 40
1.5
 40
4.5
 40
4.5
309
CELLMARGIN_END
 94
        6
 95
        1
302
GRIDFORMAT
  1
GRIDFORMAT_BEGIN
 90
        0
 91
        1
 62
     0
 92
       -2
340
77A
 93
        0
 40
1.125
309
GRIDFORMAT_END
 95
        2
302
GRIDFORMAT
  1
GRIDFORMAT_BEGIN
 90
        0
 91
        1
 62
     0
 92
       -2
340
77A
 93
        0
 40
1.125
309
GRIDFORMAT_END
 95
        4
302
GRIDFORMAT
  1
GRIDFORMAT_BEGIN
 90
        0
 91
        1
 62
     0
 92
       -2
340
77A
 93
        0
 40
1.125
309
GRIDFORMAT_END
 95
        8
302
GRIDFORMAT
  1
GRIDFORMAT_BEGIN
 90
        0
 91
        1
 62
     0
 92
       -2
340
77A
 93
        0
 40
1.125
309
GRIDFORMAT_END
 95
       16
302
GRIDFORMAT
  1
GRIDFORMAT_BEGIN
 90
        0
 91
        1
 62
     0
 92
       -2
340
77A
 93
        0
 40
1.125
309
GRIDFORMAT_END
 95
       32
302
GRIDFORMAT
  1
GRIDFORMAT_BEGIN
 90
        0
 91
        1
 62
     0
 92
       -2
340
77A
 93
        0
 40
1.125
309
GRIDFORMAT_END
309
TABLEFORMAT_END
  1
CELLSTYLE_BEGIN
 90
        3
 91
        2
300
_DATA
309
CELLSTYLE_END
  0
IMAGEDEF_REACTOR
  5
213
330
211
100
AcDbRasterImageDefReactor
 90
     2
330
211
  0
IMAGEDEF
  5
212
102
{ACAD_REACTORS
330
5E
330
213
102
}
330
5E
100
AcDbRasterImageDef
 90
     0
  1
Kombinationsfassde_Systemübergang Innenecke_6_1.tif
 10
395.000000
 20
405.000000
 11
0.002532
 21
0.002469
280
     1
281
     0
  0
ENDSEC
  0
EOF
