  0
SECTION
  2
HEADER
  9
$ACADVER
  1
AC1024
  9
$ACADMAINTVER
 70
     6
  9
$DWGCODEPAGE
  3
ANSI_1252
  9
$INSBASE
 10
0.0
 20
0.0
 30
0.0
  9
$EXTMIN
 10
-262.500018
 20
-371.249941
 30
0.000000
  9
$EXTMAX
 10
237.500023
 20
346.250078
 30
0.000000
  9
$LIMMIN
 10
0.0
 20
0.0
  9
$LIMMAX
 10
420.0
 20
297.0
  9
$ORTHOMODE
 70
     0
  9
$REGENMODE
 70
     1
  9
$FILLMODE
 70
     1
  9
$QTEXTMODE
 70
     0
  9
$MIRRTEXT
 70
     0
  9
$LTSCALE
 40
25.000000
  9
$ATTMODE
 70
     1
  9
$TEXTSIZE
 40
2.5
  9
$TRACEWID
 40
1.0
  9
$TEXTSTYLE
  7
Standard
  9
$CLAYER
  8
0
  9
$CELTYPE
  6
ByLayer
  9
$CECOLOR
 62
   256
  9
$CELTSCALE
 40
1.0
  9
$DISPSILH
 70
     0
  9
$DIMSCALE
 40
1.0
  9
$DIMASZ
 40
2.5
  9
$DIMEXO
 40
0.625
  9
$DIMDLI
 40
3.75
  9
$DIMRND
 40
0.0
  9
$DIMDLE
 40
0.0
  9
$DIMEXE
 40
1.25
  9
$DIMTP
 40
0.0
  9
$DIMTM
 40
0.0
  9
$DIMTXT
 40
2.5
  9
$DIMCEN
 40
2.5
  9
$DIMTSZ
 40
0.0
  9
$DIMTOL
 70
     0
  9
$DIMLIM
 70
     0
  9
$DIMTIH
 70
     0
  9
$DIMTOH
 70
     0
  9
$DIMSE1
 70
     0
  9
$DIMSE2
 70
     0
  9
$DIMTAD
 70
     1
  9
$DIMZIN
 70
     8
  9
$DIMBLK
  1

  9
$DIMASO
 70
     1
  9
$DIMSHO
 70
     1
  9
$DIMPOST
  1

  9
$DIMAPOST
  1

  9
$DIMALT
 70
     0
  9
$DIMALTD
 70
     3
  9
$DIMALTF
 40
0.03937007874016
  9
$DIMLFAC
 40
1.0
  9
$DIMTOFL
 70
     1
  9
$DIMTVP
 40
0.0
  9
$DIMTIX
 70
     0
  9
$DIMSOXD
 70
     0
  9
$DIMSAH
 70
     0
  9
$DIMBLK1
  1

  9
$DIMBLK2
  1

  9
$DIMSTYLE
  2
ISO-25
  9
$DIMCLRD
 70
     0
  9
$DIMCLRE
 70
     0
  9
$DIMCLRT
 70
     0
  9
$DIMTFAC
 40
1.0
  9
$DIMGAP
 40
0.625
  9
$DIMJUST
 70
     0
  9
$DIMSD1
 70
     0
  9
$DIMSD2
 70
     0
  9
$DIMTOLJ
 70
     0
  9
$DIMTZIN
 70
     8
  9
$DIMALTZ
 70
     0
  9
$DIMALTTZ
 70
     0
  9
$DIMUPT
 70
     0
  9
$DIMDEC
 70
     2
  9
$DIMTDEC
 70
     2
  9
$DIMALTU
 70
     2
  9
$DIMALTTD
 70
     3
  9
$DIMTXSTY
  7
Standard
  9
$DIMAUNIT
 70
     0
  9
$DIMADEC
 70
     0
  9
$DIMALTRND
 40
0.0
  9
$DIMAZIN
 70
     0
  9
$DIMDSEP
 70
    44
  9
$DIMATFIT
 70
     3
  9
$DIMFRAC
 70
     0
  9
$DIMLDRBLK
  1

  9
$DIMLUNIT
 70
     2
  9
$DIMLWD
 70
    -2
  9
$DIMLWE
 70
    -2
  9
$DIMTMOVE
 70
     0
  9
$DIMFXL
 40
1.0
  9
$DIMFXLON
 70
     0
  9
$DIMJOGANG
 40
0.7853981633974483
  9
$DIMTFILL
 70
     0
  9
$DIMTFILLCLR
 70
     0
  9
$DIMARCSYM
 70
     0
  9
$DIMLTYPE
  6

  9
$DIMLTEX1
  6

  9
$DIMLTEX2
  6

  9
$DIMTXTDIRECTION
 70
     0
  9
$LUNITS
 70
     2
  9
$LUPREC
 70
     4
  9
$SKETCHINC
 40
1.0
  9
$FILLETRAD
 40
10.0
  9
$AUNITS
 70
     0
  9
$AUPREC
 70
     0
  9
$MENU
  1
.
  9
$ELEVATION
 40
0.0
  9
$PELEVATION
 40
0.0
  9
$THICKNESS
 40
0.0
  9
$LIMCHECK
 70
     0
  9
$CHAMFERA
 40
10.0
  9
$CHAMFERB
 40
10.0
  9
$CHAMFERC
 40
20.0
  9
$CHAMFERD
 40
0.0
  9
$SKPOLY
 70
     0
  9
$TDCREATE
 40
2452006.439837951
  9
$TDUCREATE
 40
2452006.356504618
  9
$TDUPDATE
 40
2452006.439963946
  9
$TDUUPDATE
 40
2452006.356630613
  9
$TDINDWG
 40
0.0001273843
  9
$TDUSRTIMER
 40
0.0001272685
  9
$USRTIMER
 70
     1
  9
$ANGBASE
 50
0.0
  9
$ANGDIR
 70
     0
  9
$PDMODE
 70
     0
  9
$PDSIZE
 40
0.0
  9
$PLINEWID
 40
0.0
  9
$SPLFRAME
 70
     0
  9
$SPLINETYPE
 70
     6
  9
$SPLINESEGS
 70
     8
  9
$HANDSEED
  5
958
  9
$SURFTAB1
 70
     6
  9
$SURFTAB2
 70
     6
  9
$SURFTYPE
 70
     6
  9
$SURFU
 70
     6
  9
$SURFV
 70
     6
  9
$UCSBASE
  2

  9
$UCSNAME
  2

  9
$UCSORG
 10
0.0
 20
0.0
 30
0.0
  9
$UCSXDIR
 10
1.0
 20
0.0
 30
0.0
  9
$UCSYDIR
 10
0.0
 20
1.0
 30
0.0
  9
$UCSORTHOREF
  2

  9
$UCSORTHOVIEW
 70
     0
  9
$UCSORGTOP
 10
0.0
 20
0.0
 30
0.0
  9
$UCSORGBOTTOM
 10
0.0
 20
0.0
 30
0.0
  9
$UCSORGLEFT
 10
0.0
 20
0.0
 30
0.0
  9
$UCSORGRIGHT
 10
0.0
 20
0.0
 30
0.0
  9
$UCSORGFRONT
 10
0.0
 20
0.0
 30
0.0
  9
$UCSORGBACK
 10
0.0
 20
0.0
 30
0.0
  9
$PUCSBASE
  2

  9
$PUCSNAME
  2

  9
$PUCSORG
 10
0.0
 20
0.0
 30
0.0
  9
$PUCSXDIR
 10
1.0
 20
0.0
 30
0.0
  9
$PUCSYDIR
 10
0.0
 20
1.0
 30
0.0
  9
$PUCSORTHOREF
  2

  9
$PUCSORTHOVIEW
 70
     0
  9
$PUCSORGTOP
 10
0.0
 20
0.0
 30
0.0
  9
$PUCSORGBOTTOM
 10
0.0
 20
0.0
 30
0.0
  9
$PUCSORGLEFT
 10
0.0
 20
0.0
 30
0.0
  9
$PUCSORGRIGHT
 10
0.0
 20
0.0
 30
0.0
  9
$PUCSORGFRONT
 10
0.0
 20
0.0
 30
0.0
  9
$PUCSORGBACK
 10
0.0
 20
0.0
 30
0.0
  9
$USERI1
 70
     0
  9
$USERI2
 70
     0
  9
$USERI3
 70
     0
  9
$USERI4
 70
     0
  9
$USERI5
 70
     0
  9
$USERR1
 40
0.0
  9
$USERR2
 40
0.0
  9
$USERR3
 40
0.0
  9
$USERR4
 40
0.0
  9
$USERR5
 40
0.0
  9
$WORLDVIEW
 70
     1
  9
$SHADEDGE
 70
     3
  9
$SHADEDIF
 70
    70
  9
$TILEMODE
 70
     1
  9
$MAXACTVP
 70
    64
  9
$PINSBASE
 10
0.0
 20
0.0
 30
0.0
  9
$PLIMCHECK
 70
     0
  9
$PEXTMIN
 10
1.000000000000000E+20
 20
1.000000000000000E+20
 30
1.000000000000000E+20
  9
$PEXTMAX
 10
-1.000000000000000E+20
 20
-1.000000000000000E+20
 30
-1.000000000000000E+20
  9
$PLIMMIN
 10
0.0
 20
0.0
  9
$PLIMMAX
 10
420.0
 20
297.0
  9
$UNITMODE
 70
     0
  9
$VISRETAIN
 70
     1
  9
$PLINEGEN
 70
     0
  9
$PSLTSCALE
 70
     1
  9
$TREEDEPTH
 70
  3020
  9
$CMLSTYLE
  2
Standard
  9
$CMLJUST
 70
     0
  9
$CMLSCALE
 40
20.0
  9
$PROXYGRAPHICS
 70
     1
  9
$MEASUREMENT
 70
     1
  9
$CELWEIGHT
370
    -1
  9
$ENDCAPS
280
     0
  9
$JOINSTYLE
280
     0
  9
$LWDISPLAY
290
     0
  9
$INSUNITS
 70
     4
  9
$HYPERLINKBASE
  1

  9
$STYLESHEET
  1

  9
$XEDIT
290
     1
  9
$CEPSNTYPE
380
     0
  9
$PSTYLEMODE
290
     1
  9
$FINGERPRINTGUID
  2

  9
$VERSIONGUID
  2

  9
$EXTNAMES
290
     1
  9
$PSVPSCALE
 40
0.0
  9
$OLESTARTUP
290
     0
  9
$SORTENTS
280
   127
  9
$INDEXCTL
280
     0
  9
$HIDETEXT
280
     1
  9
$XCLIPFRAME
280
     2
  9
$HALOGAP
280
     0
  9
$OBSCOLOR
 70
   257
  9
$OBSLTYPE
280
     0
  9
$INTERSECTIONDISPLAY
280
     0
  9
$INTERSECTIONCOLOR
 70
   257
  9
$DIMASSOC
280
     2
  9
$PROJECTNAME
  1

  9
$CAMERADISPLAY
290
     0
  9
$LENSLENGTH
 40
50.0
  9
$CAMERAHEIGHT
 40
0.0
  9
$STEPSPERSEC
 40
2.0
  9
$STEPSIZE
 40
6.0
  9
$3DDWFPREC
 40
2.0
  9
$PSOLWIDTH
 40
5.0
  9
$PSOLHEIGHT
 40
80.0
  9
$LOFTANG1
 40
1.570796326794896
  9
$LOFTANG2
 40
1.570796326794896
  9
$LOFTMAG1
 40
0.0
  9
$LOFTMAG2
 40
0.0
  9
$LOFTPARAM
 70
     7
  9
$LOFTNORMALS
280
     1
  9
$LATITUDE
 40
37.795
  9
$LONGITUDE
 40
-122.394
  9
$NORTHDIRECTION
 40
0.0
  9
$TIMEZONE
 70
 -8000
  9
$LIGHTGLYPHDISPLAY
280
     1
  9
$TILEMODELIGHTSYNCH
280
     1
  9
$CMATERIAL
347
EC
  9
$SOLIDHIST
280
     1
  9
$SHOWHIST
280
     1
  9
$DWFFRAME
280
     2
  9
$DGNFRAME
280
     0
  9
$REALWORLDSCALE
290
     1
  9
$INTERFERECOLOR
 62
     1
  9
$INTERFEREOBJVS
345
F9
  9
$INTERFEREVPVS
346
F6
  9
$CSHADOW
280
     0
  9
$SHADOWPLANELOCATION
 40
0.0
  0
ENDSEC
  0
SECTION
  2
CLASSES
  0
CLASS
  1
ACDBDICTIONARYWDFLT
  2
AcDbDictionaryWithDefault
  3
ObjectDBX Classes
 90
        0
 91
        1
280
     0
281
     0
  0
CLASS
  1
ACDBPLACEHOLDER
  2
AcDbPlaceHolder
  3
ObjectDBX Classes
 90
        0
 91
        1
280
     0
281
     0
  0
CLASS
  1
LAYOUT
  2
AcDbLayout
  3
ObjectDBX Classes
 90
        0
 91
        2
280
     0
281
     0
  0
CLASS
  1
DICTIONARYVAR
  2
AcDbDictionaryVar
  3
ObjectDBX Classes
 90
        0
 91
        7
280
     0
281
     0
  0
CLASS
  1
TABLESTYLE
  2
AcDbTableStyle
  3
ObjectDBX Classes
 90
     4095
 91
        1
280
     0
281
     0
  0
CLASS
  1
MATERIAL
  2
AcDbMaterial
  3
ObjectDBX Classes
 90
     1153
 91
        3
280
     0
281
     0
  0
CLASS
  1
VISUALSTYLE
  2
AcDbVisualStyle
  3
ObjectDBX Classes
 90
     4095
 91
       16
280
     0
281
     0
  0
CLASS
  1
SCALE
  2
AcDbScale
  3
ObjectDBX Classes
 90
     1153
 91
       17
280
     0
281
     0
  0
CLASS
  1
MLEADERSTYLE
  2
AcDbMLeaderStyle
  3
ACDB_MLEADERSTYLE_CLASS
 90
     4095
 91
        1
280
     0
281
     0
  0
CLASS
  1
CELLSTYLEMAP
  2
AcDbCellStyleMap
  3
ObjectDBX Classes
 90
     1152
 91
        2
280
     0
281
     0
  0
CLASS
  1
EXACXREFPANELOBJECT
  2
ExAcXREFPanelObject
  3
EXAC_ESW
 90
    33793
 91
        0
280
     0
281
     0
  0
CLASS
  1
NPOCOLLECTION
  2
AcDbImpNonPersistentObjectsCollection
  3
ObjectDBX Classes
 90
     1153
 91
        0
280
     0
281
     0
  0
CLASS
  1
LAYER_INDEX
  2
AcDbLayerIndex
  3
ObjectDBX Classes
 90
        0
 91
        0
280
     0
281
     0
  0
CLASS
  1
SPATIAL_INDEX
  2
AcDbSpatialIndex
  3
ObjectDBX Classes
 90
        0
 91
        0
280
     0
281
     0
  0
CLASS
  1
IDBUFFER
  2
AcDbIdBuffer
  3
ObjectDBX Classes
 90
        0
 91
        0
280
     0
281
     0
  0
CLASS
  1
RASTERVARIABLES
  2
AcDbRasterVariables
  3
ISM
 90
        0
 91
        2
280
     0
281
     0
  0
CLASS
  1
IMAGEDEF
  2
AcDbRasterImageDef
  3
ISM
 90
        0
 91
        5
280
     0
281
     0
  0
CLASS
  1
IMAGEDEF_REACTOR
  2
AcDbRasterImageDefReactor
  3
ISM
 90
        1
 91
        5
280
     0
281
     0
  0
CLASS
  1
IMAGE
  2
AcDbRasterImage
  3
ISM
 90
     2175
 91
        5
280
     0
281
     1
  0
CLASS
  1
LWPOLYLINE
  2
AcDbPolyline
  3
ObjectDBX Classes
 90
        0
 91
        0
280
     0
281
     1
  0
CLASS
  1
OLE2FRAME
  2
AcDbOle2Frame
  3
ObjectDBX Classes
 90
        0
 91
        0
280
     0
281
     1
  0
CLASS
  1
HATCH
  2
AcDbHatch
  3
ObjectDBX Classes
 90
        0
 91
        0
280
     0
281
     1
  0
CLASS
  1
XRECORD
  2
AcDbXrecord
  3
ObjectDBX Classes
 90
        0
 91
        9
280
     0
281
     0
  0
CLASS
  1
SORTENTSTABLE
  2
AcDbSortentsTable
  3
ObjectDBX Classes
 90
        0
 91
        0
280
     0
281
     0
  0
CLASS
  1
OBJECT_PTR
  2
CAseDLPNTableRecord
  3
"ASE-LPNTableRecord"
 90
    32769
 91
        0
280
     0
281
     0
  0
CLASS
  1
PLOTSETTINGS
  2
AcDbPlotSettings
  3
ObjectDBX Classes
 90
        0
 91
        0
280
     0
281
     0
  0
CLASS
  1
VBA_PROJECT
  2
AcDbVbaProject
  3
acad
 90
        0
 91
        0
280
     0
281
     0
  0
CLASS
  1
WIPEOUT
  2
AcDbWipeout
  3
WipeOut|AutoCAD Express Tool|expresstools@autodesk.com
 90
    32895
 91
        0
280
     0
281
     1
  0
CLASS
  1
WIPEOUTVARIABLES
  2
AcDbWipeoutVariables
  3
WipeOut|AutoCAD Express Tool|expresstools@autodesk.com
 90
    32768
 91
        0
280
     0
281
     0
  0
CLASS
  1
RTEXT
  2
RText
  3
RText|AutoCAD Express Tool|expresstools@autodesk.com
 90
    32768
 91
        0
280
     0
281
     1
  0
CLASS
  1
ARCALIGNEDTEXT
  2
AcDbArcAlignedText
  3
ATEXT|AutoCAD Express Tool|expresstools@autodesk.com
 90
    32768
 91
        0
280
     0
281
     1
  0
ENDSEC
  0
SECTION
  2
TABLES
  0
TABLE
  2
VPORT
  5
8C0
100
AcDbSymbolTable
 70
     1
  0
VPORT
  5
8C1
100
AcDbSymbolTableRecord
100
AcDbViewportTableRecord
  2
*ACTIVE
 70
     0
 10
0.000000
 20
0.000000
 11
1.000000
 21
1.000000
 12
50.000000
 22
50.000000
 13
0.000000
 23
0.000000
 14
1.000000
 24
1.000000
 15
10.000000
 25
10.000000
 16
0.000000
 26
0.000000
 36
1.000000
 17
0.000000
 27
0.000000
 37
0.000000
 40
100.000000
 41
1.387409
 42
50.000000
 43
0.000000
 44
0.000000
 50
0.000000
 51
0.000000
 71
     0
 72
   100
 73
     1
 74
     1
 75
     0
 76
     0
 77
     0
 78
     0
  0
ENDTAB
  0
TABLE
  2
LTYPE
  5
8C2
330
0
100
AcDbSymbolTable
 70
     9
  0
LTYPE
  5
8C3
330
8C2
100
AcDbSymbolTableRecord
100
AcDbLinetypeTableRecord
  2
ByBlock
 70
     0
  3

 72
    65
 73
     0
 40
0.000000
  0
LTYPE
  5
8C4
330
8C2
100
AcDbSymbolTableRecord
100
AcDbLinetypeTableRecord
  2
ByLayer
 70
     0
  3

 72
    65
 73
     0
 40
0.000000
  0
LTYPE
  5
8C5
330
8C2
100
AcDbSymbolTableRecord
100
AcDbLinetypeTableRecord
  2
CONTINUOUS
 70
     0
  3
Solid line
 72
    65
 73
     0
 40
0.000000
  0
LTYPE
  5
8C6
330
8C2
100
AcDbSymbolTableRecord
100
AcDbLinetypeTableRecord
  2
HIDDEN
 70
     0
  3
_ _ _ _ _ _ _ _ _ _ _ _ _ _ _ _ _ _ _ _ _ _ _
 72
    65
 73
     2
 40
0.375000
 49
0.250000
 74
     0
 49
-0.125000
 74
     0
  0
LTYPE
  5
8C7
330
8C2
100
AcDbSymbolTableRecord
100
AcDbLinetypeTableRecord
  2
DOT
 70
     0
  3
...............................................
 72
    65
 73
     2
 40
0.250000
 49
0.000000
 74
     0
 49
-0.250000
 74
     0
  0
LTYPE
  5
8C8
330
8C2
100
AcDbSymbolTableRecord
100
AcDbLinetypeTableRecord
  2
DASHED
 70
     0
  3
__ __ __ __ __ __ __ __ __ __ __ __ __ __ __ 
 72
    65
 73
     2
 40
0.750000
 49
0.500000
 74
     0
 49
-0.250000
 74
     0
  0
LTYPE
  5
8C9
330
8C2
100
AcDbSymbolTableRecord
100
AcDbLinetypeTableRecord
  2
DIVIDE
 70
     0
  3
__ . . __ . . __ . . __ . . __ . . __ . . __
 72
    65
 73
     6
 40
1.250000
 49
0.500000
 74
     0
 49
-0.250000
 74
     0
 49
0.000000
 74
     0
 49
-0.250000
 74
     0
 49
0.000000
 74
     0
 49
-0.250000
 74
     0
  0
LTYPE
  5
8CA
330
8C2
100
AcDbSymbolTableRecord
100
AcDbLinetypeTableRecord
  2
DASHDOT
 70
     0
  3
__ . __ . __ . __ . __ . __ . __ . __ . __ . __
 72
    65
 73
     4
 40
1.000000
 49
0.500000
 74
     0
 49
-0.250000
 74
     0
 49
0.000000
 74
     0
 49
-0.250000
 74
     0
  0
LTYPE
  5
8CB
330
8C2
100
AcDbSymbolTableRecord
100
AcDbLinetypeTableRecord
  2
BORDER
 70
     0
  3
__ __ . __ __ . __ __ . __ __ . __ __ . __ __
 72
    65
 73
     6
 40
1.750000
 49
0.500000
 74
     0
 49
-0.250000
 74
     0
 49
0.500000
 74
     0
 49
-0.250000
 74
     0
 49
0.000000
 74
     0
 49
-0.250000
 74
     0
  0
LTYPE
  5
8CC
330
8C2
100
AcDbSymbolTableRecord
100
AcDbLinetypeTableRecord
  2
CENTER
 70
     0
  3
____ _ ____ _ ____ _ ____ _ ____ _ ____ _ ____
 72
    65
 73
     4
 40
2.000000
 49
1.250000
 74
     0
 49
-0.250000
 74
     0
 49
0.250000
 74
     0
 49
-0.250000
 74
     0
  0
LTYPE
  5
8CD
330
8C2
100
AcDbSymbolTableRecord
100
AcDbLinetypeTableRecord
  2
PHANTOM
 70
     0
  3
_____ _ _ _____ _ _ _____ _ _ _____ _ _ ____
 72
    65
 73
     6
 40
2.500000
 49
1.250000
 74
     0
 49
-0.250000
 74
     0
 49
0.250000
 74
     0
 49
-0.250000
 74
     0
 49
0.250000
 74
     0
 49
-0.250000
 74
     0
  0
ENDTAB
  0
TABLE
  2
LAYER
  5
8CE
100
AcDbSymbolTable
 70
     4
  0
LAYER
  5
8CF
100
AcDbSymbolTableRecord
100
AcDbLayerTableRecord
  2
0
 70
     0
 62
     7
  6
CONTINUOUS
370
    -3
390
     0
  0
LAYER
  5
8D0
100
AcDbSymbolTableRecord
100
AcDbLayerTableRecord
  2
L
 70
     0
 62
     7
  6
CONTINUOUS
370
    -3
390
     0
  0
LAYER
  5
8D1
100
AcDbSymbolTableRecord
100
AcDbLayerTableRecord
  2
Detail
 70
     0
 62
     7
  6
CONTINUOUS
370
    -3
390
     0
  0
LAYER
  5
8D2
100
AcDbSymbolTableRecord
100
AcDbLayerTableRecord
  2
SCHRAFF
 70
     0
 62
     7
  6
CONTINUOUS
370
    -3
390
     0
  0
ENDTAB
  0
TABLE
  2
STYLE
  5
8D3
100
AcDbSymbolTable
 70
     2
  0
STYLE
  5
201
100
AcDbSymbolTableRecord
100
AcDbTextStyleTableRecord
  2
STANDARD
 70
     0
 40
0.000000
 41
1.000000
 50
0.000000
 71
     0
 42
3.500000
  3
txt
  4

  0
STYLE
  5
406
100
AcDbSymbolTableRecord
100
AcDbTextStyleTableRecord
  2
Arial
 70
     0
 40
0.000000
 41
1.000000
 50
0.000000
 71
     0
 42
3.500000
  3
Arial.ttf
  4

1001
ACAD
1000
Arial
1071
     0
  0
ENDTAB
  0
TABLE
  2
DIMSTYLE
  5
8D4
100
AcDbSymbolTable
 70
     0
100
AcDbDimStyleTable
  0
ENDTAB
  0
TABLE
  2
VIEW
  5
8D5
100
AcDbSymbolTable
 70
     0
  0
ENDTAB
  0
TABLE
  2
UCS
  5
8D6
100
AcDbSymbolTable
 70
     0
  0
ENDTAB
  0
TABLE
  2
APPID
  5
8D7
100
AcDbSymbolTable
 70
     1
  0
APPID
  5
8D8
100
AcDbSymbolTableRecord
100
AcDbRegAppTableRecord
  2
ACAD
 70
     0
  0
ENDTAB
  0
TABLE
  2
BLOCK_RECORD
  5
8D9
100
AcDbSymbolTable
 70
   127
  0
BLOCK_RECORD
  5
202
102
{ACAD_XDICTIONARY
360
203
102
}
100
AcDbSymbolTableRecord
100
AcDbBlockTableRecord
  2
*Model_Space
  0
BLOCK_RECORD
  5
8DA
100
AcDbSymbolTableRecord
100
AcDbBlockTableRecord
  2
*Paper_Space
  0
BLOCK_RECORD
  5
8DB
100
AcDbSymbolTableRecord
100
AcDbBlockTableRecord
  2
*Paper_Space0
  0
BLOCK_RECORD
  5
8DC
100
AcDbSymbolTableRecord
100
AcDbBlockTableRecord
  2
B
  0
BLOCK_RECORD
  5
8DD
100
AcDbSymbolTableRecord
100
AcDbBlockTableRecord
  2
B-2
  0
BLOCK_RECORD
  5
8DE
100
AcDbSymbolTableRecord
100
AcDbBlockTableRecord
  2
B-3
  0
BLOCK_RECORD
  5
8DF
100
AcDbSymbolTableRecord
100
AcDbBlockTableRecord
  2
B-4
  0
BLOCK_RECORD
  5
8E0
100
AcDbSymbolTableRecord
100
AcDbBlockTableRecord
  2
B-5
  0
BLOCK_RECORD
  5
8E1
100
AcDbSymbolTableRecord
100
AcDbBlockTableRecord
  2
B-6
  0
BLOCK_RECORD
  5
8E2
100
AcDbSymbolTableRecord
100
AcDbBlockTableRecord
  2
B-7
  0
BLOCK_RECORD
  5
8E3
100
AcDbSymbolTableRecord
100
AcDbBlockTableRecord
  2
B-8
  0
BLOCK_RECORD
  5
8E4
100
AcDbSymbolTableRecord
100
AcDbBlockTableRecord
  2
B-9
  0
BLOCK_RECORD
  5
8E5
100
AcDbSymbolTableRecord
100
AcDbBlockTableRecord
  2
B-10
  0
BLOCK_RECORD
  5
8E6
100
AcDbSymbolTableRecord
100
AcDbBlockTableRecord
  2
B-11
  0
BLOCK_RECORD
  5
8E7
100
AcDbSymbolTableRecord
100
AcDbBlockTableRecord
  2
B-12
  0
BLOCK_RECORD
  5
8E8
100
AcDbSymbolTableRecord
100
AcDbBlockTableRecord
  2
B-13
  0
BLOCK_RECORD
  5
8E9
100
AcDbSymbolTableRecord
100
AcDbBlockTableRecord
  2
B-14
  0
BLOCK_RECORD
  5
8EA
100
AcDbSymbolTableRecord
100
AcDbBlockTableRecord
  2
B-15
  0
BLOCK_RECORD
  5
8EB
100
AcDbSymbolTableRecord
100
AcDbBlockTableRecord
  2
B-16
  0
BLOCK_RECORD
  5
8EC
100
AcDbSymbolTableRecord
100
AcDbBlockTableRecord
  2
B-17
  0
BLOCK_RECORD
  5
8ED
100
AcDbSymbolTableRecord
100
AcDbBlockTableRecord
  2
B-18
  0
BLOCK_RECORD
  5
8EE
100
AcDbSymbolTableRecord
100
AcDbBlockTableRecord
  2
B-19
  0
BLOCK_RECORD
  5
8EF
100
AcDbSymbolTableRecord
100
AcDbBlockTableRecord
  2
B-20
  0
BLOCK_RECORD
  5
8F0
100
AcDbSymbolTableRecord
100
AcDbBlockTableRecord
  2
B-21
  0
BLOCK_RECORD
  5
8F1
100
AcDbSymbolTableRecord
100
AcDbBlockTableRecord
  2
B-22
  0
BLOCK_RECORD
  5
8F2
100
AcDbSymbolTableRecord
100
AcDbBlockTableRecord
  2
B-23
  0
BLOCK_RECORD
  5
8F3
100
AcDbSymbolTableRecord
100
AcDbBlockTableRecord
  2
B-24
  0
BLOCK_RECORD
  5
8F4
100
AcDbSymbolTableRecord
100
AcDbBlockTableRecord
  2
B-25
  0
BLOCK_RECORD
  5
8F5
100
AcDbSymbolTableRecord
100
AcDbBlockTableRecord
  2
B-26
  0
BLOCK_RECORD
  5
8F6
100
AcDbSymbolTableRecord
100
AcDbBlockTableRecord
  2
B-27
  0
BLOCK_RECORD
  5
8F7
100
AcDbSymbolTableRecord
100
AcDbBlockTableRecord
  2
B-28
  0
BLOCK_RECORD
  5
8F8
100
AcDbSymbolTableRecord
100
AcDbBlockTableRecord
  2
B-29
  0
BLOCK_RECORD
  5
8F9
100
AcDbSymbolTableRecord
100
AcDbBlockTableRecord
  2
B-30
  0
BLOCK_RECORD
  5
8FA
100
AcDbSymbolTableRecord
100
AcDbBlockTableRecord
  2
B-31
  0
BLOCK_RECORD
  5
8FB
100
AcDbSymbolTableRecord
100
AcDbBlockTableRecord
  2
B-32
  0
BLOCK_RECORD
  5
8FC
100
AcDbSymbolTableRecord
100
AcDbBlockTableRecord
  2
B-33
  0
BLOCK_RECORD
  5
8FD
100
AcDbSymbolTableRecord
100
AcDbBlockTableRecord
  2
B-34
  0
BLOCK_RECORD
  5
8FE
100
AcDbSymbolTableRecord
100
AcDbBlockTableRecord
  2
B-35
  0
BLOCK_RECORD
  5
8FF
100
AcDbSymbolTableRecord
100
AcDbBlockTableRecord
  2
B-36
  0
BLOCK_RECORD
  5
900
100
AcDbSymbolTableRecord
100
AcDbBlockTableRecord
  2
B-37
  0
BLOCK_RECORD
  5
901
100
AcDbSymbolTableRecord
100
AcDbBlockTableRecord
  2
B-38
  0
BLOCK_RECORD
  5
902
100
AcDbSymbolTableRecord
100
AcDbBlockTableRecord
  2
B-39
  0
BLOCK_RECORD
  5
903
100
AcDbSymbolTableRecord
100
AcDbBlockTableRecord
  2
B-40
  0
BLOCK_RECORD
  5
904
100
AcDbSymbolTableRecord
100
AcDbBlockTableRecord
  2
B-41
  0
BLOCK_RECORD
  5
905
100
AcDbSymbolTableRecord
100
AcDbBlockTableRecord
  2
B-42
  0
BLOCK_RECORD
  5
906
100
AcDbSymbolTableRecord
100
AcDbBlockTableRecord
  2
B-43
  0
BLOCK_RECORD
  5
907
100
AcDbSymbolTableRecord
100
AcDbBlockTableRecord
  2
B-44
  0
BLOCK_RECORD
  5
908
100
AcDbSymbolTableRecord
100
AcDbBlockTableRecord
  2
B-45
  0
BLOCK_RECORD
  5
909
100
AcDbSymbolTableRecord
100
AcDbBlockTableRecord
  2
B-46
  0
BLOCK_RECORD
  5
90A
100
AcDbSymbolTableRecord
100
AcDbBlockTableRecord
  2
B-47
  0
BLOCK_RECORD
  5
90B
100
AcDbSymbolTableRecord
100
AcDbBlockTableRecord
  2
B-48
  0
BLOCK_RECORD
  5
90C
100
AcDbSymbolTableRecord
100
AcDbBlockTableRecord
  2
B-49
  0
BLOCK_RECORD
  5
90D
100
AcDbSymbolTableRecord
100
AcDbBlockTableRecord
  2
B-50
  0
BLOCK_RECORD
  5
90E
100
AcDbSymbolTableRecord
100
AcDbBlockTableRecord
  2
B-51
  0
BLOCK_RECORD
  5
90F
100
AcDbSymbolTableRecord
100
AcDbBlockTableRecord
  2
B-52
  0
BLOCK_RECORD
  5
910
100
AcDbSymbolTableRecord
100
AcDbBlockTableRecord
  2
B-53
  0
BLOCK_RECORD
  5
911
100
AcDbSymbolTableRecord
100
AcDbBlockTableRecord
  2
B-54
  0
BLOCK_RECORD
  5
912
100
AcDbSymbolTableRecord
100
AcDbBlockTableRecord
  2
B-55
  0
BLOCK_RECORD
  5
913
100
AcDbSymbolTableRecord
100
AcDbBlockTableRecord
  2
B-56
  0
BLOCK_RECORD
  5
914
100
AcDbSymbolTableRecord
100
AcDbBlockTableRecord
  2
B-57
  0
BLOCK_RECORD
  5
915
100
AcDbSymbolTableRecord
100
AcDbBlockTableRecord
  2
B-58
  0
BLOCK_RECORD
  5
916
100
AcDbSymbolTableRecord
100
AcDbBlockTableRecord
  2
B-59
  0
BLOCK_RECORD
  5
917
100
AcDbSymbolTableRecord
100
AcDbBlockTableRecord
  2
B-60
  0
BLOCK_RECORD
  5
918
100
AcDbSymbolTableRecord
100
AcDbBlockTableRecord
  2
B-61
  0
BLOCK_RECORD
  5
919
100
AcDbSymbolTableRecord
100
AcDbBlockTableRecord
  2
B-62
  0
BLOCK_RECORD
  5
91A
100
AcDbSymbolTableRecord
100
AcDbBlockTableRecord
  2
B-63
  0
BLOCK_RECORD
  5
91B
100
AcDbSymbolTableRecord
100
AcDbBlockTableRecord
  2
B-64
  0
BLOCK_RECORD
  5
91C
100
AcDbSymbolTableRecord
100
AcDbBlockTableRecord
  2
B-65
  0
BLOCK_RECORD
  5
91D
100
AcDbSymbolTableRecord
100
AcDbBlockTableRecord
  2
B-66
  0
BLOCK_RECORD
  5
91E
100
AcDbSymbolTableRecord
100
AcDbBlockTableRecord
  2
B-67
  0
BLOCK_RECORD
  5
91F
100
AcDbSymbolTableRecord
100
AcDbBlockTableRecord
  2
B-69
  0
BLOCK_RECORD
  5
920
100
AcDbSymbolTableRecord
100
AcDbBlockTableRecord
  2
B-70
  0
BLOCK_RECORD
  5
921
100
AcDbSymbolTableRecord
100
AcDbBlockTableRecord
  2
B-71
  0
BLOCK_RECORD
  5
922
100
AcDbSymbolTableRecord
100
AcDbBlockTableRecord
  2
B-72
  0
BLOCK_RECORD
  5
923
100
AcDbSymbolTableRecord
100
AcDbBlockTableRecord
  2
B-73
  0
BLOCK_RECORD
  5
924
100
AcDbSymbolTableRecord
100
AcDbBlockTableRecord
  2
B-74
  0
BLOCK_RECORD
  5
925
100
AcDbSymbolTableRecord
100
AcDbBlockTableRecord
  2
B-75
  0
BLOCK_RECORD
  5
926
100
AcDbSymbolTableRecord
100
AcDbBlockTableRecord
  2
B-77
  0
BLOCK_RECORD
  5
927
100
AcDbSymbolTableRecord
100
AcDbBlockTableRecord
  2
B-78
  0
BLOCK_RECORD
  5
928
100
AcDbSymbolTableRecord
100
AcDbBlockTableRecord
  2
B-79
  0
BLOCK_RECORD
  5
929
100
AcDbSymbolTableRecord
100
AcDbBlockTableRecord
  2
B-80
  0
BLOCK_RECORD
  5
92A
100
AcDbSymbolTableRecord
100
AcDbBlockTableRecord
  2
B-81
  0
BLOCK_RECORD
  5
92B
100
AcDbSymbolTableRecord
100
AcDbBlockTableRecord
  2
B-82
  0
BLOCK_RECORD
  5
92C
100
AcDbSymbolTableRecord
100
AcDbBlockTableRecord
  2
B-83
  0
BLOCK_RECORD
  5
92D
100
AcDbSymbolTableRecord
100
AcDbBlockTableRecord
  2
B-84
  0
BLOCK_RECORD
  5
92E
100
AcDbSymbolTableRecord
100
AcDbBlockTableRecord
  2
B-85
  0
BLOCK_RECORD
  5
92F
100
AcDbSymbolTableRecord
100
AcDbBlockTableRecord
  2
B-86
  0
BLOCK_RECORD
  5
930
100
AcDbSymbolTableRecord
100
AcDbBlockTableRecord
  2
B-87
  0
BLOCK_RECORD
  5
931
100
AcDbSymbolTableRecord
100
AcDbBlockTableRecord
  2
B-88
  0
BLOCK_RECORD
  5
932
100
AcDbSymbolTableRecord
100
AcDbBlockTableRecord
  2
B-89
  0
BLOCK_RECORD
  5
933
100
AcDbSymbolTableRecord
100
AcDbBlockTableRecord
  2
B-90
  0
BLOCK_RECORD
  5
934
100
AcDbSymbolTableRecord
100
AcDbBlockTableRecord
  2
B-91
  0
BLOCK_RECORD
  5
935
100
AcDbSymbolTableRecord
100
AcDbBlockTableRecord
  2
B-93
  0
BLOCK_RECORD
  5
936
100
AcDbSymbolTableRecord
100
AcDbBlockTableRecord
  2
B-94
  0
BLOCK_RECORD
  5
937
100
AcDbSymbolTableRecord
100
AcDbBlockTableRecord
  2
B-95
  0
BLOCK_RECORD
  5
938
100
AcDbSymbolTableRecord
100
AcDbBlockTableRecord
  2
B-96
  0
BLOCK_RECORD
  5
939
100
AcDbSymbolTableRecord
100
AcDbBlockTableRecord
  2
B-97
  0
BLOCK_RECORD
  5
93A
100
AcDbSymbolTableRecord
100
AcDbBlockTableRecord
  2
B-98
  0
BLOCK_RECORD
  5
93B
100
AcDbSymbolTableRecord
100
AcDbBlockTableRecord
  2
B-99
  0
BLOCK_RECORD
  5
93C
100
AcDbSymbolTableRecord
100
AcDbBlockTableRecord
  2
B-100
  0
BLOCK_RECORD
  5
93D
100
AcDbSymbolTableRecord
100
AcDbBlockTableRecord
  2
B-101
  0
BLOCK_RECORD
  5
93E
100
AcDbSymbolTableRecord
100
AcDbBlockTableRecord
  2
B-102
  0
BLOCK_RECORD
  5
93F
100
AcDbSymbolTableRecord
100
AcDbBlockTableRecord
  2
B-103
  0
BLOCK_RECORD
  5
940
100
AcDbSymbolTableRecord
100
AcDbBlockTableRecord
  2
B-104
  0
BLOCK_RECORD
  5
941
100
AcDbSymbolTableRecord
100
AcDbBlockTableRecord
  2
B-105
  0
BLOCK_RECORD
  5
942
100
AcDbSymbolTableRecord
100
AcDbBlockTableRecord
  2
B-106
  0
BLOCK_RECORD
  5
943
100
AcDbSymbolTableRecord
100
AcDbBlockTableRecord
  2
B-107
  0
BLOCK_RECORD
  5
944
100
AcDbSymbolTableRecord
100
AcDbBlockTableRecord
  2
B-108
  0
BLOCK_RECORD
  5
945
100
AcDbSymbolTableRecord
100
AcDbBlockTableRecord
  2
B-109
  0
BLOCK_RECORD
  5
946
100
AcDbSymbolTableRecord
100
AcDbBlockTableRecord
  2
B-110
  0
BLOCK_RECORD
  5
947
100
AcDbSymbolTableRecord
100
AcDbBlockTableRecord
  2
B-111
  0
BLOCK_RECORD
  5
948
100
AcDbSymbolTableRecord
100
AcDbBlockTableRecord
  2
B-112
  0
BLOCK_RECORD
  5
949
100
AcDbSymbolTableRecord
100
AcDbBlockTableRecord
  2
B-113
  0
BLOCK_RECORD
  5
94A
100
AcDbSymbolTableRecord
100
AcDbBlockTableRecord
  2
B-114
  0
BLOCK_RECORD
  5
94B
100
AcDbSymbolTableRecord
100
AcDbBlockTableRecord
  2
B-115
  0
BLOCK_RECORD
  5
94C
100
AcDbSymbolTableRecord
100
AcDbBlockTableRecord
  2
B-116
  0
BLOCK_RECORD
  5
94D
100
AcDbSymbolTableRecord
100
AcDbBlockTableRecord
  2
B-117
  0
BLOCK_RECORD
  5
94E
100
AcDbSymbolTableRecord
100
AcDbBlockTableRecord
  2
B-118
  0
BLOCK_RECORD
  5
94F
100
AcDbSymbolTableRecord
100
AcDbBlockTableRecord
  2
B-119
  0
BLOCK_RECORD
  5
950
100
AcDbSymbolTableRecord
100
AcDbBlockTableRecord
  2
B-120
  0
BLOCK_RECORD
  5
951
100
AcDbSymbolTableRecord
100
AcDbBlockTableRecord
  2
B-121
  0
BLOCK_RECORD
  5
952
100
AcDbSymbolTableRecord
100
AcDbBlockTableRecord
  2
B-122
  0
BLOCK_RECORD
  5
953
100
AcDbSymbolTableRecord
100
AcDbBlockTableRecord
  2
B-123
  0
BLOCK_RECORD
  5
954
100
AcDbSymbolTableRecord
100
AcDbBlockTableRecord
  2
B-124
  0
BLOCK_RECORD
  5
955
100
AcDbSymbolTableRecord
100
AcDbBlockTableRecord
  2
B-125
  0
BLOCK_RECORD
  5
956
100
AcDbSymbolTableRecord
100
AcDbBlockTableRecord
  2
B-126
  0
BLOCK_RECORD
  5
957
100
AcDbSymbolTableRecord
100
AcDbBlockTableRecord
  2
B-127
  0
ENDTAB
  0
ENDSEC
  0
SECTION
  2
BLOCKS
  0
BLOCK
  5
204
100
AcDbEntity
  8
0
100
AcDbBlockBegin
  2
*Model_Space
 70
     0
 10
0.000000
 20
0.000000
 30
0.000000
  3
*Model_Space
  1

  0
ENDBLK
  5
205
100
AcDbEntity
  8
0
100
AcDbBlockEnd
  0
BLOCK
  5
206
100
AcDbEntity
 67
     1
  8
0
100
AcDbBlockBegin
  2
*Paper_Space
 70
     0
 10
0.000000
 20
0.000000
 30
0.000000
  3
*Paper_Space
  1

  0
ENDBLK
  5
207
100
AcDbEntity
 67
     1
  8
0
100
AcDbBlockEnd
  0
BLOCK
  5
208
100
AcDbEntity
 67
     1
  8
0
100
AcDbBlockBegin
  2
*Paper_Space0
 70
     0
 10
0.000000
 20
0.000000
 30
0.000000
  3
*Paper_Space0
  1

  0
ENDBLK
  5
209
100
AcDbEntity
 67
     1
  8
0
100
AcDbBlockEnd
  0
BLOCK
  5
20A
100
AcDbEntity
  8
SCHRAFF
100
AcDbBlockBegin
  2
B
 70
    66
 10
0.000000
 20
0.000000
 30
0.000000
  0
HATCH
  5
20B
100
AcDbEntity
  8
SCHRAFF
 62
   254
440
     0
100
AcDbHatch
 10
0.000000
 20
0.000000
 30
0.000000
210
0.000000
220
0.000000
230
1.000000
  2
SOLID
 70
     1
 71
     1
 91
     1
 92
    18
 72
     1
 73
     0
 93
     5
 10
-67.500018
 20
-21.249941
 42
0.000000
 10
-150.500018
 20
-21.249941
 42
0.000000
 10
-150.500018
 20
-23.249882
 42
0.000000
 10
-67.500018
 20
-23.249882
 42
0.000000
 10
-67.500018
 20
-21.249941
 42
0.000000
 97
     0
 75
     0
 76
     1
 98
     0
  0
ENDBLK
  5
20C
100
AcDbEntity
  8
0
100
AcDbBlockEnd
  0
BLOCK
  5
20D
100
AcDbEntity
  8
L
100
AcDbBlockBegin
  2
B-2
 70
    66
 10
0.000000
 20
0.000000
 30
0.000000
  0
LWPOLYLINE
  5
20E
100
AcDbEntity
  8
L
  6
CONTINUOUS
 62
     6
100
AcDbPolyline
 90
     5
 10
-150.500018
 20
-21.249999
 42
0.000000
 10
-67.500018
 20
-21.249999
 42
0.000000
 10
-67.500018
 20
-23.249941
 42
0.000000
 10
-150.500018
 20
-23.249941
 42
0.000000
 10
-150.500018
 20
-21.249999
 42
0.000000
  0
ENDBLK
  5
214
100
AcDbEntity
  8
0
100
AcDbBlockEnd
  0
BLOCK
  5
215
100
AcDbEntity
  8
SCHRAFF
100
AcDbBlockBegin
  2
B-3
 70
    66
 10
0.000000
 20
0.000000
 30
0.000000
  0
HATCH
  5
216
100
AcDbEntity
  8
SCHRAFF
 62
   254
440
     0
100
AcDbHatch
 10
0.000000
 20
0.000000
 30
0.000000
210
0.000000
220
0.000000
230
1.000000
  2
SOLID
 70
     1
 71
     1
 91
     1
 92
    18
 72
     1
 73
     0
 93
     5
 10
-152.500018
 20
-21.249999
 42
0.000000
 10
-152.500018
 20
-131.249941
 42
0.000000
 10
-150.500018
 20
-131.249941
 42
0.000000
 10
-150.500018
 20
-21.249999
 42
0.000000
 10
-152.500018
 20
-21.249999
 42
0.000000
 97
     0
 75
     0
 76
     1
 98
     0
  0
ENDBLK
  5
217
100
AcDbEntity
  8
0
100
AcDbBlockEnd
  0
BLOCK
  5
218
100
AcDbEntity
  8
Detail
100
AcDbBlockBegin
  2
B-4
 70
    66
 10
0.000000
 20
0.000000
 30
0.000000
  0
LWPOLYLINE
  5
219
100
AcDbEntity
  8
Detail
  6
CONTINUOUS
 62
     6
100
AcDbPolyline
 90
     5
 10
-150.500018
 20
-131.249941
 42
0.000000
 10
-152.500018
 20
-131.249941
 42
0.000000
 10
-152.500018
 20
-21.249999
 42
0.000000
 10
-150.500018
 20
-21.249999
 42
0.000000
 10
-150.500018
 20
-131.249941
 42
0.000000
  0
ENDBLK
  5
21F
100
AcDbEntity
  8
0
100
AcDbBlockEnd
  0
BLOCK
  5
220
100
AcDbEntity
  8
SCHRAFF
100
AcDbBlockBegin
  2
B-5
 70
    66
 10
0.000000
 20
0.000000
 30
0.000000
  0
HATCH
  5
221
100
AcDbEntity
  8
SCHRAFF
 62
     8
440
     0
100
AcDbHatch
 10
0.000000
 20
0.000000
 30
0.000000
210
0.000000
220
0.000000
230
1.000000
  2
SOLID
 70
     1
 71
     1
 91
     1
 92
    18
 72
     1
 73
     0
 93
     5
 10
144.499982
 20
-39.249941
 42
0.000000
 10
144.499982
 20
-31.249941
 42
-0.400000
 10
134.499982
 20
-31.249941
 42
0.000000
 10
134.499982
 20
-39.249941
 42
0.000000
 10
144.499982
 20
-39.249941
 42
0.000000
 97
     0
 75
     0
 76
     1
 98
     0
  0
ENDBLK
  5
222
100
AcDbEntity
  8
0
100
AcDbBlockEnd
  0
BLOCK
  5
223
100
AcDbEntity
  8
SCHRAFF
100
AcDbBlockBegin
  2
B-6
 70
    66
 10
0.000000
 20
0.000000
 30
0.000000
  0
HATCH
  5
224
100
AcDbEntity
  8
SCHRAFF
 62
     8
440
     0
100
AcDbHatch
 10
0.000000
 20
0.000000
 30
0.000000
210
0.000000
220
0.000000
230
1.000000
  2
SOLID
 70
     1
 71
     1
 91
     1
 92
    18
 72
     1
 73
     0
 93
     8
 10
-60.500018
 20
-31.249941
 42
0.000000
 10
-47.500018
 20
-31.249941
 42
-0.400000
 10
-47.500018
 20
-21.249941
 42
0.000000
 10
-49.500018
 20
-21.249941
 42
0.000000
 10
-57.500018
 20
-21.249941
 42
0.000000
 10
-59.500018
 20
-21.249941
 42
0.000000
 10
-60.500018
 20
-21.249941
 42
-1.000000
 10
-60.500018
 20
-31.249941
 42
0.000000
 97
     0
 75
     0
 76
     1
 98
     0
  0
ENDBLK
  5
225
100
AcDbEntity
  8
0
100
AcDbBlockEnd
  0
BLOCK
  5
226
100
AcDbEntity
  8
SCHRAFF
100
AcDbBlockBegin
  2
B-7
 70
    66
 10
0.000000
 20
0.000000
 30
0.000000
  0
HATCH
  5
227
100
AcDbEntity
  8
SCHRAFF
 62
     8
440
     0
100
AcDbHatch
 10
0.000000
 20
0.000000
 30
0.000000
210
0.000000
220
0.000000
230
1.000000
  2
SOLID
 70
     1
 71
     1
 91
     1
 92
    18
 72
     1
 73
     0
 93
     5
 10
-47.500017
 20
178.750061
 42
-0.400000
 10
-47.500017
 20
188.750061
 42
0.000000
 10
-55.500017
 20
188.750061
 42
0.000000
 10
-55.500017
 20
178.750061
 42
0.000000
 10
-47.500017
 20
178.750061
 42
0.000000
 97
     0
 75
     0
 76
     1
 98
     0
  0
ENDBLK
  5
228
100
AcDbEntity
  8
0
100
AcDbBlockEnd
  0
BLOCK
  5
229
100
AcDbEntity
  8
SCHRAFF
100
AcDbBlockBegin
  2
B-8
 70
    66
 10
0.000000
 20
0.000000
 30
0.000000
  0
IMAGE
  5
22A
100
AcDbEntity
  8
SCHRAFF
100
AcDbRasterImage
 10
140.969928
 20
-349.249941
 30
0.000000
 11
0.204938
 21
-0.000000
 31
0.000000
 12
-0.000000
 22
0.204938
 32
-0.000000
 13
395.000000
 23
405.000000
340
22B
 70
     7
280
     0
281
    50
282
    50
283
     0
360
22C
 71
     1
 91
     2
 14
-0.500000
 24
-0.500000
 14
394.500000
 24
404.500000
  0
ENDBLK
  5
22D
100
AcDbEntity
  8
0
100
AcDbBlockEnd
  0
BLOCK
  5
22E
100
AcDbEntity
  8
SCHRAFF
100
AcDbBlockBegin
  2
B-9
 70
    66
 10
0.000000
 20
0.000000
 30
0.000000
  0
HATCH
  5
22F
100
AcDbEntity
  8
SCHRAFF
 62
   254
440
     0
100
AcDbHatch
 10
0.000000
 20
0.000000
 30
0.000000
210
0.000000
220
0.000000
230
1.000000
  2
SOLID
 70
     1
 71
     1
 91
     1
 92
    18
 72
     1
 73
     0
 93
     5
 10
-152.500018
 20
-21.249999
 42
0.000000
 10
-147.500018
 20
-21.249999
 42
0.000000
 10
-147.500018
 20
296.250078
 42
0.000000
 10
-152.500018
 20
296.250078
 42
0.000000
 10
-152.500018
 20
-21.249999
 42
0.000000
 97
     0
 75
     0
 76
     1
 98
     0
  0
ENDBLK
  5
230
100
AcDbEntity
  8
0
100
AcDbBlockEnd
  0
BLOCK
  5
231
100
AcDbEntity
  8
Detail
100
AcDbBlockBegin
  2
B-10
 70
    66
 10
0.000000
 20
0.000000
 30
0.000000
  0
LWPOLYLINE
  5
232
100
AcDbEntity
  8
Detail
  6
CONTINUOUS
 62
     6
100
AcDbPolyline
 90
     4
 10
-152.500018
 20
296.250078
 42
0.000000
 10
-152.500018
 20
-21.249999
 42
0.000000
 10
-147.500018
 20
-21.249999
 42
0.000000
 10
-147.500018
 20
296.250078
 42
0.000000
  0
ENDBLK
  5
237
100
AcDbEntity
  8
0
100
AcDbBlockEnd
  0
BLOCK
  5
238
100
AcDbEntity
  8
SCHRAFF
100
AcDbBlockBegin
  2
B-11
 70
    66
 10
0.000000
 20
0.000000
 30
0.000000
  0
HATCH
  5
239
100
AcDbEntity
  8
SCHRAFF
 62
   254
440
     0
100
AcDbHatch
 10
0.000000
 20
0.000000
 30
0.000000
210
0.000000
220
0.000000
230
1.000000
  2
SOLID
 70
     1
 71
     1
 91
     1
 92
    18
 72
     1
 73
     0
 93
     6
 10
-152.500018
 20
-136.249941
 42
0.000000
 10
212.500023
 20
-136.249941
 42
0.000000
 10
212.500023
 20
-131.249941
 42
0.000000
 10
-147.500018
 20
-131.249941
 42
0.000000
 10
-152.500018
 20
-131.249941
 42
0.000000
 10
-152.500018
 20
-136.249941
 42
0.000000
 97
     0
 75
     0
 76
     1
 98
     0
  0
ENDBLK
  5
23A
100
AcDbEntity
  8
0
100
AcDbBlockEnd
  0
BLOCK
  5
23B
100
AcDbEntity
  8
Detail
100
AcDbBlockBegin
  2
B-12
 70
    66
 10
0.000000
 20
0.000000
 30
0.000000
  0
LWPOLYLINE
  5
23C
100
AcDbEntity
  8
Detail
  6
CONTINUOUS
 62
     6
100
AcDbPolyline
 90
     4
 10
212.500023
 20
-131.249941
 42
0.000000
 10
-152.500018
 20
-131.249941
 42
0.000000
 10
-152.500018
 20
-136.249941
 42
0.000000
 10
212.500023
 20
-136.249941
 42
0.000000
  0
ENDBLK
  5
241
100
AcDbEntity
  8
0
100
AcDbBlockEnd
  0
BLOCK
  5
242
100
AcDbEntity
  8
SCHRAFF
100
AcDbBlockBegin
  2
B-13
 70
    66
 10
0.000000
 20
0.000000
 30
0.000000
  0
HATCH
  5
243
100
AcDbEntity
  8
SCHRAFF
 62
    61
440
     0
100
AcDbHatch
 10
0.000000
 20
0.000000
 30
0.000000
210
0.000000
220
0.000000
230
1.000000
  2
SOLID
 70
     1
 71
     1
 91
     1
 92
    18
 72
     1
 73
     0
 93
     5
 10
-67.500018
 20
-23.249941
 42
0.000000
 10
-150.500018
 20
-23.249941
 42
0.000000
 10
-150.500018
 20
-43.249941
 42
0.000000
 10
-67.500018
 20
-43.249941
 42
0.000000
 10
-67.500018
 20
-23.249941
 42
0.000000
 97
     0
 75
     0
 76
     1
 98
     0
  0
LWPOLYLINE
  5
244
100
AcDbEntity
  8
SCHRAFF
  6
CONTINUOUS
 62
     9
100
AcDbPolyline
 90
    15
 10
-67.500018
 20
-43.249941
 42
-0.203120
 10
-70.760567
 20
-41.942383
 42
-0.194712
 10
-72.111132
 20
-38.785652
 42
-0.098497
 10
-71.739387
 20
-37.029543
 42
0.000000
 10
-67.982745
 20
-29.702797
 42
0.112695
 10
-67.500018
 20
-27.714228
 42
0.194712
 10
-68.850583
 20
-24.557498
 42
0.203120
 10
-72.111133
 20
-23.249941
 42
0.203120
 10
-75.371679
 20
-24.557503
 42
0.194711
 10
-76.722240
 20
-27.714228
 42
0.112695
 10
-76.239512
 20
-29.702797
 42
0.000000
 10
-72.593857
 20
-36.797090
 42
-0.112695
 10
-72.111133
 20
-38.785652
 42
-0.194712
 10
-73.461696
 20
-41.942379
 42
-0.203120
 10
-76.722240
 20
-43.249938
 42
0.000000
  0
LWPOLYLINE
  5
254
100
AcDbEntity
  8
SCHRAFF
  6
CONTINUOUS
 62
     9
100
AcDbPolyline
 90
    15
 10
-76.722240
 20
-43.249941
 42
-0.203120
 10
-79.982789
 20
-41.942383
 42
-0.194712
 10
-81.333354
 20
-38.785652
 42
-0.098497
 10
-80.961609
 20
-37.029543
 42
0.000000
 10
-77.204967
 20
-29.702797
 42
0.112695
 10
-76.722240
 20
-27.714228
 42
0.194712
 10
-78.072805
 20
-24.557498
 42
0.203120
 10
-81.333355
 20
-23.249941
 42
0.203120
 10
-84.593901
 20
-24.557503
 42
0.194711
 10
-85.944462
 20
-27.714228
 42
0.112695
 10
-85.461735
 20
-29.702797
 42
0.000000
 10
-81.816079
 20
-36.797090
 42
-0.112695
 10
-81.333355
 20
-38.785652
 42
-0.194712
 10
-82.683918
 20
-41.942379
 42
-0.203120
 10
-85.944462
 20
-43.249938
 42
0.000000
  0
LWPOLYLINE
  5
264
100
AcDbEntity
  8
SCHRAFF
  6
CONTINUOUS
 62
     9
100
AcDbPolyline
 90
    15
 10
-85.944463
 20
-43.249941
 42
-0.203120
 10
-89.205011
 20
-41.942383
 42
-0.194712
 10
-90.555576
 20
-38.785652
 42
-0.098497
 10
-90.183832
 20
-37.029543
 42
0.000000
 10
-86.427190
 20
-29.702797
 42
0.112695
 10
-85.944462
 20
-27.714228
 42
0.194712
 10
-87.295028
 20
-24.557498
 42
0.203120
 10
-90.555578
 20
-23.249941
 42
0.203120
 10
-93.816123
 20
-24.557503
 42
0.194711
 10
-95.166684
 20
-27.714228
 42
0.112695
 10
-94.683957
 20
-29.702797
 42
0.000000
 10
-91.038301
 20
-36.797090
 42
-0.112695
 10
-90.555578
 20
-38.785652
 42
-0.194712
 10
-91.906141
 20
-41.942379
 42
-0.203120
 10
-95.166685
 20
-43.249938
 42
0.000000
  0
LWPOLYLINE
  5
274
100
AcDbEntity
  8
SCHRAFF
  6
CONTINUOUS
 62
     9
100
AcDbPolyline
 90
    15
 10
-95.166685
 20
-43.249941
 42
-0.203120
 10
-98.427234
 20
-41.942383
 42
-0.194712
 10
-99.777798
 20
-38.785652
 42
-0.098497
 10
-99.406054
 20
-37.029543
 42
0.000000
 10
-95.649412
 20
-29.702797
 42
0.112695
 10
-95.166685
 20
-27.714228
 42
0.194712
 10
-96.517250
 20
-24.557498
 42
0.203120
 10
-99.777800
 20
-23.249941
 42
0.203120
 10
-103.038345
 20
-24.557503
 42
0.194711
 10
-104.388906
 20
-27.714228
 42
0.112695
 10
-103.906179
 20
-29.702797
 42
0.000000
 10
-100.260524
 20
-36.797090
 42
-0.112695
 10
-99.777800
 20
-38.785652
 42
-0.194712
 10
-101.128363
 20
-41.942379
 42
-0.203120
 10
-104.388907
 20
-43.249938
 42
0.000000
  0
LWPOLYLINE
  5
284
100
AcDbEntity
  8
SCHRAFF
  6
CONTINUOUS
 62
     9
100
AcDbPolyline
 90
    15
 10
-104.388907
 20
-43.249941
 42
-0.203120
 10
-107.649456
 20
-41.942383
 42
-0.194712
 10
-109.000020
 20
-38.785652
 42
-0.098497
 10
-108.628276
 20
-37.029543
 42
0.000000
 10
-104.871634
 20
-29.702797
 42
0.112695
 10
-104.388907
 20
-27.714228
 42
0.194712
 10
-105.739472
 20
-24.557498
 42
0.203120
 10
-109.000022
 20
-23.249941
 42
0.203120
 10
-112.260568
 20
-24.557503
 42
0.194711
 10
-113.611128
 20
-27.714228
 42
0.112695
 10
-113.128401
 20
-29.702797
 42
0.000000
 10
-109.482746
 20
-36.797090
 42
-0.112695
 10
-109.000022
 20
-38.785652
 42
-0.194712
 10
-110.350585
 20
-41.942379
 42
-0.203120
 10
-113.611129
 20
-43.249938
 42
0.000000
  0
LWPOLYLINE
  5
294
100
AcDbEntity
  8
SCHRAFF
  6
CONTINUOUS
 62
     9
100
AcDbPolyline
 90
    15
 10
-113.611129
 20
-43.249941
 42
-0.203120
 10
-116.871678
 20
-41.942383
 42
-0.194712
 10
-118.222243
 20
-38.785652
 42
-0.098497
 10
-117.850498
 20
-37.029543
 42
0.000000
 10
-114.093856
 20
-29.702797
 42
0.112695
 10
-113.611129
 20
-27.714228
 42
0.194712
 10
-114.961694
 20
-24.557498
 42
0.203120
 10
-118.222244
 20
-23.249941
 42
0.203120
 10
-121.482790
 20
-24.557503
 42
0.194711
 10
-122.833351
 20
-27.714228
 42
0.112695
 10
-122.350623
 20
-29.702797
 42
0.000000
 10
-118.704968
 20
-36.797090
 42
-0.112695
 10
-118.222244
 20
-38.785652
 42
-0.194712
 10
-119.572807
 20
-41.942379
 42
-0.203120
 10
-122.833351
 20
-43.249938
 42
0.000000
  0
LWPOLYLINE
  5
2A4
100
AcDbEntity
  8
SCHRAFF
  6
CONTINUOUS
 62
     9
100
AcDbPolyline
 90
    15
 10
-122.833352
 20
-43.249941
 42
-0.203120
 10
-126.093900
 20
-41.942383
 42
-0.194712
 10
-127.444465
 20
-38.785652
 42
-0.098497
 10
-127.072720
 20
-37.029543
 42
0.000000
 10
-123.316078
 20
-29.702797
 42
0.112695
 10
-122.833351
 20
-27.714228
 42
0.194712
 10
-124.183917
 20
-24.557498
 42
0.203120
 10
-127.444467
 20
-23.249941
 42
0.203120
 10
-130.705012
 20
-24.557503
 42
0.194711
 10
-132.055573
 20
-27.714228
 42
0.112695
 10
-131.572846
 20
-29.702797
 42
0.000000
 10
-127.927190
 20
-36.797090
 42
-0.112695
 10
-127.444467
 20
-38.785652
 42
-0.194712
 10
-128.795030
 20
-41.942379
 42
-0.203120
 10
-132.055574
 20
-43.249938
 42
0.000000
  0
LWPOLYLINE
  5
2B4
100
AcDbEntity
  8
SCHRAFF
  6
CONTINUOUS
 62
     9
100
AcDbPolyline
 90
    15
 10
-132.055574
 20
-43.249941
 42
-0.203120
 10
-135.316123
 20
-41.942383
 42
-0.194712
 10
-136.666687
 20
-38.785652
 42
-0.098497
 10
-136.294943
 20
-37.029543
 42
0.000000
 10
-132.538301
 20
-29.702797
 42
0.112695
 10
-132.055574
 20
-27.714228
 42
0.194712
 10
-133.406139
 20
-24.557498
 42
0.203120
 10
-136.666689
 20
-23.249941
 42
0.203120
 10
-139.927234
 20
-24.557503
 42
0.194711
 10
-141.277795
 20
-27.714228
 42
0.112695
 10
-140.795068
 20
-29.702797
 42
0.000000
 10
-137.149412
 20
-36.797090
 42
-0.112695
 10
-136.666689
 20
-38.785652
 42
-0.194712
 10
-138.017252
 20
-41.942379
 42
-0.203120
 10
-141.277796
 20
-43.249938
 42
0.000000
  0
LWPOLYLINE
  5
2C4
100
AcDbEntity
  8
SCHRAFF
  6
CONTINUOUS
 62
     9
100
AcDbPolyline
 90
    15
 10
-141.277796
 20
-43.249941
 42
-0.203120
 10
-144.538345
 20
-41.942383
 42
-0.194712
 10
-145.888909
 20
-38.785652
 42
-0.098497
 10
-145.517165
 20
-37.029543
 42
0.000000
 10
-141.760523
 20
-29.702797
 42
0.112695
 10
-141.277796
 20
-27.714228
 42
0.194712
 10
-142.628361
 20
-24.557498
 42
0.203120
 10
-145.888911
 20
-23.249941
 42
0.203120
 10
-149.149456
 20
-24.557503
 42
0.194711
 10
-150.500017
 20
-27.714228
 42
0.112695
 10
-150.017290
 20
-29.702797
 42
0.000000
 10
-146.371635
 20
-36.797090
 42
-0.112695
 10
-145.888911
 20
-38.785652
 42
-0.194712
 10
-147.239474
 20
-41.942379
 42
-0.203120
 10
-150.500018
 20
-43.249938
 42
0.000000
  0
ENDBLK
  5
2D4
100
AcDbEntity
  8
0
100
AcDbBlockEnd
  0
BLOCK
  5
2D5
100
AcDbEntity
  8
SCHRAFF
100
AcDbBlockBegin
  2
B-14
 70
    66
 10
0.000000
 20
0.000000
 30
0.000000
  0
HATCH
  5
2D6
100
AcDbEntity
  8
SCHRAFF
  6
CONTINUOUS
 62
     9
100
AcDbHatch
 10
0.000000
 20
0.000000
 30
0.000000
210
0.000000
220
0.000000
230
1.000000
  2
_U
 70
     0
 71
     1
 91
     1
 92
    18
 72
     1
 73
     0
 93
     5
 10
-212.500018
 20
-136.249941
 42
0.000000
 10
-212.500018
 20
-196.249941
 42
0.000000
 10
212.500023
 20
-196.249941
 42
0.000000
 10
212.500023
 20
-136.249941
 42
0.000000
 10
-212.500018
 20
-136.249941
 42
0.000000
 97
     0
 75
     0
 76
     0
 52
0.000000
 41
1.000000
 77
     0
 78
     1
 53
45.000000
 43
-0.000000
 44
0.000000
 45
-17.677670
 46
17.677670
 79
     0
 98
     0
  0
HATCH
  5
2D7
100
AcDbEntity
  8
SCHRAFF
  6
CONTINUOUS
 62
     9
100
AcDbHatch
 10
0.000000
 20
0.000000
 30
0.000000
210
0.000000
220
0.000000
230
1.000000
  2
_U
 70
     0
 71
     1
 91
     1
 92
    18
 72
     1
 73
     0
 93
     5
 10
-152.500018
 20
-126.249941
 42
0.000000
 10
-152.500018
 20
296.250078
 42
0.000000
 10
-212.500018
 20
296.250078
 42
0.000000
 10
-212.500018
 20
-126.249941
 42
0.000000
 10
-152.500018
 20
-126.249941
 42
0.000000
 97
     0
 75
     0
 76
     0
 52
0.000000
 41
1.000000
 77
     0
 78
     1
 53
45.000000
 43
-0.000000
 44
0.000000
 45
-17.677670
 46
17.677670
 79
     0
 98
     0
  0
LWPOLYLINE
  5
2D8
100
AcDbEntity
  8
SCHRAFF
  6
CONTINUOUS
 62
     9
100
AcDbPolyline
 90
    15
 10
-152.500018
 20
-136.249941
 42
-0.203241
 10
-154.131803
 20
-135.596162
 42
-0.194592
 10
-154.807711
 20
-134.017796
 42
-0.098414
 10
-154.621667
 20
-133.139742
 42
0.000000
 10
-152.741605
 20
-129.476369
 42
0.112603
 10
-152.500018
 20
-128.482085
 42
0.194592
 10
-153.175926
 20
-126.903720
 42
0.203241
 10
-154.807712
 20
-126.249941
 42
0.203240
 10
-156.439496
 20
-126.903722
 42
0.194591
 10
-157.115402
 20
-128.482085
 42
0.112603
 10
-156.873815
 20
-129.476369
 42
0.000000
 10
-155.049298
 20
-133.023515
 42
-0.112603
 10
-154.807712
 20
-134.017796
 42
-0.194591
 10
-155.483620
 20
-135.596160
 42
-0.203240
 10
-157.115403
 20
-136.249939
 42
0.000000
  0
LWPOLYLINE
  5
2E8
100
AcDbEntity
  8
SCHRAFF
  6
CONTINUOUS
 62
     9
100
AcDbPolyline
 90
    15
 10
-157.115403
 20
-136.249941
 42
-0.203241
 10
-158.747188
 20
-135.596162
 42
-0.194592
 10
-159.423096
 20
-134.017796
 42
-0.098414
 10
-159.237052
 20
-133.139742
 42
0.000000
 10
-157.356990
 20
-129.476369
 42
0.112603
 10
-157.115403
 20
-128.482085
 42
0.194592
 10
-157.791311
 20
-126.903720
 42
0.203241
 10
-159.423097
 20
-126.249941
 42
0.203240
 10
-161.054881
 20
-126.903722
 42
0.194591
 10
-161.730787
 20
-128.482085
 42
0.112603
 10
-161.489200
 20
-129.476369
 42
0.000000
 10
-159.664682
 20
-133.023515
 42
-0.112603
 10
-159.423097
 20
-134.017796
 42
-0.194591
 10
-160.099004
 20
-135.596160
 42
-0.203240
 10
-161.730787
 20
-136.249939
 42
0.000000
  0
LWPOLYLINE
  5
2F8
100
AcDbEntity
  8
SCHRAFF
  6
CONTINUOUS
 62
     9
100
AcDbPolyline
 90
    15
 10
-161.730787
 20
-136.249941
 42
-0.203241
 10
-163.362573
 20
-135.596162
 42
-0.194592
 10
-164.038481
 20
-134.017796
 42
-0.098414
 10
-163.852436
 20
-133.139742
 42
0.000000
 10
-161.972374
 20
-129.476369
 42
0.112603
 10
-161.730787
 20
-128.482085
 42
0.194592
 10
-162.406696
 20
-126.903720
 42
0.203241
 10
-164.038482
 20
-126.249941
 42
0.203240
 10
-165.670265
 20
-126.903722
 42
0.194591
 10
-166.346171
 20
-128.482085
 42
0.112603
 10
-166.104584
 20
-129.476369
 42
0.000000
 10
-164.280067
 20
-133.023515
 42
-0.112603
 10
-164.038482
 20
-134.017796
 42
-0.194591
 10
-164.714389
 20
-135.596160
 42
-0.203240
 10
-166.346172
 20
-136.249939
 42
0.000000
  0
LWPOLYLINE
  5
308
100
AcDbEntity
  8
SCHRAFF
  6
CONTINUOUS
 62
     9
100
AcDbPolyline
 90
    15
 10
-166.346172
 20
-136.249941
 42
-0.203241
 10
-167.977957
 20
-135.596162
 42
-0.194592
 10
-168.653865
 20
-134.017796
 42
-0.098414
 10
-168.467821
 20
-133.139742
 42
0.000000
 10
-166.587759
 20
-129.476369
 42
0.112603
 10
-166.346172
 20
-128.482085
 42
0.194592
 10
-167.022080
 20
-126.903720
 42
0.203241
 10
-168.653866
 20
-126.249941
 42
0.203240
 10
-170.285650
 20
-126.903722
 42
0.194591
 10
-170.961556
 20
-128.482085
 42
0.112603
 10
-170.719969
 20
-129.476369
 42
0.000000
 10
-168.895452
 20
-133.023515
 42
-0.112603
 10
-168.653866
 20
-134.017796
 42
-0.194591
 10
-169.329774
 20
-135.596160
 42
-0.203240
 10
-170.961556
 20
-136.249939
 42
0.000000
  0
LWPOLYLINE
  5
318
100
AcDbEntity
  8
SCHRAFF
  6
CONTINUOUS
 62
     9
100
AcDbPolyline
 90
    15
 10
-170.961557
 20
-136.249941
 42
-0.203241
 10
-172.593342
 20
-135.596162
 42
-0.194592
 10
-173.269250
 20
-134.017796
 42
-0.098414
 10
-173.083205
 20
-133.139742
 42
0.000000
 10
-171.203144
 20
-129.476369
 42
0.112603
 10
-170.961556
 20
-128.482085
 42
0.194592
 10
-171.637465
 20
-126.903720
 42
0.203241
 10
-173.269251
 20
-126.249941
 42
0.203240
 10
-174.901034
 20
-126.903722
 42
0.194591
 10
-175.576941
 20
-128.482085
 42
0.112603
 10
-175.335353
 20
-129.476369
 42
0.000000
 10
-173.510836
 20
-133.023515
 42
-0.112603
 10
-173.269251
 20
-134.017796
 42
-0.194591
 10
-173.945158
 20
-135.596160
 42
-0.203240
 10
-175.576941
 20
-136.249939
 42
0.000000
  0
LWPOLYLINE
  5
328
100
AcDbEntity
  8
SCHRAFF
  6
CONTINUOUS
 62
     9
100
AcDbPolyline
 90
    15
 10
-175.576941
 20
-136.249941
 42
-0.203241
 10
-177.208726
 20
-135.596162
 42
-0.194592
 10
-177.884635
 20
-134.017796
 42
-0.098414
 10
-177.698590
 20
-133.139742
 42
0.000000
 10
-175.818528
 20
-129.476369
 42
0.112603
 10
-175.576941
 20
-128.482085
 42
0.194592
 10
-176.252850
 20
-126.903720
 42
0.203241
 10
-177.884635
 20
-126.249941
 42
0.203240
 10
-179.516419
 20
-126.903722
 42
0.194591
 10
-180.192325
 20
-128.482085
 42
0.112603
 10
-179.950738
 20
-129.476369
 42
0.000000
 10
-178.126221
 20
-133.023515
 42
-0.112603
 10
-177.884635
 20
-134.017796
 42
-0.194591
 10
-178.560543
 20
-135.596160
 42
-0.203240
 10
-180.192326
 20
-136.249939
 42
0.000000
  0
LWPOLYLINE
  5
338
100
AcDbEntity
  8
SCHRAFF
  6
CONTINUOUS
 62
     9
100
AcDbPolyline
 90
    15
 10
-180.192326
 20
-136.249941
 42
-0.203241
 10
-181.824111
 20
-135.596162
 42
-0.194592
 10
-182.500019
 20
-134.017796
 42
-0.098414
 10
-182.313975
 20
-133.139742
 42
0.000000
 10
-180.433913
 20
-129.476369
 42
0.112603
 10
-180.192326
 20
-128.482085
 42
0.194592
 10
-180.868234
 20
-126.903720
 42
0.203241
 10
-182.500020
 20
-126.249941
 42
0.203240
 10
-184.131804
 20
-126.903722
 42
0.194591
 10
-184.807710
 20
-128.482085
 42
0.112603
 10
-184.566123
 20
-129.476369
 42
0.000000
 10
-182.741606
 20
-133.023515
 42
-0.112603
 10
-182.500020
 20
-134.017796
 42
-0.194591
 10
-183.175927
 20
-135.596160
 42
-0.203240
 10
-184.807710
 20
-136.249939
 42
0.000000
  0
LWPOLYLINE
  5
348
100
AcDbEntity
  8
SCHRAFF
  6
CONTINUOUS
 62
     9
100
AcDbPolyline
 90
    15
 10
-184.807710
 20
-136.249941
 42
-0.203241
 10
-186.439496
 20
-135.596162
 42
-0.194592
 10
-187.115404
 20
-134.017796
 42
-0.098414
 10
-186.929359
 20
-133.139742
 42
0.000000
 10
-185.049298
 20
-129.476369
 42
0.112603
 10
-184.807710
 20
-128.482085
 42
0.194592
 10
-185.483619
 20
-126.903720
 42
0.203241
 10
-187.115405
 20
-126.249941
 42
0.203240
 10
-188.747188
 20
-126.903722
 42
0.194591
 10
-189.423095
 20
-128.482085
 42
0.112603
 10
-189.181507
 20
-129.476369
 42
0.000000
 10
-187.356990
 20
-133.023515
 42
-0.112603
 10
-187.115405
 20
-134.017796
 42
-0.194591
 10
-187.791312
 20
-135.596160
 42
-0.203240
 10
-189.423095
 20
-136.249939
 42
0.000000
  0
LWPOLYLINE
  5
358
100
AcDbEntity
  8
SCHRAFF
  6
CONTINUOUS
 62
     9
100
AcDbPolyline
 90
    15
 10
-189.423095
 20
-136.249941
 42
-0.203241
 10
-191.054880
 20
-135.596162
 42
-0.194592
 10
-191.730788
 20
-134.017796
 42
-0.098414
 10
-191.544744
 20
-133.139742
 42
0.000000
 10
-189.664682
 20
-129.476369
 42
0.112603
 10
-189.423095
 20
-128.482085
 42
0.194592
 10
-190.099003
 20
-126.903720
 42
0.203241
 10
-191.730789
 20
-126.249941
 42
0.203240
 10
-193.362573
 20
-126.903722
 42
0.194591
 10
-194.038479
 20
-128.482085
 42
0.112603
 10
-193.796892
 20
-129.476369
 42
0.000000
 10
-191.972375
 20
-133.023515
 42
-0.112603
 10
-191.730789
 20
-134.017796
 42
-0.194591
 10
-192.406697
 20
-135.596160
 42
-0.203240
 10
-194.038480
 20
-136.249939
 42
0.000000
  0
LWPOLYLINE
  5
368
100
AcDbEntity
  8
SCHRAFF
  6
CONTINUOUS
 62
     9
100
AcDbPolyline
 90
    15
 10
-194.038480
 20
-136.249941
 42
-0.203241
 10
-195.670265
 20
-135.596162
 42
-0.194592
 10
-196.346173
 20
-134.017796
 42
-0.098414
 10
-196.160129
 20
-133.139742
 42
0.000000
 10
-194.280067
 20
-129.476369
 42
0.112603
 10
-194.038480
 20
-128.482085
 42
0.194592
 10
-194.714388
 20
-126.903720
 42
0.203241
 10
-196.346174
 20
-126.249941
 42
0.203240
 10
-197.977958
 20
-126.903722
 42
0.194591
 10
-198.653864
 20
-128.482085
 42
0.112603
 10
-198.412277
 20
-129.476369
 42
0.000000
 10
-196.587759
 20
-133.023515
 42
-0.112603
 10
-196.346174
 20
-134.017796
 42
-0.194591
 10
-197.022081
 20
-135.596160
 42
-0.203240
 10
-198.653864
 20
-136.249939
 42
0.000000
  0
LWPOLYLINE
  5
378
100
AcDbEntity
  8
SCHRAFF
  6
CONTINUOUS
 62
     9
100
AcDbPolyline
 90
    15
 10
-198.653864
 20
-136.249941
 42
-0.203241
 10
-200.285650
 20
-135.596162
 42
-0.194592
 10
-200.961558
 20
-134.017796
 42
-0.098414
 10
-200.775513
 20
-133.139742
 42
0.000000
 10
-198.895451
 20
-129.476369
 42
0.112603
 10
-198.653864
 20
-128.482085
 42
0.194592
 10
-199.329773
 20
-126.903720
 42
0.203241
 10
-200.961558
 20
-126.249941
 42
0.203240
 10
-202.593342
 20
-126.903722
 42
0.194591
 10
-203.269248
 20
-128.482085
 42
0.112603
 10
-203.027661
 20
-129.476369
 42
0.000000
 10
-201.203144
 20
-133.023515
 42
-0.112603
 10
-200.961558
 20
-134.017796
 42
-0.194591
 10
-201.637466
 20
-135.596160
 42
-0.203240
 10
-203.269249
 20
-136.249939
 42
0.000000
  0
LWPOLYLINE
  5
388
100
AcDbEntity
  8
SCHRAFF
  6
CONTINUOUS
 62
     9
100
AcDbPolyline
 90
    15
 10
-203.269249
 20
-136.249941
 42
-0.203241
 10
-204.901034
 20
-135.596162
 42
-0.194592
 10
-205.576942
 20
-134.017796
 42
-0.098414
 10
-205.390898
 20
-133.139742
 42
0.000000
 10
-203.510836
 20
-129.476369
 42
0.112603
 10
-203.269249
 20
-128.482085
 42
0.194592
 10
-203.945157
 20
-126.903720
 42
0.203241
 10
-205.576943
 20
-126.249941
 42
0.203240
 10
-207.208727
 20
-126.903722
 42
0.194591
 10
-207.884633
 20
-128.482085
 42
0.112603
 10
-207.643046
 20
-129.476369
 42
0.000000
 10
-205.818529
 20
-133.023515
 42
-0.112603
 10
-205.576943
 20
-134.017796
 42
-0.194591
 10
-206.252850
 20
-135.596160
 42
-0.203240
 10
-207.884633
 20
-136.249939
 42
0.000000
  0
LWPOLYLINE
  5
398
100
AcDbEntity
  8
SCHRAFF
  6
CONTINUOUS
 62
     9
100
AcDbPolyline
 90
    15
 10
-207.884634
 20
-136.249941
 42
-0.203241
 10
-209.516419
 20
-135.596162
 42
-0.194592
 10
-210.192327
 20
-134.017796
 42
-0.098414
 10
-210.006282
 20
-133.139742
 42
0.000000
 10
-208.126221
 20
-129.476369
 42
0.112603
 10
-207.884633
 20
-128.482085
 42
0.194592
 10
-208.560542
 20
-126.903720
 42
0.203241
 10
-210.192328
 20
-126.249941
 42
0.203240
 10
-211.824111
 20
-126.903722
 42
0.194591
 10
-212.500018
 20
-128.482085
 42
0.112603
 10
-212.258430
 20
-129.476369
 42
0.000000
 10
-210.433913
 20
-133.023515
 42
-0.112603
 10
-210.192328
 20
-134.017796
 42
-0.194591
 10
-210.868235
 20
-135.596160
 42
-0.203240
 10
-212.500018
 20
-136.249939
 42
0.000000
  0
ENDBLK
  5
3A8
100
AcDbEntity
  8
0
100
AcDbBlockEnd
  0
BLOCK
  5
3A9
100
AcDbEntity
  8
SCHRAFF
100
AcDbBlockBegin
  2
B-15
 70
    66
 10
0.000000
 20
0.000000
 30
0.000000
  0
HATCH
  5
3AA
100
AcDbEntity
  8
SCHRAFF
 62
   161
440
     0
100
AcDbHatch
 10
0.000000
 20
0.000000
 30
0.000000
210
0.000000
220
0.000000
230
1.000000
  2
SOLID
 70
     1
 71
     1
 91
     1
 92
    18
 72
     1
 73
     0
 93
     5
 10
-47.500017
 20
188.750061
 42
0.000000
 10
-55.500017
 20
188.750061
 42
0.000000
 10
-55.500018
 20
296.250078
 42
0.000000
 10
-47.500018
 20
296.250078
 42
0.000000
 10
-47.500017
 20
188.750061
 42
0.000000
 97
     0
 75
     0
 76
     1
 98
     0
  0
HATCH
  5
3AB
100
AcDbEntity
  8
SCHRAFF
 62
   161
440
     0
100
AcDbHatch
 10
0.000000
 20
0.000000
 30
0.000000
210
0.000000
220
0.000000
230
1.000000
  2
SOLID
 70
     1
 71
     1
 91
     1
 92
    18
 72
     1
 73
     0
 93
     5
 10
-55.500017
 20
178.750061
 42
0.000000
 10
-47.500017
 20
178.750061
 42
0.000000
 10
-47.500018
 20
-21.249941
 42
0.000000
 10
-55.500018
 20
-21.249941
 42
0.000000
 10
-55.500017
 20
178.750061
 42
0.000000
 97
     0
 75
     0
 76
     1
 98
     0
  0
ENDBLK
  5
3AC
100
AcDbEntity
  8
0
100
AcDbBlockEnd
  0
BLOCK
  5
3AD
100
AcDbEntity
  8
SCHRAFF
100
AcDbBlockBegin
  2
B-16
 70
    66
 10
0.000000
 20
0.000000
 30
0.000000
  0
HATCH
  5
3AE
100
AcDbEntity
  8
SCHRAFF
 62
   253
440
     0
100
AcDbHatch
 10
0.000000
 20
0.000000
 30
0.000000
210
0.000000
220
0.000000
230
1.000000
  2
SOLID
 70
     1
 71
     1
 91
     1
 92
    18
 72
     1
 73
     0
 93
     5
 10
-55.500018
 20
296.250078
 42
0.000000
 10
-55.500018
 20
-21.249941
 42
0.000000
 10
-59.500018
 20
-21.249941
 42
0.000000
 10
-59.500018
 20
296.250078
 42
0.000000
 10
-55.500018
 20
296.250078
 42
0.000000
 97
     0
 75
     0
 76
     1
 98
     0
  0
HATCH
  5
3AF
100
AcDbEntity
  8
SCHRAFF
 62
     9
440
     0
100
AcDbHatch
 10
0.000000
 20
0.000000
 30
0.000000
210
0.000000
220
0.000000
230
1.000000
  2
SOLID
 70
     1
 71
     1
 91
     1
 92
    18
 72
     1
 73
     0
 93
     5
 10
-61.500018
 20
-21.249941
 42
0.000000
 10
-61.500018
 20
296.250078
 42
0.000000
 10
-59.500018
 20
296.250078
 42
0.000000
 10
-59.500018
 20
-21.249941
 42
0.000000
 10
-61.500018
 20
-21.249941
 42
0.000000
 97
     0
 75
     0
 76
     1
 98
     0
  0
ENDBLK
  5
3B0
100
AcDbEntity
  8
0
100
AcDbBlockEnd
  0
BLOCK
  5
3B1
100
AcDbEntity
  8
SCHRAFF
100
AcDbBlockBegin
  2
B-17
 70
    66
 10
0.000000
 20
0.000000
 30
0.000000
  0
HATCH
  5
3B2
100
AcDbEntity
  8
SCHRAFF
 62
   161
440
     0
100
AcDbHatch
 10
0.000000
 20
0.000000
 30
0.000000
210
0.000000
220
0.000000
230
1.000000
  2
SOLID
 70
     1
 71
     1
 91
     1
 92
    18
 72
     1
 73
     0
 93
     5
 10
144.499982
 20
-39.249941
 42
0.000000
 10
144.499982
 20
-31.249941
 42
0.000000
 10
212.500023
 20
-31.249941
 42
0.000000
 10
212.500023
 20
-39.249941
 42
0.000000
 10
144.499982
 20
-39.249941
 42
0.000000
 97
     0
 75
     0
 76
     1
 98
     0
  0
HATCH
  5
3B3
100
AcDbEntity
  8
SCHRAFF
 62
   161
440
     0
100
AcDbHatch
 10
0.000000
 20
0.000000
 30
0.000000
210
0.000000
220
0.000000
230
1.000000
  2
SOLID
 70
     1
 71
     1
 91
     1
 92
    18
 72
     1
 73
     0
 93
     5
 10
-65.500018
 20
-39.249941
 42
0.000000
 10
-65.500018
 20
-31.249941
 42
0.000000
 10
134.499982
 20
-31.249941
 42
0.000000
 10
134.499982
 20
-39.249941
 42
0.000000
 10
-65.500018
 20
-39.249941
 42
0.000000
 97
     0
 75
     0
 76
     1
 98
     0
  0
ENDBLK
  5
3B4
100
AcDbEntity
  8
0
100
AcDbBlockEnd
  0
BLOCK
  5
3B5
100
AcDbEntity
  8
SCHRAFF
100
AcDbBlockBegin
  2
B-18
 70
    66
 10
0.000000
 20
0.000000
 30
0.000000
  0
HATCH
  5
3B6
100
AcDbEntity
  8
SCHRAFF
 62
     9
440
     0
100
AcDbHatch
 10
0.000000
 20
0.000000
 30
0.000000
210
0.000000
220
0.000000
230
1.000000
  2
SOLID
 70
     1
 71
     1
 91
     1
 92
    18
 72
     1
 73
     0
 93
     5
 10
212.500023
 20
-45.249941
 42
0.000000
 10
-150.500018
 20
-45.249941
 42
0.000000
 10
-150.500018
 20
-51.249941
 42
0.000000
 10
212.500023
 20
-51.249941
 42
0.000000
 10
212.500023
 20
-45.249941
 42
0.000000
 97
     0
 75
     0
 76
     1
 98
     0
  0
ENDBLK
  5
3B7
100
AcDbEntity
  8
0
100
AcDbBlockEnd
  0
BLOCK
  5
3B8
100
AcDbEntity
  8
SCHRAFF
100
AcDbBlockBegin
  2
B-19
 70
    66
 10
0.000000
 20
0.000000
 30
0.000000
  0
HATCH
  5
3B9
100
AcDbEntity
  8
SCHRAFF
 62
     9
440
     0
100
AcDbHatch
 10
0.000000
 20
0.000000
 30
0.000000
210
0.000000
220
0.000000
230
1.000000
  2
SOLID
 70
     1
 71
     1
 91
     1
 92
    18
 72
     1
 73
     0
 93
     5
 10
-61.500018
 20
-21.249941
 42
0.000000
 10
-61.500018
 20
296.250078
 42
0.000000
 10
-67.500018
 20
296.250078
 42
0.000000
 10
-67.500018
 20
-21.249941
 42
0.000000
 10
-61.500018
 20
-21.249941
 42
0.000000
 97
     0
 75
     0
 76
     1
 98
     0
  0
ENDBLK
  5
3BA
100
AcDbEntity
  8
0
100
AcDbBlockEnd
  0
BLOCK
  5
3BB
100
AcDbEntity
  8
SCHRAFF
100
AcDbBlockBegin
  2
B-20
 70
    66
 10
0.000000
 20
0.000000
 30
0.000000
  0
HATCH
  5
3BC
100
AcDbEntity
  8
SCHRAFF
 62
    51
440
     0
100
AcDbHatch
 10
0.000000
 20
0.000000
 30
0.000000
210
0.000000
220
0.000000
230
1.000000
  2
SOLID
 70
     1
 71
     1
 91
     1
 92
    18
 72
     1
 73
     0
 93
     5
 10
-147.500018
 20
296.250078
 42
0.000000
 10
-147.500018
 20
-21.249999
 42
0.000000
 10
-67.500018
 20
-21.249999
 42
0.000000
 10
-67.500018
 20
296.250178
 42
0.000000
 10
-147.500018
 20
296.250078
 42
0.000000
 97
     0
 75
     0
 76
     1
 98
     0
  0
ENDBLK
  5
3BD
100
AcDbEntity
  8
0
100
AcDbBlockEnd
  0
BLOCK
  5
3BE
100
AcDbEntity
  8
SCHRAFF
100
AcDbBlockBegin
  2
B-21
 70
    66
 10
0.000000
 20
0.000000
 30
0.000000
  0
HATCH
  5
3BF
100
AcDbEntity
  8
SCHRAFF
 62
    51
440
     0
100
AcDbHatch
 10
0.000000
 20
0.000000
 30
0.000000
210
0.000000
220
0.000000
230
1.000000
  2
SOLID
 70
     1
 71
     1
 91
     1
 92
    18
 72
     1
 73
     0
 93
     5
 10
212.500023
 20
-51.249941
 42
0.000000
 10
-150.500018
 20
-51.249941
 42
0.000000
 10
-150.500018
 20
-131.249941
 42
0.000000
 10
212.500023
 20
-131.249941
 42
0.000000
 10
212.500023
 20
-51.249941
 42
0.000000
 97
     0
 75
     0
 76
     1
 98
     0
  0
ENDBLK
  5
3C0
100
AcDbEntity
  8
0
100
AcDbBlockEnd
  0
BLOCK
  5
3C1
100
AcDbEntity
  8
SCHRAFF
100
AcDbBlockBegin
  2
B-22
 70
    66
 10
0.000000
 20
0.000000
 30
0.000000
  0
HATCH
  5
3C2
100
AcDbEntity
  8
SCHRAFF
  6
CONTINUOUS
 62
     9
100
AcDbHatch
 10
0.000000
 20
0.000000
 30
0.000000
210
0.000000
220
0.000000
230
1.000000
  2
_U
 70
     0
 71
     1
 91
     1
 92
    18
 72
     1
 73
     0
 93
     5
 10
-150.500018
 20
-131.249941
 42
0.000000
 10
212.500023
 20
-131.249941
 42
0.000000
 10
212.500023
 20
-51.249941
 42
0.000000
 10
-150.500018
 20
-51.249941
 42
0.000000
 10
-150.500018
 20
-131.249941
 42
0.000000
 97
     0
 75
     0
 76
     0
 52
0.000000
 41
1.000000
 77
     0
 78
     1
 53
90.000000
 43
-0.000000
 44
0.000000
 45
-13.750000
 46
0.000000
 79
     0
 98
     0
  0
HATCH
  5
3C3
100
AcDbEntity
  8
SCHRAFF
  6
CONTINUOUS
 62
     9
100
AcDbHatch
 10
0.000000
 20
0.000000
 30
0.000000
210
0.000000
220
0.000000
230
1.000000
  2
_U
 70
     0
 71
     1
 91
     1
 92
    18
 72
     1
 73
     0
 93
     5
 10
-67.500018
 20
-21.249941
 42
0.000000
 10
-67.500018
 20
296.250136
 42
0.000000
 10
-147.500018
 20
296.250136
 42
0.000000
 10
-147.500018
 20
-21.249941
 42
0.000000
 10
-67.500018
 20
-21.249941
 42
0.000000
 97
     0
 75
     0
 76
     0
 52
0.000000
 41
1.000000
 77
     0
 78
     1
 53
90.000000
 43
-0.000000
 44
0.000000
 45
-13.750000
 46
0.000000
 79
     0
 98
     0
  0
ENDBLK
  5
3C4
100
AcDbEntity
  8
0
100
AcDbBlockEnd
  0
BLOCK
  5
3C5
100
AcDbEntity
  8
Detail
100
AcDbBlockBegin
  2
B-23
 70
    66
 10
0.000000
 20
0.000000
 30
0.000000
  0
ENDBLK
  5
3C6
100
AcDbEntity
  8
0
100
AcDbBlockEnd
  0
BLOCK
  5
3C7
100
AcDbEntity
  8
SCHRAFF
100
AcDbBlockBegin
  2
B-24
 70
    66
 10
0.000000
 20
0.000000
 30
0.000000
  0
HATCH
  5
3C8
100
AcDbEntity
  8
SCHRAFF
 62
     9
440
     0
100
AcDbHatch
 10
0.000000
 20
0.000000
 30
0.000000
210
0.000000
220
0.000000
230
1.000000
  2
SOLID
 70
     1
 71
     1
 91
     1
 92
    18
 72
     1
 73
     0
 93
     5
 10
212.500023
 20
-45.249941
 42
0.000000
 10
-150.500018
 20
-45.249941
 42
0.000000
 10
-150.500018
 20
-43.249941
 42
0.000000
 10
212.500023
 20
-43.249941
 42
0.000000
 10
212.500023
 20
-45.249941
 42
0.000000
 97
     0
 75
     0
 76
     1
 98
     0
  0
HATCH
  5
3C9
100
AcDbEntity
  8
SCHRAFF
 62
   253
440
     0
100
AcDbHatch
 10
0.000000
 20
0.000000
 30
0.000000
210
0.000000
220
0.000000
230
1.000000
  2
SOLID
 70
     1
 71
     1
 91
     1
 92
    18
 72
     1
 73
     0
 93
     5
 10
-65.500018
 20
-39.249941
 42
0.000000
 10
212.500023
 20
-39.249941
 42
0.000000
 10
212.500023
 20
-43.249941
 42
0.000000
 10
-65.500018
 20
-43.249941
 42
0.000000
 10
-65.500018
 20
-39.249941
 42
0.000000
 97
     0
 75
     0
 76
     1
 98
     0
  0
ENDBLK
  5
3CA
100
AcDbEntity
  8
0
100
AcDbBlockEnd
  0
BLOCK
  5
3CB
100
AcDbEntity
  8
Detail
100
AcDbBlockBegin
  2
B-25
 70
    66
 10
0.000000
 20
0.000000
 30
0.000000
  0
LWPOLYLINE
  5
3CC
100
AcDbEntity
  8
Detail
  6
CONTINUOUS
 62
     6
100
AcDbPolyline
 90
     4
 10
212.500023
 20
-45.249941
 42
0.000000
 10
-150.500018
 20
-45.249941
 42
0.000000
 10
-150.500018
 20
-43.249941
 42
0.000000
 10
212.500023
 20
-43.249941
 42
0.000000
  0
ENDBLK
  5
3D1
100
AcDbEntity
  8
0
100
AcDbBlockEnd
  0
BLOCK
  5
3D2
100
AcDbEntity
  8
Detail
100
AcDbBlockBegin
  2
B-26
 70
    66
 10
0.000000
 20
0.000000
 30
0.000000
  0
LWPOLYLINE
  5
3D3
100
AcDbEntity
  8
Detail
  6
CONTINUOUS
 62
     6
100
AcDbPolyline
 90
     4
 10
212.500023
 20
-43.249941
 42
0.000000
 10
-65.500018
 20
-43.249941
 42
0.000000
 10
-65.500018
 20
-39.249941
 42
0.000000
 10
212.500023
 20
-39.249941
 42
0.000000
  0
ENDBLK
  5
3D8
100
AcDbEntity
  8
0
100
AcDbBlockEnd
  0
BLOCK
  5
3D9
100
AcDbEntity
  8
Detail
100
AcDbBlockBegin
  2
B-27
 70
    66
 10
0.000000
 20
0.000000
 30
0.000000
  0
LWPOLYLINE
  5
3DA
100
AcDbEntity
  8
Detail
  6
CONTINUOUS
 62
     3
100
AcDbPolyline
 90
     5
 10
-65.500018
 20
-31.249941
 42
0.000000
 10
-65.500018
 20
-39.249941
 42
0.000000
 10
134.499982
 20
-39.249941
 42
0.000000
 10
134.499982
 20
-31.249941
 42
0.000000
 10
-65.500018
 20
-31.249941
 42
0.000000
  0
ENDBLK
  5
3E0
100
AcDbEntity
  8
0
100
AcDbBlockEnd
  0
BLOCK
  5
3E1
100
AcDbEntity
  8
Detail
100
AcDbBlockBegin
  2
B-28
 70
    66
 10
0.000000
 20
0.000000
 30
0.000000
  0
LWPOLYLINE
  5
3E2
100
AcDbEntity
  8
Detail
  6
CONTINUOUS
 62
     6
100
AcDbPolyline
 90
     4
 10
-67.500018
 20
296.250078
 42
0.000000
 10
-67.500018
 20
-21.249941
 42
0.000000
 10
-61.500018
 20
-21.249941
 42
0.000000
 10
-61.500018
 20
296.250078
 42
0.000000
  0
ENDBLK
  5
3E7
100
AcDbEntity
  8
0
100
AcDbBlockEnd
  0
BLOCK
  5
3E8
100
AcDbEntity
  8
Detail
100
AcDbBlockBegin
  2
B-29
 70
    66
 10
0.000000
 20
0.000000
 30
0.000000
  0
LWPOLYLINE
  5
3E9
100
AcDbEntity
  8
Detail
  6
HIDDEN
 62
     9
100
AcDbPolyline
 90
     2
 10
-62.500018
 20
296.250078
 42
0.000000
 10
-62.500018
 20
-21.249941
 42
0.000000
  0
ENDBLK
  5
3EC
100
AcDbEntity
  8
0
100
AcDbBlockEnd
  0
BLOCK
  5
3ED
100
AcDbEntity
  8
SCHRAFF
100
AcDbBlockBegin
  2
B-30
 70
    66
 10
0.000000
 20
0.000000
 30
0.000000
  0
HATCH
  5
3EE
100
AcDbEntity
  8
SCHRAFF
 62
     9
440
     0
100
AcDbHatch
 10
0.000000
 20
0.000000
 30
0.000000
210
0.000000
220
0.000000
230
1.000000
  2
SOLID
 70
     1
 71
     1
 91
     1
 92
    18
 72
     1
 73
     0
 93
     3
 10
-60.500018
 20
-31.249941
 42
1.000000
 10
-60.500018
 20
-21.249941
 42
1.000000
 10
-60.500018
 20
-31.249941
 42
0.000000
 97
     0
 75
     0
 76
     1
 98
     0
  0
LWPOLYLINE
  5
3EF
100
AcDbEntity
  8
Detail
  6
HIDDEN
 62
     9
100
AcDbPolyline
 90
     2
 10
-150.500018
 20
-46.249941
 42
0.000000
 10
212.500023
 20
-46.249941
 42
0.000000
  0
LWPOLYLINE
  5
3F2
100
AcDbEntity
  8
Detail
  6
CONTINUOUS
 62
     6
100
AcDbPolyline
 90
     4
 10
212.500023
 20
-51.249941
 42
0.000000
 10
-150.500018
 20
-51.249941
 42
0.000000
 10
-150.500018
 20
-45.249941
 42
0.000000
 10
212.500023
 20
-45.249941
 42
0.000000
  0
CIRCLE
  5
3F7
100
AcDbEntity
  8
Detail
  6
CONTINUOUS
 62
     4
100
AcDbCircle
 10
-60.500018
 20
-26.249941
 40
5.000000
  0
ENDBLK
  5
3F8
100
AcDbEntity
  8
0
100
AcDbBlockEnd
  0
BLOCK
  5
3F9
100
AcDbEntity
  8
Detail
100
AcDbBlockBegin
  2
B-31
 70
    66
 10
0.000000
 20
0.000000
 30
0.000000
  0
LWPOLYLINE
  5
3FA
100
AcDbEntity
  8
Detail
  6
CONTINUOUS
 62
     3
100
AcDbPolyline
 90
     4
 10
212.500023
 20
-39.249941
 42
0.000000
 10
144.499982
 20
-39.249941
 42
0.000000
 10
144.499982
 20
-31.249941
 42
0.000000
 10
212.500023
 20
-31.249941
 42
0.000000
  0
ENDBLK
  5
3FF
100
AcDbEntity
  8
0
100
AcDbBlockEnd
  0
BLOCK
  5
400
100
AcDbEntity
  8
Detail
100
AcDbBlockBegin
  2
B-32
 70
    66
 10
0.000000
 20
0.000000
 30
0.000000
  0
LWPOLYLINE
  5
401
100
AcDbEntity
  8
Detail
  6
CONTINUOUS
 62
     7
100
AcDbPolyline
 90
     2
 10
77.500023
 20
233.750060
 42
0.000000
 10
-150.000018
 20
233.750057
 42
0.000000
  0
ENDBLK
  5
404
100
AcDbEntity
  8
0
100
AcDbBlockEnd
  0
BLOCK
  5
405
100
AcDbEntity
  8
Detail
100
AcDbBlockBegin
  2
B-33
 70
    66
 10
0.000000
 20
0.000000
 30
0.000000
  0
MTEXT
  5
407
100
AcDbEntity
  8
Detail
 62
     7
100
AcDbMText
 10
79.375020
 20
211.250057
 30
0.000000
 40
4.999990
 41
59.482357
 71
     1
 72
     5
  1
WDVS-Dämmstoff
  7
Arial
 50
0.000000
  0
ENDBLK
  5
408
100
AcDbEntity
  8
0
100
AcDbBlockEnd
  0
BLOCK
  5
409
100
AcDbEntity
  8
SCHRAFF
100
AcDbBlockBegin
  2
B-34
 70
    66
 10
0.000000
 20
0.000000
 30
0.000000
  0
HATCH
  5
40A
100
AcDbEntity
  8
SCHRAFF
 62
     7
440
     0
100
AcDbHatch
 10
0.000000
 20
0.000000
 30
0.000000
210
0.000000
220
0.000000
230
1.000000
  2
SOLID
 70
     1
 71
     1
 91
     1
 92
    18
 72
     1
 73
     0
 93
     3
 10
-149.500018
 20
233.750057
 42
1.000000
 10
-150.500018
 20
233.750057
 42
1.000000
 10
-149.500018
 20
233.750057
 42
0.000000
 97
     0
 75
     0
 76
     1
 98
     0
  0
CIRCLE
  5
40B
100
AcDbEntity
  8
Detail
  6
CONTINUOUS
 62
     7
100
AcDbCircle
 10
-150.000018
 20
233.750057
 40
0.500000
  0
ENDBLK
  5
40C
100
AcDbEntity
  8
0
100
AcDbBlockEnd
  0
BLOCK
  5
40D
100
AcDbEntity
  8
Detail
100
AcDbBlockBegin
  2
B-35
 70
    66
 10
0.000000
 20
0.000000
 30
0.000000
  0
MTEXT
  5
40E
100
AcDbEntity
  8
Detail
 62
     7
100
AcDbMText
 10
79.375020
 20
236.250057
 30
0.000000
 40
4.999990
 41
38.902407
 71
     1
 72
     5
  1
Klebemörtel
  7
Arial
 50
0.000000
  0
ENDBLK
  5
40F
100
AcDbEntity
  8
0
100
AcDbBlockEnd
  0
BLOCK
  5
410
100
AcDbEntity
  8
Detail
100
AcDbBlockBegin
  2
B-36
 70
    66
 10
0.000000
 20
0.000000
 30
0.000000
  0
LWPOLYLINE
  5
411
100
AcDbEntity
  8
Detail
  6
CONTINUOUS
 62
     7
100
AcDbPolyline
 90
     2
 10
77.500023
 20
83.750059
 42
0.000000
 10
-51.500018
 20
83.750058
 42
0.000000
  0
ENDBLK
  5
414
100
AcDbEntity
  8
0
100
AcDbBlockEnd
  0
BLOCK
  5
415
100
AcDbEntity
  8
Detail
100
AcDbBlockBegin
  2
B-37
 70
    66
 10
0.000000
 20
0.000000
 30
0.000000
  0
MTEXT
  5
416
100
AcDbEntity
  8
Detail
 62
     7
100
AcDbMText
 10
79.375019
 20
61.250054
 30
0.000000
 40
4.999990
 41
122.954705
 71
     1
 72
     5
  1
Verdübelung durch Gewebearmierung
  7
Arial
 50
0.000000
  0
ENDBLK
  5
417
100
AcDbEntity
  8
0
100
AcDbBlockEnd
  0
BLOCK
  5
418
100
AcDbEntity
  8
Detail
100
AcDbBlockBegin
  2
B-38
 70
    66
 10
0.000000
 20
0.000000
 30
0.000000
  0
LWPOLYLINE
  5
419
100
AcDbEntity
  8
Detail
  6
CONTINUOUS
 62
     7
100
AcDbPolyline
 90
     2
 10
77.500023
 20
58.750060
 42
0.000000
 10
-61.000018
 20
58.750059
 42
0.000000
  0
ENDBLK
  5
41C
100
AcDbEntity
  8
0
100
AcDbBlockEnd
  0
BLOCK
  5
41D
100
AcDbEntity
  8
Detail
100
AcDbBlockBegin
  2
B-39
 70
    66
 10
0.000000
 20
0.000000
 30
0.000000
  0
MTEXT
  5
41E
100
AcDbEntity
  8
Detail
 62
     7
100
AcDbMText
 10
79.375019
 20
11.250054
 30
0.000000
 40
4.999990
 41
62.947349
 71
     1
 72
     5
  1
Putzabschlussprofil
  7
Arial
 50
0.000000
  0
ENDBLK
  5
41F
100
AcDbEntity
  8
0
100
AcDbBlockEnd
  0
BLOCK
  5
420
100
AcDbEntity
  8
Detail
100
AcDbBlockBegin
  2
B-40
 70
    66
 10
0.000000
 20
0.000000
 30
0.000000
  0
MTEXT
  5
421
100
AcDbEntity
  8
Detail
 62
     7
100
AcDbMText
 10
79.375020
 20
-18.749932
 30
0.000000
 40
4.999990
 41
137.812169
 71
     7
 72
     5
  1
Feldbegrenzungsfuge mit PE-Rundschnur 
  7
Arial
 50
0.000000
  0
MTEXT
  5
422
100
AcDbEntity
  8
Detail
 62
     7
100
AcDbMText
 10
79.375020
 20
-26.249917
 30
0.000000
 40
4.999990
 41
85.154796
 71
     7
 72
     5
  1
und elastischem Dichtstoff
  7
Arial
 50
0.000000
  0
ENDBLK
  5
423
100
AcDbEntity
  8
0
100
AcDbBlockEnd
  0
BLOCK
  5
424
100
AcDbEntity
  8
Detail
100
AcDbBlockBegin
  2
B-41
 70
    66
 10
0.000000
 20
0.000000
 30
0.000000
  0
LWPOLYLINE
  5
425
100
AcDbEntity
  8
Detail
  6
CONTINUOUS
 62
     7
100
AcDbPolyline
 90
     4
 10
77.500023
 20
-16.249940
 42
0.000000
 10
-2.500018
 20
-16.249941
 42
0.000000
 10
-2.500018
 20
-26.249941
 42
0.000000
 10
-60.500018
 20
-26.249941
 42
0.000000
  0
ENDBLK
  5
42A
100
AcDbEntity
  8
0
100
AcDbBlockEnd
  0
BLOCK
  5
42B
100
AcDbEntity
  8
SCHRAFF
100
AcDbBlockBegin
  2
B-42
 70
    66
 10
0.000000
 20
0.000000
 30
0.000000
  0
HATCH
  5
42C
100
AcDbEntity
  8
SCHRAFF
 62
     7
440
     0
100
AcDbHatch
 10
0.000000
 20
0.000000
 30
0.000000
210
0.000000
220
0.000000
230
1.000000
  2
SOLID
 70
     1
 71
     1
 91
     1
 92
    18
 72
     1
 73
     0
 93
     3
 10
-52.000017
 20
183.750061
 42
1.000000
 10
-53.000017
 20
183.750061
 42
1.000000
 10
-52.000017
 20
183.750061
 42
0.000000
 97
     0
 75
     0
 76
     1
 98
     0
  0
CIRCLE
  5
42D
100
AcDbEntity
  8
Detail
  6
CONTINUOUS
 62
     7
100
AcDbCircle
 10
-52.500017
 20
183.750061
 40
0.500000
  0
ENDBLK
  5
42E
100
AcDbEntity
  8
0
100
AcDbBlockEnd
  0
BLOCK
  5
42F
100
AcDbEntity
  8
SCHRAFF
100
AcDbBlockBegin
  2
B-43
 70
    66
 10
0.000000
 20
0.000000
 30
0.000000
  0
HATCH
  5
430
100
AcDbEntity
  8
SCHRAFF
 62
     7
440
     0
100
AcDbHatch
 10
0.000000
 20
0.000000
 30
0.000000
210
0.000000
220
0.000000
230
1.000000
  2
SOLID
 70
     1
 71
     1
 91
     1
 92
    18
 72
     1
 73
     0
 93
     3
 10
-51.000018
 20
83.750058
 42
1.000000
 10
-52.000018
 20
83.750058
 42
1.000000
 10
-51.000018
 20
83.750058
 42
0.000000
 97
     0
 75
     0
 76
     1
 98
     0
  0
CIRCLE
  5
431
100
AcDbEntity
  8
Detail
  6
CONTINUOUS
 62
     7
100
AcDbCircle
 10
-51.500018
 20
83.750058
 40
0.500000
  0
ENDBLK
  5
432
100
AcDbEntity
  8
0
100
AcDbBlockEnd
  0
BLOCK
  5
433
100
AcDbEntity
  8
SCHRAFF
100
AcDbBlockBegin
  2
B-44
 70
    66
 10
0.000000
 20
0.000000
 30
0.000000
  0
HATCH
  5
434
100
AcDbEntity
  8
SCHRAFF
 62
     7
440
     0
100
AcDbHatch
 10
0.000000
 20
0.000000
 30
0.000000
210
0.000000
220
0.000000
230
1.000000
  2
SOLID
 70
     1
 71
     1
 91
     1
 92
    18
 72
     1
 73
     0
 93
     3
 10
-60.500018
 20
58.750059
 42
1.000000
 10
-61.500018
 20
58.750059
 42
1.000000
 10
-60.500018
 20
58.750059
 42
0.000000
 97
     0
 75
     0
 76
     1
 98
     0
  0
CIRCLE
  5
435
100
AcDbEntity
  8
Detail
  6
CONTINUOUS
 62
     7
100
AcDbCircle
 10
-61.000018
 20
58.750059
 40
0.500000
  0
ENDBLK
  5
436
100
AcDbEntity
  8
0
100
AcDbBlockEnd
  0
BLOCK
  5
437
100
AcDbEntity
  8
SCHRAFF
100
AcDbBlockBegin
  2
B-45
 70
    66
 10
0.000000
 20
0.000000
 30
0.000000
  0
HATCH
  5
438
100
AcDbEntity
  8
SCHRAFF
 62
     7
440
     0
100
AcDbHatch
 10
0.000000
 20
0.000000
 30
0.000000
210
0.000000
220
0.000000
230
1.000000
  2
SOLID
 70
     1
 71
     1
 91
     1
 92
    18
 72
     1
 73
     0
 93
     3
 10
-60.000018
 20
-26.249941
 42
1.000000
 10
-61.000018
 20
-26.249941
 42
1.000000
 10
-60.000018
 20
-26.249941
 42
0.000000
 97
     0
 75
     0
 76
     1
 98
     0
  0
CIRCLE
  5
439
100
AcDbEntity
  8
Detail
  6
CONTINUOUS
 62
     7
100
AcDbCircle
 10
-60.500018
 20
-26.249941
 40
0.500000
  0
ENDBLK
  5
43A
100
AcDbEntity
  8
0
100
AcDbBlockEnd
  0
BLOCK
  5
43B
100
AcDbEntity
  8
Detail
100
AcDbBlockBegin
  2
B-46
 70
    66
 10
0.000000
 20
0.000000
 30
0.000000
  0
ENDBLK
  5
43C
100
AcDbEntity
  8
0
100
AcDbBlockEnd
  0
BLOCK
  5
43D
100
AcDbEntity
  8
Detail
100
AcDbBlockBegin
  2
B-47
 70
    66
 10
0.000000
 20
0.000000
 30
0.000000
  0
MTEXT
  5
43E
100
AcDbEntity
  8
Detail
 62
     7
100
AcDbMText
 10
-211.093768
 20
-225.937528
 30
0.000000
 40
3.749990
 41
353.428963
 71
     7
 72
     5
  1
Capatect Details sind allgemeine planerische Vorschläge. Sie stellen schematisch die Ausführung dar. Ihnen zugrunde liegen die entsprechenden 
  7
Arial
 50
0.000000
  0
MTEXT
  5
43F
100
AcDbEntity
  8
Detail
 62
     7
100
AcDbMText
 10
-211.093768
 20
-231.562513
 30
0.000000
 40
3.749990
 41
392.764473
 71
     7
 72
     5
  1
Produktdatenblätter sowie Systemzulassungen. Die Möglichkeit der Detailanwendung sowie deren Vollständigkeit sind im speziellen Anwendungsfall vom Planer / 
  7
Arial
 50
0.000000
  0
MTEXT
  5
440
100
AcDbEntity
  8
Detail
 62
     7
100
AcDbMText
 10
-211.093768
 20
-237.187498
 30
0.000000
 40
3.749990
 41
107.887184
 71
     7
 72
     5
  1
Unternehmer eigenverantwortlich zu prüfen. 
  7
Arial
 50
0.000000
  0
ENDBLK
  5
441
100
AcDbEntity
  8
0
100
AcDbBlockEnd
  0
BLOCK
  5
442
100
AcDbEntity
  8
Detail
100
AcDbBlockBegin
  2
B-48
 70
    66
 10
0.000000
 20
0.000000
 30
0.000000
  0
LWPOLYLINE
  5
443
100
AcDbEntity
  8
Detail
  6
CONTINUOUS
 62
     6
100
AcDbPolyline
 90
     2
 10
237.500023
 20
-246.249941
 42
0.000000
 10
-237.500018
 20
-246.249941
 42
0.000000
  0
ENDBLK
  5
446
100
AcDbEntity
  8
0
100
AcDbBlockEnd
  0
BLOCK
  5
447
100
AcDbEntity
  8
Detail
100
AcDbBlockBegin
  2
B-49
 70
    66
 10
0.000000
 20
0.000000
 30
0.000000
  0
MTEXT
  5
448
100
AcDbEntity
  8
Detail
 62
     7
100
AcDbMText
 10
-210.625002
 20
-252.656291
 30
0.000000
 40
5.625000
 41
142.576875
 71
     1
 72
     5
  1
System:	WDVS mit Hartbekleidung
  7
Arial
 50
0.000000
  0
ENDBLK
  5
449
100
AcDbEntity
  8
0
100
AcDbBlockEnd
  0
BLOCK
  5
44A
100
AcDbEntity
  8
Detail
100
AcDbBlockBegin
  2
B-50
 70
    66
 10
0.000000
 20
0.000000
 30
0.000000
  0
MTEXT
  5
44B
100
AcDbEntity
  8
Detail
 62
     7
100
AcDbMText
 10
-210.625002
 20
-295.781291
 30
0.000000
 40
5.625000
 41
112.573125
 71
     7
 72
     5
  1
Detail:	Innenecke mit Dehnfuge
  7
Arial
 50
0.000000
  0
MTEXT
  5
44C
100
AcDbEntity
  8
Detail
 62
     7
100
AcDbMText
 10
-210.625002
 20
-304.218791
 30
0.000000
 40
5.625000
 41
89.775000
 71
     7
 72
     5
  1
	(Horizontalschnitt)
  7
Arial
 50
0.000000
  0
ENDBLK
  5
44D
100
AcDbEntity
  8
0
100
AcDbBlockEnd
  0
BLOCK
  5
44E
100
AcDbEntity
  8
Detail
100
AcDbBlockBegin
  2
B-51
 70
    66
 10
0.000000
 20
0.000000
 30
0.000000
  0
MTEXT
  5
44F
100
AcDbEntity
  8
Detail
 62
     7
100
AcDbMText
 10
6.314834
 20
-252.500041
 30
0.000000
 40
5.000000
 41
93.712500
 71
     1
 72
     5
  1
Plannummer:	125-1314
  7
Arial
 50
0.000000
  0
ENDBLK
  5
450
100
AcDbEntity
  8
0
100
AcDbBlockEnd
  0
BLOCK
  5
451
100
AcDbEntity
  8
Detail
100
AcDbBlockBegin
  2
B-52
 70
    66
 10
0.000000
 20
0.000000
 30
0.000000
  0
MTEXT
  5
452
100
AcDbEntity
  8
Detail
 62
     7
100
AcDbMText
 10
6.314834
 20
-277.500041
 30
0.000000
 40
5.000000
 41
91.035000
 71
     1
 72
     5
  1
Massstab:		ca. 1:2,5
  7
Arial
 50
0.000000
  0
ENDBLK
  5
453
100
AcDbEntity
  8
0
100
AcDbBlockEnd
  0
BLOCK
  5
454
100
AcDbEntity
  8
Detail
100
AcDbBlockBegin
  2
B-53
 70
    66
 10
0.000000
 20
0.000000
 30
0.000000
  0
MTEXT
  5
455
100
AcDbEntity
  8
Detail
 62
     7
100
AcDbMText
 10
6.314834
 20
-302.500041
 30
0.000000
 40
5.000000
 41
99.435000
 71
     1
 72
     5
  1
Aktualisierung:	14.07.2016
  7
Arial
 50
0.000000
  0
ENDBLK
  5
456
100
AcDbEntity
  8
0
100
AcDbBlockEnd
  0
BLOCK
  5
457
100
AcDbEntity
  8
Detail
100
AcDbBlockBegin
  2
B-54
 70
    66
 10
0.000000
 20
0.000000
 30
0.000000
  0
LWPOLYLINE
  5
458
100
AcDbEntity
  8
Detail
  6
CONTINUOUS
 62
     6
100
AcDbPolyline
 90
     2
 10
-20.560166
 20
-321.249941
 42
0.000000
 10
-20.560166
 20
-246.249941
 42
0.000000
  0
LWPOLYLINE
  5
45B
100
AcDbEntity
  8
Detail
  6
CONTINUOUS
 62
     6
100
AcDbPolyline
 90
     2
 10
-237.500018
 20
-321.249941
 42
0.000000
 10
120.969928
 20
-321.249941
 42
0.000000
  0
LWPOLYLINE
  5
45E
100
AcDbEntity
  8
Detail
  6
CONTINUOUS
 62
     6
100
AcDbPolyline
 90
     2
 10
-20.560166
 20
-271.249941
 42
0.000000
 10
120.969928
 20
-271.249941
 42
0.000000
  0
LWPOLYLINE
  5
461
100
AcDbEntity
  8
Detail
  6
CONTINUOUS
 62
     6
100
AcDbPolyline
 90
     2
 10
-20.560166
 20
-296.249941
 42
0.000000
 10
120.969928
 20
-296.249941
 42
0.000000
  0
ENDBLK
  5
464
100
AcDbEntity
  8
0
100
AcDbBlockEnd
  0
BLOCK
  5
465
100
AcDbEntity
  8
Detail
100
AcDbBlockBegin
  2
B-55
 70
    66
 10
0.000000
 20
0.000000
 30
0.000000
  0
LWPOLYLINE
  5
466
100
AcDbEntity
  8
Detail
  6
CONTINUOUS
 62
     6
100
AcDbPolyline
 90
     2
 10
-20.560166
 20
-283.749941
 42
0.000000
 10
-237.500018
 20
-283.749941
 42
0.000000
  0
ENDBLK
  5
469
100
AcDbEntity
  8
0
100
AcDbBlockEnd
  0
BLOCK
  5
46A
100
AcDbEntity
  8
Detail
100
AcDbBlockBegin
  2
B-56
 70
    66
 10
0.000000
 20
0.000000
 30
0.000000
  0
LWPOLYLINE
  5
46B
100
AcDbEntity
  8
Detail
  6
CONTINUOUS
 62
     6
100
AcDbPolyline
 90
     2
 10
120.969928
 20
-346.249941
 42
0.000000
 10
120.969928
 20
-246.249941
 42
0.000000
  0
ENDBLK
  5
46E
100
AcDbEntity
  8
0
100
AcDbBlockEnd
  0
BLOCK
  5
46F
100
AcDbEntity
  8
Detail
100
AcDbBlockBegin
  2
B-57
 70
    66
 10
0.000000
 20
0.000000
 30
0.000000
  0
LWPOLYLINE
  5
470
100
AcDbEntity
  8
Detail
  6
CONTINUOUS
 62
     6
100
AcDbPolyline
 90
     5
 10
-237.500018
 20
-346.249941
 42
0.000000
 10
237.500023
 20
-346.249941
 42
0.000000
 10
237.500023
 20
346.250078
 42
0.000000
 10
-237.500018
 20
346.250078
 42
0.000000
 10
-237.500018
 20
-346.249941
 42
0.000000
  0
ENDBLK
  5
476
100
AcDbEntity
  8
0
100
AcDbBlockEnd
  0
BLOCK
  5
477
100
AcDbEntity
  8
L
100
AcDbBlockBegin
  2
B-58
 70
    66
 10
0.000000
 20
0.000000
 30
0.000000
  0
LWPOLYLINE
  5
478
100
AcDbEntity
  8
L
  6
CONTINUOUS
 62
     3
100
AcDbPolyline
 90
     4
 10
212.500023
 20
-131.249941
 42
0.000000
 10
-150.500018
 20
-131.249941
 42
0.000000
 10
-150.500018
 20
-51.249941
 42
0.000000
 10
212.500023
 20
-51.249941
 42
0.000000
  0
LWPOLYLINE
  5
47D
100
AcDbEntity
  8
L
  6
CONTINUOUS
 62
     3
100
AcDbPolyline
 90
     4
 10
-67.500018
 20
296.250078
 42
0.000000
 10
-67.500018
 20
-21.249999
 42
0.000000
 10
-147.500018
 20
-21.249999
 42
0.000000
 10
-147.500018
 20
296.250078
 42
0.000000
  0
ENDBLK
  5
482
100
AcDbEntity
  8
0
100
AcDbBlockEnd
  0
BLOCK
  5
483
100
AcDbEntity
  8
Detail
100
AcDbBlockBegin
  2
B-59
 70
    66
 10
0.000000
 20
0.000000
 30
0.000000
  0
LWPOLYLINE
  5
484
100
AcDbEntity
  8
Detail
  6
CONTINUOUS
 62
     6
100
AcDbPolyline
 90
     4
 10
-59.500018
 20
296.250078
 42
0.000000
 10
-59.500018
 20
-21.249941
 42
0.000000
 10
-61.500018
 20
-21.249941
 42
0.000000
 10
-61.500018
 20
296.250078
 42
0.000000
  0
ENDBLK
  5
489
100
AcDbEntity
  8
0
100
AcDbBlockEnd
  0
BLOCK
  5
48A
100
AcDbEntity
  8
Detail
100
AcDbBlockBegin
  2
B-60
 70
    66
 10
0.000000
 20
0.000000
 30
0.000000
  0
LWPOLYLINE
  5
48B
100
AcDbEntity
  8
Detail
  6
CONTINUOUS
 62
     6
100
AcDbPolyline
 90
     4
 10
-55.500018
 20
296.250078
 42
0.000000
 10
-55.500018
 20
-21.249941
 42
0.000000
 10
-59.500018
 20
-21.249941
 42
0.000000
 10
-59.500018
 20
296.250078
 42
0.000000
  0
ENDBLK
  5
490
100
AcDbEntity
  8
0
100
AcDbBlockEnd
  0
BLOCK
  5
491
100
AcDbEntity
  8
Detail
100
AcDbBlockBegin
  2
B-61
 70
    66
 10
0.000000
 20
0.000000
 30
0.000000
  0
LWPOLYLINE
  5
492
100
AcDbEntity
  8
Detail
  6
CONTINUOUS
 62
     3
100
AcDbPolyline
 90
     5
 10
-47.500017
 20
178.750061
 42
0.000000
 10
-55.500017
 20
178.750061
 42
0.000000
 10
-55.500018
 20
-21.249941
 42
0.000000
 10
-47.500018
 20
-21.249941
 42
0.000000
 10
-47.500017
 20
178.750061
 42
0.000000
  0
ENDBLK
  5
498
100
AcDbEntity
  8
0
100
AcDbBlockEnd
  0
BLOCK
  5
499
100
AcDbEntity
  8
Detail
100
AcDbBlockBegin
  2
B-62
 70
    66
 10
0.000000
 20
0.000000
 30
0.000000
  0
LWPOLYLINE
  5
49A
100
AcDbEntity
  8
Detail
  6
CONTINUOUS
 62
     3
100
AcDbPolyline
 90
     4
 10
-47.500018
 20
296.250078
 42
0.000000
 10
-47.500017
 20
188.750061
 42
0.000000
 10
-55.500017
 20
188.750061
 42
0.000000
 10
-55.500018
 20
296.250078
 42
0.000000
  0
ENDBLK
  5
49F
100
AcDbEntity
  8
0
100
AcDbBlockEnd
  0
BLOCK
  5
4A0
100
AcDbEntity
  8
SCHRAFF
100
AcDbBlockBegin
  2
B-63
 70
    66
 10
0.000000
 20
0.000000
 30
0.000000
  0
HATCH
  5
4A1
100
AcDbEntity
  8
SCHRAFF
 62
   250
440
     0
100
AcDbHatch
 10
0.000000
 20
0.000000
 30
0.000000
210
0.000000
220
0.000000
230
1.000000
  2
SOLID
 70
     1
 71
     1
 91
     1
 92
    18
 72
     1
 73
     0
 93
     7
 10
-65.500018
 20
8.750059
 42
0.000000
 10
-65.500018
 20
-19.249941
 42
0.000000
 10
-59.500018
 20
-19.249941
 42
0.000000
 10
-59.500018
 20
-21.249941
 42
0.000000
 10
-67.500018
 20
-21.249941
 42
0.000000
 10
-67.500018
 20
8.750059
 42
0.000000
 10
-65.500018
 20
8.750059
 42
0.000000
 97
     0
 75
     0
 76
     1
 98
     0
  0
LWPOLYLINE
  5
4A2
100
AcDbEntity
  8
Detail
  6
CONTINUOUS
 62
     4
100
AcDbPolyline
 90
     7
 10
-67.500018
 20
8.750059
 42
0.000000
 10
-67.500018
 20
-21.249941
 42
0.000000
 10
-59.500018
 20
-21.249941
 42
0.000000
 10
-59.500018
 20
-19.249941
 42
0.000000
 10
-65.500018
 20
-19.249941
 42
0.000000
 10
-65.500018
 20
8.750059
 42
0.000000
 10
-67.500018
 20
8.750059
 42
0.000000
  0
ENDBLK
  5
4AA
100
AcDbEntity
  8
0
100
AcDbBlockEnd
  0
BLOCK
  5
4AB
100
AcDbEntity
  8
SCHRAFF
100
AcDbBlockBegin
  2
B-64
 70
    66
 10
0.000000
 20
0.000000
 30
0.000000
  0
HATCH
  5
4AC
100
AcDbEntity
  8
SCHRAFF
 62
     7
440
     0
100
AcDbHatch
 10
0.000000
 20
0.000000
 30
0.000000
210
0.000000
220
0.000000
230
1.000000
  2
SOLID
 70
     1
 71
     1
 91
     1
 92
    18
 72
     1
 73
     0
 93
     3
 10
-66.000018
 20
-1.249941
 42
1.000000
 10
-67.000018
 20
-1.249941
 42
1.000000
 10
-66.000018
 20
-1.249941
 42
0.000000
 97
     0
 75
     0
 76
     1
 98
     0
  0
ENDBLK
  5
4AD
100
AcDbEntity
  8
0
100
AcDbBlockEnd
  0
BLOCK
  5
4AE
100
AcDbEntity
  8
Detail
100
AcDbBlockBegin
  2
B-65
 70
    66
 10
0.000000
 20
0.000000
 30
0.000000
  0
CIRCLE
  5
4AF
100
AcDbEntity
  8
Detail
  6
CONTINUOUS
 62
     7
100
AcDbCircle
 10
-66.500018
 20
-1.249941
 40
0.500000
  0
ENDBLK
  5
4B0
100
AcDbEntity
  8
0
100
AcDbBlockEnd
  0
BLOCK
  5
4B1
100
AcDbEntity
  8
Detail
100
AcDbBlockBegin
  2
B-66
 70
    66
 10
0.000000
 20
0.000000
 30
0.000000
  0
LWPOLYLINE
  5
4B2
100
AcDbEntity
  8
Detail
  6
CONTINUOUS
 62
     7
100
AcDbPolyline
 90
     4
 10
77.500023
 20
8.750059
 42
0.000000
 10
-22.500018
 20
8.750059
 42
0.000000
 10
-22.500018
 20
-1.249941
 42
0.000000
 10
-66.500018
 20
-1.249941
 42
0.000000
  0
ENDBLK
  5
4B7
100
AcDbEntity
  8
0
100
AcDbBlockEnd
  0
BLOCK
  5
4B8
100
AcDbEntity
  8
Detail
100
AcDbBlockBegin
  2
B-67
 70
    66
 10
0.000000
 20
0.000000
 30
0.000000
  0
LWPOLYLINE
  5
4B9
100
AcDbEntity
  8
Detail
  6
CONTINUOUS
 62
     9
100
AcDbPolyline
 90
     2
 10
-91.000018
 20
65.811587
 42
0.000000
 10
-91.000018
 20
51.832174
 42
0.000000
  0
LWPOLYLINE
  5
4BC
100
AcDbEntity
  8
Detail
  6
CONTINUOUS
 62
     9
100
AcDbPolyline
 90
    83
 10
-62.500018
 20
28.811587
 42
0.000000
 10
-62.000018
 20
28.811587
 42
0.000000
 10
-61.000018
 20
33.811587
 42
0.000000
 10
-61.000018
 20
83.811587
 42
0.000000
 10
-62.000018
 20
88.811587
 42
0.000000
 10
-62.500018
 20
88.811587
 42
0.000000
 10
-62.500018
 20
71.811587
 42
0.000000
 10
-63.750018
 20
68.061587
 42
0.000000
 10
-67.500018
 20
66.811587
 42
0.000000
 10
-91.000018
 20
65.811587
 42
0.000000
 10
-97.000018
 20
63.311587
 42
0.000000
 10
-159.462215
 20
62.771587
 42
0.000000
 10
-160.828158
 20
62.524578
 42
0.000000
 10
-160.903911
 20
62.771587
 42
0.000000
 10
-163.686215
 20
62.771587
 42
0.000000
 10
-165.052158
 20
62.524578
 42
0.000000
 10
-165.127911
 20
62.771587
 42
0.000000
 10
-167.910215
 20
62.771587
 42
0.000000
 10
-169.276158
 20
62.524578
 42
0.000000
 10
-169.351827
 20
62.766787
 42
0.000000
 10
-172.134215
 20
62.771587
 42
0.000000
 10
-173.500158
 20
62.524578
 42
0.000000
 10
-173.575911
 20
62.771587
 42
0.000000
 10
-176.358215
 20
62.771587
 42
0.000000
 10
-177.724158
 20
62.524578
 42
0.000000
 10
-177.799911
 20
62.771587
 42
0.000000
 10
-180.582215
 20
62.771587
 42
0.000000
 10
-181.948158
 20
62.524578
 42
0.000000
 10
-182.023911
 20
62.771587
 42
0.000000
 10
-184.806215
 20
62.771587
 42
0.000000
 10
-186.172158
 20
62.524578
 42
0.000000
 10
-186.247911
 20
62.771587
 42
0.000000
 10
-189.030215
 20
62.771587
 42
0.000000
 10
-190.396158
 20
62.524578
 42
0.000000
 10
-190.471911
 20
62.771587
 42
0.000000
 10
-193.254215
 20
62.771587
 42
0.000000
 10
-194.458372
 20
62.489155
 42
0.000000
 10
-194.917355
 20
62.651586
 42
0.000000
 10
-195.894215
 20
62.217331
 42
0.000000
 10
-196.134215
 20
61.691587
 42
0.000000
 10
-196.902215
 20
61.691587
 42
0.000000
 10
-198.420108
 20
61.150619
 42
0.000000
 10
-199.253725
 20
59.771587
 42
0.000000
 10
-201.000018
 20
58.811587
 42
0.000000
 10
-199.253725
 20
57.851587
 42
0.000000
 10
-198.420108
 20
56.472555
 42
0.000000
 10
-197.157414
 20
55.945194
 42
0.000000
 10
-196.134215
 20
55.931587
 42
0.000000
 10
-195.894215
 20
55.405843
 42
0.000000
 10
-195.142059
 20
54.971587
 42
0.000000
 10
-194.692646
 20
54.971587
 42
0.000000
 10
-194.458372
 20
55.134019
 42
0.000000
 10
-193.254215
 20
54.851587
 42
0.000000
 10
-190.471911
 20
54.851587
 42
0.000000
 10
-190.396158
 20
55.098596
 42
0.000000
 10
-189.030215
 20
54.851587
 42
0.000000
 10
-186.247911
 20
54.851587
 42
0.000000
 10
-186.172158
 20
55.098596
 42
0.000000
 10
-184.806215
 20
54.851587
 42
0.000000
 10
-182.023911
 20
54.851587
 42
0.000000
 10
-181.948158
 20
55.098596
 42
0.000000
 10
-180.582215
 20
54.851587
 42
0.000000
 10
-177.799911
 20
54.851587
 42
0.000000
 10
-177.724158
 20
55.098596
 42
0.000000
 10
-176.358215
 20
54.851587
 42
0.000000
 10
-173.575911
 20
54.851587
 42
0.000000
 10
-173.500158
 20
55.098596
 42
0.000000
 10
-172.134215
 20
54.851587
 42
0.000000
 10
-169.351827
 20
54.856387
 42
0.000000
 10
-169.276158
 20
55.098596
 42
0.000000
 10
-167.910215
 20
54.851587
 42
0.000000
 10
-165.127911
 20
54.851587
 42
0.000000
 10
-165.052158
 20
55.098596
 42
0.000000
 10
-163.686215
 20
54.851587
 42
0.000000
 10
-160.903911
 20
54.851587
 42
0.000000
 10
-160.828158
 20
55.098596
 42
0.000000
 10
-159.462215
 20
54.851587
 42
0.000000
 10
-97.000018
 20
54.311587
 42
0.000000
 10
-91.000018
 20
51.811587
 42
0.000000
 10
-67.500018
 20
50.811587
 42
0.000000
 10
-63.750018
 20
49.561587
 42
0.000000
 10
-62.500018
 20
45.811587
 42
0.000000
 10
-62.500018
 20
28.811587
 42
0.000000
  0
LWPOLYLINE
  5
510
100
AcDbEntity
  8
Detail
  6
CONTINUOUS
 62
     9
100
AcDbPolyline
 90
   203
 10
-201.000018
 20
58.811587
 42
0.000000
 10
-198.886942
 20
59.686852
 42
0.000000
 10
-198.385367
 20
60.555605
 42
0.000000
 10
-197.996692
 20
60.055605
 42
0.000000
 10
-196.916355
 20
60.503096
 42
0.000000
 10
-196.414780
 20
61.371850
 42
0.000000
 10
-196.026105
 20
60.871850
 42
0.000000
 10
-195.447328
 20
61.111587
 42
0.000000
 10
-194.846289
 20
61.111587
 42
0.000000
 10
-194.557614
 20
61.611587
 42
0.000000
 10
-194.168939
 20
61.111587
 42
0.000000
 10
-193.036289
 20
61.111587
 42
0.000000
 10
-192.747614
 20
61.611587
 42
0.000000
 10
-192.358939
 20
61.111587
 42
0.000000
 10
-191.226289
 20
61.111587
 42
0.000000
 10
-190.937614
 20
61.611587
 42
0.000000
 10
-190.548939
 20
61.111587
 42
0.000000
 10
-189.416289
 20
61.111587
 42
0.000000
 10
-189.127614
 20
61.611587
 42
0.000000
 10
-188.738939
 20
61.111587
 42
0.000000
 10
-187.606289
 20
61.111587
 42
0.000000
 10
-187.317614
 20
61.611587
 42
0.000000
 10
-186.928939
 20
61.111587
 42
0.000000
 10
-185.796289
 20
61.111587
 42
0.000000
 10
-185.507614
 20
61.611587
 42
0.000000
 10
-185.118939
 20
61.111587
 42
0.000000
 10
-183.986289
 20
61.111587
 42
0.000000
 10
-183.697614
 20
61.611587
 42
0.000000
 10
-183.308939
 20
61.111587
 42
0.000000
 10
-182.176289
 20
61.111587
 42
0.000000
 10
-181.887614
 20
61.611587
 42
0.000000
 10
-181.498939
 20
61.111587
 42
0.000000
 10
-180.366289
 20
61.111587
 42
0.000000
 10
-180.077614
 20
61.611587
 42
0.000000
 10
-179.688939
 20
61.111587
 42
0.000000
 10
-178.556289
 20
61.111587
 42
0.000000
 10
-178.267614
 20
61.611587
 42
0.000000
 10
-177.878939
 20
61.111587
 42
0.000000
 10
-176.746289
 20
61.111587
 42
0.000000
 10
-176.457614
 20
61.611587
 42
0.000000
 10
-176.068939
 20
61.111587
 42
0.000000
 10
-174.936289
 20
61.111587
 42
0.000000
 10
-174.647614
 20
61.611587
 42
0.000000
 10
-174.258939
 20
61.111587
 42
0.000000
 10
-173.126289
 20
61.111587
 42
0.000000
 10
-172.837614
 20
61.611587
 42
0.000000
 10
-172.448939
 20
61.111587
 42
0.000000
 10
-171.316289
 20
61.111587
 42
0.000000
 10
-171.027614
 20
61.611587
 42
0.000000
 10
-170.638939
 20
61.111587
 42
0.000000
 10
-169.506289
 20
61.111587
 42
0.000000
 10
-169.217614
 20
61.611587
 42
0.000000
 10
-168.828939
 20
61.111587
 42
0.000000
 10
-167.696289
 20
61.111587
 42
0.000000
 10
-167.407614
 20
61.611587
 42
0.000000
 10
-167.018939
 20
61.111587
 42
0.000000
 10
-165.886289
 20
61.111587
 42
0.000000
 10
-165.597614
 20
61.611587
 42
0.000000
 10
-165.186425
 20
61.111587
 42
0.000000
 10
-164.076289
 20
61.111587
 42
0.000000
 10
-163.787614
 20
61.611587
 42
0.000000
 10
-163.398939
 20
61.111587
 42
0.000000
 10
-162.266289
 20
61.111587
 42
0.000000
 10
-161.977614
 20
61.611587
 42
0.000000
 10
-161.588939
 20
61.111587
 42
0.000000
 10
-160.456289
 20
61.111587
 42
0.000000
 10
-160.167614
 20
61.611587
 42
0.000000
 10
-159.778939
 20
61.111587
 42
0.000000
 10
-158.646289
 20
61.111587
 42
0.000000
 10
-158.357614
 20
61.611587
 42
0.000000
 10
-157.968939
 20
61.111587
 42
0.000000
 10
-156.836289
 20
61.111587
 42
0.000000
 10
-156.547614
 20
61.611587
 42
0.000000
 10
-156.158939
 20
61.111587
 42
0.000000
 10
-155.026289
 20
61.111587
 42
0.000000
 10
-154.737614
 20
61.611587
 42
0.000000
 10
-154.348939
 20
61.111587
 42
0.000000
 10
-153.216289
 20
61.111587
 42
0.000000
 10
-152.927614
 20
61.611587
 42
0.000000
 10
-152.538939
 20
61.111587
 42
0.000000
 10
-151.406289
 20
61.111587
 42
0.000000
 10
-151.117614
 20
61.611587
 42
0.000000
 10
-150.728939
 20
61.111587
 42
0.000000
 10
-149.596289
 20
61.111587
 42
0.000000
 10
-149.307614
 20
61.611587
 42
0.000000
 10
-148.918939
 20
61.111587
 42
0.000000
 10
-147.786289
 20
61.111587
 42
0.000000
 10
-147.497614
 20
61.611587
 42
0.000000
 10
-147.108939
 20
61.111587
 42
0.000000
 10
-145.976289
 20
61.111587
 42
0.000000
 10
-145.687614
 20
61.611587
 42
0.000000
 10
-145.298939
 20
61.111587
 42
0.000000
 10
-144.166289
 20
61.111587
 42
0.000000
 10
-143.877614
 20
61.611587
 42
0.000000
 10
-143.488939
 20
61.111587
 42
0.000000
 10
-142.356289
 20
61.111587
 42
0.000000
 10
-142.067614
 20
61.611587
 42
0.000000
 10
-141.678939
 20
61.111587
 42
0.000000
 10
-141.000018
 20
61.111587
 42
0.000000
 10
-140.826813
 20
61.211587
 42
0.000000
 10
-97.000018
 20
63.311587
 42
0.000000
 10
-97.000018
 20
54.311587
 42
0.000000
 10
-140.826813
 20
56.411587
 42
0.000000
 10
-141.000018
 20
56.511587
 42
0.000000
 10
-141.162614
 20
56.011587
 42
0.000000
 10
-141.451289
 20
56.511587
 42
0.000000
 10
-142.583939
 20
56.511587
 42
0.000000
 10
-142.972614
 20
56.011587
 42
0.000000
 10
-143.261289
 20
56.511587
 42
0.000000
 10
-144.393939
 20
56.511587
 42
0.000000
 10
-144.782614
 20
56.011587
 42
0.000000
 10
-145.071289
 20
56.511587
 42
0.000000
 10
-146.203939
 20
56.511587
 42
0.000000
 10
-146.592614
 20
56.011587
 42
0.000000
 10
-146.881289
 20
56.511587
 42
0.000000
 10
-148.013939
 20
56.511587
 42
0.000000
 10
-148.402614
 20
56.011587
 42
0.000000
 10
-148.691289
 20
56.511587
 42
0.000000
 10
-149.823939
 20
56.511587
 42
0.000000
 10
-150.212614
 20
56.011587
 42
0.000000
 10
-150.501289
 20
56.511587
 42
0.000000
 10
-151.633939
 20
56.511587
 42
0.000000
 10
-152.022614
 20
56.011587
 42
0.000000
 10
-152.311289
 20
56.511587
 42
0.000000
 10
-153.443939
 20
56.511587
 42
0.000000
 10
-153.832614
 20
56.011587
 42
0.000000
 10
-154.121289
 20
56.511587
 42
0.000000
 10
-155.253939
 20
56.511587
 42
0.000000
 10
-155.642614
 20
56.011587
 42
0.000000
 10
-155.931289
 20
56.511587
 42
0.000000
 10
-157.063939
 20
56.511587
 42
0.000000
 10
-157.452614
 20
56.011587
 42
0.000000
 10
-157.741289
 20
56.511587
 42
0.000000
 10
-158.873939
 20
56.511587
 42
0.000000
 10
-159.262614
 20
56.011587
 42
0.000000
 10
-159.551289
 20
56.511587
 42
0.000000
 10
-160.683939
 20
56.511587
 42
0.000000
 10
-161.072614
 20
56.011587
 42
0.000000
 10
-161.361289
 20
56.511587
 42
0.000000
 10
-162.493939
 20
56.511587
 42
0.000000
 10
-162.882614
 20
56.011587
 42
0.000000
 10
-163.171289
 20
56.511587
 42
0.000000
 10
-164.303939
 20
56.511587
 42
0.000000
 10
-164.692614
 20
56.011587
 42
0.000000
 10
-164.981289
 20
56.511587
 42
0.000000
 10
-166.113939
 20
56.511587
 42
0.000000
 10
-166.502614
 20
56.011587
 42
0.000000
 10
-166.791289
 20
56.511587
 42
0.000000
 10
-167.923939
 20
56.511587
 42
0.000000
 10
-168.312614
 20
56.011587
 42
0.000000
 10
-168.601289
 20
56.511587
 42
0.000000
 10
-169.733939
 20
56.511587
 42
0.000000
 10
-170.122614
 20
56.011587
 42
0.000000
 10
-170.411289
 20
56.511587
 42
0.000000
 10
-171.543939
 20
56.511587
 42
0.000000
 10
-171.932614
 20
56.011587
 42
0.000000
 10
-172.221289
 20
56.511587
 42
0.000000
 10
-173.353939
 20
56.511587
 42
0.000000
 10
-173.742614
 20
56.011587
 42
0.000000
 10
-174.031289
 20
56.511587
 42
0.000000
 10
-175.163939
 20
56.511587
 42
0.000000
 10
-175.552614
 20
56.011587
 42
0.000000
 10
-175.841289
 20
56.511587
 42
0.000000
 10
-176.973939
 20
56.511587
 42
0.000000
 10
-177.362614
 20
56.011587
 42
0.000000
 10
-177.651289
 20
56.511587
 42
0.000000
 10
-178.783939
 20
56.511587
 42
0.000000
 10
-179.172614
 20
56.011587
 42
0.000000
 10
-179.461289
 20
56.511587
 42
0.000000
 10
-180.593939
 20
56.511587
 42
0.000000
 10
-180.982614
 20
56.011587
 42
0.000000
 10
-181.271289
 20
56.511587
 42
0.000000
 10
-182.403939
 20
56.511587
 42
0.000000
 10
-182.792614
 20
56.011587
 42
0.000000
 10
-183.081289
 20
56.511587
 42
0.000000
 10
-184.213939
 20
56.511587
 42
0.000000
 10
-184.602614
 20
56.011587
 42
0.000000
 10
-184.891289
 20
56.511587
 42
0.000000
 10
-186.023939
 20
56.511587
 42
0.000000
 10
-186.412614
 20
56.011587
 42
0.000000
 10
-186.701289
 20
56.511587
 42
0.000000
 10
-187.833939
 20
56.511587
 42
0.000000
 10
-188.222614
 20
56.011587
 42
0.000000
 10
-188.511289
 20
56.511587
 42
0.000000
 10
-189.643939
 20
56.511587
 42
0.000000
 10
-190.032614
 20
56.011587
 42
0.000000
 10
-190.321289
 20
56.511587
 42
0.000000
 10
-191.453939
 20
56.511587
 42
0.000000
 10
-191.842614
 20
56.011587
 42
0.000000
 10
-192.131289
 20
56.511587
 42
0.000000
 10
-193.263939
 20
56.511587
 42
0.000000
 10
-193.652614
 20
56.011587
 42
0.000000
 10
-193.941289
 20
56.511587
 42
0.000000
 10
-195.073939
 20
56.511587
 42
0.000000
 10
-195.462614
 20
56.011587
 42
0.000000
 10
-195.846829
 20
56.677066
 42
0.000000
 10
-196.775689
 20
57.061812
 42
0.000000
 10
-197.164364
 20
56.561812
 42
0.000000
 10
-197.665938
 20
57.430566
 42
0.000000
 10
-198.449302
 20
57.755046
 42
0.000000
 10
-198.837977
 20
57.255046
 42
0.000000
 10
-199.339552
 20
58.123800
 42
0.000000
 10
-201.000018
 20
58.811587
 42
0.000000
  0
ENDBLK
  5
5DC
100
AcDbEntity
  8
0
100
AcDbBlockEnd
  0
BLOCK
  5
5DD
100
AcDbEntity
  8
Detail
100
AcDbBlockBegin
  2
B-69
 70
    66
 10
0.000000
 20
0.000000
 30
0.000000
  0
MTEXT
  5
5DE
100
AcDbEntity
  8
Detail
 62
     7
100
AcDbMText
 10
79.375019
 20
86.250054
 30
0.000000
 40
4.999990
 41
48.982382
 71
     1
 72
     5
  1
Hartbekleidung
  7
Arial
 50
0.000000
  0
ENDBLK
  5
5DF
100
AcDbEntity
  8
0
100
AcDbBlockEnd
  0
BLOCK
  5
5E0
100
AcDbEntity
  8
Detail
100
AcDbBlockBegin
  2
B-70
 70
    66
 10
0.000000
 20
0.000000
 30
0.000000
  0
MTEXT
  5
5E1
100
AcDbEntity
  8
Detail
 62
     7
100
AcDbMText
 10
79.375020
 20
161.250054
 30
0.000000
 40
4.999987
 41
142.747129
 71
     1
 72
     5
  1
Armierungsschicht mit Ceratherm Mörtel DP
  7
Arial
 50
0.000000
  0
ENDBLK
  5
5E2
100
AcDbEntity
  8
0
100
AcDbBlockEnd
  0
BLOCK
  5
5E3
100
AcDbEntity
  8
Detail
100
AcDbBlockBegin
  2
B-71
 70
    66
 10
0.000000
 20
0.000000
 30
0.000000
  0
LWPOLYLINE
  5
5E4
100
AcDbEntity
  8
Detail
  6
CONTINUOUS
 62
     7
100
AcDbPolyline
 90
     2
 10
77.500023
 20
133.750060
 42
0.000000
 10
-60.500018
 20
133.750059
 42
0.000000
  0
ENDBLK
  5
5E7
100
AcDbEntity
  8
0
100
AcDbBlockEnd
  0
BLOCK
  5
5E8
100
AcDbEntity
  8
SCHRAFF
100
AcDbBlockBegin
  2
B-72
 70
    66
 10
0.000000
 20
0.000000
 30
0.000000
  0
HATCH
  5
5E9
100
AcDbEntity
  8
SCHRAFF
 62
     7
440
     0
100
AcDbHatch
 10
0.000000
 20
0.000000
 30
0.000000
210
0.000000
220
0.000000
230
1.000000
  2
SOLID
 70
     1
 71
     1
 91
     1
 92
    18
 72
     1
 73
     0
 93
     3
 10
-60.000018
 20
133.750059
 42
1.000000
 10
-61.000018
 20
133.750059
 42
1.000000
 10
-60.000018
 20
133.750059
 42
0.000000
 97
     0
 75
     0
 76
     1
 98
     0
  0
CIRCLE
  5
5EA
100
AcDbEntity
  8
Detail
  6
CONTINUOUS
 62
     7
100
AcDbCircle
 10
-60.500018
 20
133.750059
 40
0.500000
  0
ENDBLK
  5
5EB
100
AcDbEntity
  8
0
100
AcDbBlockEnd
  0
BLOCK
  5
5EC
100
AcDbEntity
  8
Detail
100
AcDbBlockBegin
  2
B-73
 70
    66
 10
0.000000
 20
0.000000
 30
0.000000
  0
LWPOLYLINE
  5
5ED
100
AcDbEntity
  8
Detail
  6
CONTINUOUS
 62
     7
100
AcDbPolyline
 90
     2
 10
77.500023
 20
108.750060
 42
0.000000
 10
-57.500018
 20
108.750059
 42
0.000000
  0
ENDBLK
  5
5F0
100
AcDbEntity
  8
0
100
AcDbBlockEnd
  0
BLOCK
  5
5F1
100
AcDbEntity
  8
SCHRAFF
100
AcDbBlockBegin
  2
B-74
 70
    66
 10
0.000000
 20
0.000000
 30
0.000000
  0
HATCH
  5
5F2
100
AcDbEntity
  8
SCHRAFF
 62
     7
440
     0
100
AcDbHatch
 10
0.000000
 20
0.000000
 30
0.000000
210
0.000000
220
0.000000
230
1.000000
  2
SOLID
 70
     1
 71
     1
 91
     1
 92
    18
 72
     1
 73
     0
 93
     3
 10
-57.000018
 20
108.750059
 42
1.000000
 10
-58.000018
 20
108.750059
 42
1.000000
 10
-57.000018
 20
108.750059
 42
0.000000
 97
     0
 75
     0
 76
     1
 98
     0
  0
CIRCLE
  5
5F3
100
AcDbEntity
  8
Detail
  6
CONTINUOUS
 62
     7
100
AcDbCircle
 10
-57.500018
 20
108.750059
 40
0.500000
  0
ENDBLK
  5
5F4
100
AcDbEntity
  8
0
100
AcDbBlockEnd
  0
BLOCK
  5
5F5
100
AcDbEntity
  8
Detail
100
AcDbBlockBegin
  2
B-75
 70
    66
 10
0.000000
 20
0.000000
 30
0.000000
  0
LWPOLYLINE
  5
5F6
100
AcDbEntity
  8
Detail
  6
CONTINUOUS
 62
     9
100
AcDbPolyline
 90
     2
 10
90.499982
 20
-74.749941
 42
0.000000
 10
104.479395
 20
-74.749941
 42
0.000000
  0
LWPOLYLINE
  5
5F9
100
AcDbEntity
  8
Detail
  6
CONTINUOUS
 62
     9
100
AcDbPolyline
 90
    83
 10
127.499982
 20
-46.249941
 42
0.000000
 10
127.499982
 20
-45.749941
 42
0.000000
 10
122.499982
 20
-44.749941
 42
0.000000
 10
72.499982
 20
-44.749941
 42
0.000000
 10
67.499982
 20
-45.749941
 42
0.000000
 10
67.499982
 20
-46.249941
 42
0.000000
 10
84.499982
 20
-46.249941
 42
0.000000
 10
88.249982
 20
-47.499941
 42
0.000000
 10
89.499982
 20
-51.249941
 42
0.000000
 10
90.499982
 20
-74.749941
 42
0.000000
 10
92.999982
 20
-80.749941
 42
0.000000
 10
93.539982
 20
-143.212138
 42
0.000000
 10
93.786991
 20
-144.578081
 42
0.000000
 10
93.539982
 20
-144.653834
 42
0.000000
 10
93.539982
 20
-147.436138
 42
0.000000
 10
93.786991
 20
-148.802081
 42
0.000000
 10
93.539982
 20
-148.877834
 42
0.000000
 10
93.539982
 20
-151.660138
 42
0.000000
 10
93.786991
 20
-153.026081
 42
0.000000
 10
93.544782
 20
-153.101750
 42
0.000000
 10
93.539982
 20
-155.884138
 42
0.000000
 10
93.786991
 20
-157.250081
 42
0.000000
 10
93.539982
 20
-157.325834
 42
0.000000
 10
93.539982
 20
-160.108138
 42
0.000000
 10
93.786991
 20
-161.474081
 42
0.000000
 10
93.539982
 20
-161.549834
 42
0.000000
 10
93.539982
 20
-164.332138
 42
0.000000
 10
93.786991
 20
-165.698081
 42
0.000000
 10
93.539982
 20
-165.773834
 42
0.000000
 10
93.539982
 20
-168.556138
 42
0.000000
 10
93.786991
 20
-169.922081
 42
0.000000
 10
93.539982
 20
-169.997834
 42
0.000000
 10
93.539982
 20
-172.780138
 42
0.000000
 10
93.786991
 20
-174.146081
 42
0.000000
 10
93.539982
 20
-174.221834
 42
0.000000
 10
93.539982
 20
-177.004138
 42
0.000000
 10
93.822414
 20
-178.208294
 42
0.000000
 10
93.659983
 20
-178.667277
 42
0.000000
 10
94.094238
 20
-179.644138
 42
0.000000
 10
94.619982
 20
-179.884138
 42
0.000000
 10
94.619982
 20
-180.652138
 42
0.000000
 10
95.160950
 20
-182.170031
 42
0.000000
 10
96.539982
 20
-183.003648
 42
0.000000
 10
97.499982
 20
-184.749941
 42
0.000000
 10
98.459982
 20
-183.003648
 42
0.000000
 10
99.839014
 20
-182.170031
 42
0.000000
 10
100.366375
 20
-180.907337
 42
0.000000
 10
100.379982
 20
-179.884138
 42
0.000000
 10
100.905726
 20
-179.644138
 42
0.000000
 10
101.339982
 20
-178.891982
 42
0.000000
 10
101.339982
 20
-178.442569
 42
0.000000
 10
101.177550
 20
-178.208294
 42
0.000000
 10
101.459982
 20
-177.004138
 42
0.000000
 10
101.459982
 20
-174.221834
 42
0.000000
 10
101.212973
 20
-174.146081
 42
0.000000
 10
101.459982
 20
-172.780138
 42
0.000000
 10
101.459982
 20
-169.997834
 42
0.000000
 10
101.212973
 20
-169.922081
 42
0.000000
 10
101.459982
 20
-168.556138
 42
0.000000
 10
101.459982
 20
-165.773834
 42
0.000000
 10
101.212973
 20
-165.698081
 42
0.000000
 10
101.459982
 20
-164.332138
 42
0.000000
 10
101.459982
 20
-161.549834
 42
0.000000
 10
101.212973
 20
-161.474081
 42
0.000000
 10
101.459982
 20
-160.108138
 42
0.000000
 10
101.459982
 20
-157.325834
 42
0.000000
 10
101.212973
 20
-157.250081
 42
0.000000
 10
101.459982
 20
-155.884138
 42
0.000000
 10
101.455182
 20
-153.101750
 42
0.000000
 10
101.212973
 20
-153.026081
 42
0.000000
 10
101.459982
 20
-151.660138
 42
0.000000
 10
101.459982
 20
-148.877834
 42
0.000000
 10
101.212973
 20
-148.802081
 42
0.000000
 10
101.459982
 20
-147.436138
 42
0.000000
 10
101.459982
 20
-144.653834
 42
0.000000
 10
101.212973
 20
-144.578081
 42
0.000000
 10
101.459982
 20
-143.212138
 42
0.000000
 10
101.999982
 20
-80.749941
 42
0.000000
 10
104.499982
 20
-74.749941
 42
0.000000
 10
105.499982
 20
-51.249941
 42
0.000000
 10
106.749982
 20
-47.499941
 42
0.000000
 10
110.499982
 20
-46.249941
 42
0.000000
 10
127.499982
 20
-46.249941
 42
0.000000
  0
LWPOLYLINE
  5
64D
100
AcDbEntity
  8
Detail
  6
CONTINUOUS
 62
     9
100
AcDbPolyline
 90
   203
 10
97.499982
 20
-184.749941
 42
0.000000
 10
96.624717
 20
-182.636865
 42
0.000000
 10
95.755964
 20
-182.135290
 42
0.000000
 10
96.255964
 20
-181.746615
 42
0.000000
 10
95.808473
 20
-180.666278
 42
0.000000
 10
94.939719
 20
-180.164703
 42
0.000000
 10
95.439719
 20
-179.776028
 42
0.000000
 10
95.199982
 20
-179.197251
 42
0.000000
 10
95.199982
 20
-178.596212
 42
0.000000
 10
94.699982
 20
-178.307537
 42
0.000000
 10
95.199982
 20
-177.918862
 42
0.000000
 10
95.199982
 20
-176.786212
 42
0.000000
 10
94.699982
 20
-176.497537
 42
0.000000
 10
95.199982
 20
-176.108862
 42
0.000000
 10
95.199982
 20
-174.976212
 42
0.000000
 10
94.699982
 20
-174.687537
 42
0.000000
 10
95.199982
 20
-174.298862
 42
0.000000
 10
95.199982
 20
-173.166212
 42
0.000000
 10
94.699982
 20
-172.877537
 42
0.000000
 10
95.199982
 20
-172.488862
 42
0.000000
 10
95.199982
 20
-171.356212
 42
0.000000
 10
94.699982
 20
-171.067537
 42
0.000000
 10
95.199982
 20
-170.678862
 42
0.000000
 10
95.199982
 20
-169.546212
 42
0.000000
 10
94.699982
 20
-169.257537
 42
0.000000
 10
95.199982
 20
-168.868862
 42
0.000000
 10
95.199982
 20
-167.736212
 42
0.000000
 10
94.699982
 20
-167.447537
 42
0.000000
 10
95.199982
 20
-167.058862
 42
0.000000
 10
95.199982
 20
-165.926212
 42
0.000000
 10
94.699982
 20
-165.637537
 42
0.000000
 10
95.199982
 20
-165.248862
 42
0.000000
 10
95.199982
 20
-164.116212
 42
0.000000
 10
94.699982
 20
-163.827537
 42
0.000000
 10
95.199982
 20
-163.438862
 42
0.000000
 10
95.199982
 20
-162.306212
 42
0.000000
 10
94.699982
 20
-162.017537
 42
0.000000
 10
95.199982
 20
-161.628862
 42
0.000000
 10
95.199982
 20
-160.496212
 42
0.000000
 10
94.699982
 20
-160.207537
 42
0.000000
 10
95.199982
 20
-159.818862
 42
0.000000
 10
95.199982
 20
-158.686212
 42
0.000000
 10
94.699982
 20
-158.397537
 42
0.000000
 10
95.199982
 20
-158.008862
 42
0.000000
 10
95.199982
 20
-156.876212
 42
0.000000
 10
94.699982
 20
-156.587537
 42
0.000000
 10
95.199982
 20
-156.198862
 42
0.000000
 10
95.199982
 20
-155.066212
 42
0.000000
 10
94.699982
 20
-154.777537
 42
0.000000
 10
95.199982
 20
-154.388862
 42
0.000000
 10
95.199982
 20
-153.256212
 42
0.000000
 10
94.699982
 20
-152.967537
 42
0.000000
 10
95.199982
 20
-152.578862
 42
0.000000
 10
95.199982
 20
-151.446212
 42
0.000000
 10
94.699982
 20
-151.157537
 42
0.000000
 10
95.199982
 20
-150.768862
 42
0.000000
 10
95.199982
 20
-149.636212
 42
0.000000
 10
94.699982
 20
-149.347537
 42
0.000000
 10
95.199982
 20
-148.936348
 42
0.000000
 10
95.199982
 20
-147.826212
 42
0.000000
 10
94.699982
 20
-147.537537
 42
0.000000
 10
95.199982
 20
-147.148862
 42
0.000000
 10
95.199982
 20
-146.016212
 42
0.000000
 10
94.699982
 20
-145.727537
 42
0.000000
 10
95.199982
 20
-145.338862
 42
0.000000
 10
95.199982
 20
-144.206212
 42
0.000000
 10
94.699982
 20
-143.917537
 42
0.000000
 10
95.199982
 20
-143.528862
 42
0.000000
 10
95.199982
 20
-142.396212
 42
0.000000
 10
94.699982
 20
-142.107537
 42
0.000000
 10
95.199982
 20
-141.718862
 42
0.000000
 10
95.199982
 20
-140.586212
 42
0.000000
 10
94.699982
 20
-140.297537
 42
0.000000
 10
95.199982
 20
-139.908862
 42
0.000000
 10
95.199982
 20
-138.776212
 42
0.000000
 10
94.699982
 20
-138.487537
 42
0.000000
 10
95.199982
 20
-138.098862
 42
0.000000
 10
95.199982
 20
-136.966212
 42
0.000000
 10
94.699982
 20
-136.677537
 42
0.000000
 10
95.199982
 20
-136.288862
 42
0.000000
 10
95.199982
 20
-135.156212
 42
0.000000
 10
94.699982
 20
-134.867537
 42
0.000000
 10
95.199982
 20
-134.478862
 42
0.000000
 10
95.199982
 20
-133.346212
 42
0.000000
 10
94.699982
 20
-133.057537
 42
0.000000
 10
95.199982
 20
-132.668862
 42
0.000000
 10
95.199982
 20
-131.536212
 42
0.000000
 10
94.699982
 20
-131.247537
 42
0.000000
 10
95.199982
 20
-130.858862
 42
0.000000
 10
95.199982
 20
-129.726212
 42
0.000000
 10
94.699982
 20
-129.437537
 42
0.000000
 10
95.199982
 20
-129.048862
 42
0.000000
 10
95.199982
 20
-127.916212
 42
0.000000
 10
94.699982
 20
-127.627537
 42
0.000000
 10
95.199982
 20
-127.238862
 42
0.000000
 10
95.199982
 20
-126.106212
 42
0.000000
 10
94.699982
 20
-125.817537
 42
0.000000
 10
95.199982
 20
-125.428862
 42
0.000000
 10
95.199982
 20
-124.749941
 42
0.000000
 10
95.099982
 20
-124.576736
 42
0.000000
 10
92.999982
 20
-80.749941
 42
0.000000
 10
101.999982
 20
-80.749941
 42
0.000000
 10
99.899982
 20
-124.576736
 42
0.000000
 10
99.799982
 20
-124.749941
 42
0.000000
 10
100.299982
 20
-124.912537
 42
0.000000
 10
99.799982
 20
-125.201212
 42
0.000000
 10
99.799982
 20
-126.333862
 42
0.000000
 10
100.299982
 20
-126.722537
 42
0.000000
 10
99.799982
 20
-127.011212
 42
0.000000
 10
99.799982
 20
-128.143862
 42
0.000000
 10
100.299982
 20
-128.532537
 42
0.000000
 10
99.799982
 20
-128.821212
 42
0.000000
 10
99.799982
 20
-129.953862
 42
0.000000
 10
100.299982
 20
-130.342537
 42
0.000000
 10
99.799982
 20
-130.631212
 42
0.000000
 10
99.799982
 20
-131.763862
 42
0.000000
 10
100.299982
 20
-132.152537
 42
0.000000
 10
99.799982
 20
-132.441212
 42
0.000000
 10
99.799982
 20
-133.573862
 42
0.000000
 10
100.299982
 20
-133.962537
 42
0.000000
 10
99.799982
 20
-134.251212
 42
0.000000
 10
99.799982
 20
-135.383862
 42
0.000000
 10
100.299982
 20
-135.772537
 42
0.000000
 10
99.799982
 20
-136.061212
 42
0.000000
 10
99.799982
 20
-137.193862
 42
0.000000
 10
100.299982
 20
-137.582537
 42
0.000000
 10
99.799982
 20
-137.871212
 42
0.000000
 10
99.799982
 20
-139.003862
 42
0.000000
 10
100.299982
 20
-139.392537
 42
0.000000
 10
99.799982
 20
-139.681212
 42
0.000000
 10
99.799982
 20
-140.813862
 42
0.000000
 10
100.299982
 20
-141.202537
 42
0.000000
 10
99.799982
 20
-141.491212
 42
0.000000
 10
99.799982
 20
-142.623862
 42
0.000000
 10
100.299982
 20
-143.012537
 42
0.000000
 10
99.799982
 20
-143.301212
 42
0.000000
 10
99.799982
 20
-144.433862
 42
0.000000
 10
100.299982
 20
-144.822537
 42
0.000000
 10
99.799982
 20
-145.111212
 42
0.000000
 10
99.799982
 20
-146.243862
 42
0.000000
 10
100.299982
 20
-146.632537
 42
0.000000
 10
99.799982
 20
-146.921212
 42
0.000000
 10
99.799982
 20
-148.053862
 42
0.000000
 10
100.299982
 20
-148.442537
 42
0.000000
 10
99.799982
 20
-148.731212
 42
0.000000
 10
99.799982
 20
-149.863862
 42
0.000000
 10
100.299982
 20
-150.252537
 42
0.000000
 10
99.799982
 20
-150.541212
 42
0.000000
 10
99.799982
 20
-151.673862
 42
0.000000
 10
100.299982
 20
-152.062537
 42
0.000000
 10
99.799982
 20
-152.351212
 42
0.000000
 10
99.799982
 20
-153.483862
 42
0.000000
 10
100.299982
 20
-153.872537
 42
0.000000
 10
99.799982
 20
-154.161212
 42
0.000000
 10
99.799982
 20
-155.293862
 42
0.000000
 10
100.299982
 20
-155.682537
 42
0.000000
 10
99.799982
 20
-155.971212
 42
0.000000
 10
99.799982
 20
-157.103862
 42
0.000000
 10
100.299982
 20
-157.492537
 42
0.000000
 10
99.799982
 20
-157.781212
 42
0.000000
 10
99.799982
 20
-158.913862
 42
0.000000
 10
100.299982
 20
-159.302537
 42
0.000000
 10
99.799982
 20
-159.591212
 42
0.000000
 10
99.799982
 20
-160.723862
 42
0.000000
 10
100.299982
 20
-161.112537
 42
0.000000
 10
99.799982
 20
-161.401212
 42
0.000000
 10
99.799982
 20
-162.533862
 42
0.000000
 10
100.299982
 20
-162.922537
 42
0.000000
 10
99.799982
 20
-163.211212
 42
0.000000
 10
99.799982
 20
-164.343862
 42
0.000000
 10
100.299982
 20
-164.732537
 42
0.000000
 10
99.799982
 20
-165.021212
 42
0.000000
 10
99.799982
 20
-166.153862
 42
0.000000
 10
100.299982
 20
-166.542537
 42
0.000000
 10
99.799982
 20
-166.831212
 42
0.000000
 10
99.799982
 20
-167.963862
 42
0.000000
 10
100.299982
 20
-168.352537
 42
0.000000
 10
99.799982
 20
-168.641212
 42
0.000000
 10
99.799982
 20
-169.773862
 42
0.000000
 10
100.299982
 20
-170.162537
 42
0.000000
 10
99.799982
 20
-170.451212
 42
0.000000
 10
99.799982
 20
-171.583862
 42
0.000000
 10
100.299982
 20
-171.972537
 42
0.000000
 10
99.799982
 20
-172.261212
 42
0.000000
 10
99.799982
 20
-173.393862
 42
0.000000
 10
100.299982
 20
-173.782537
 42
0.000000
 10
99.799982
 20
-174.071212
 42
0.000000
 10
99.799982
 20
-175.203862
 42
0.000000
 10
100.299982
 20
-175.592537
 42
0.000000
 10
99.799982
 20
-175.881212
 42
0.000000
 10
99.799982
 20
-177.013862
 42
0.000000
 10
100.299982
 20
-177.402537
 42
0.000000
 10
99.799982
 20
-177.691212
 42
0.000000
 10
99.799982
 20
-178.823862
 42
0.000000
 10
100.299982
 20
-179.212537
 42
0.000000
 10
99.634503
 20
-179.596752
 42
0.000000
 10
99.249757
 20
-180.525612
 42
0.000000
 10
99.749757
 20
-180.914287
 42
0.000000
 10
98.881003
 20
-181.415861
 42
0.000000
 10
98.556523
 20
-182.199225
 42
0.000000
 10
99.056523
 20
-182.587900
 42
0.000000
 10
98.187769
 20
-183.089475
 42
0.000000
 10
97.499982
 20
-184.749941
 42
0.000000
  0
ENDBLK
  5
719
100
AcDbEntity
  8
0
100
AcDbBlockEnd
  0
BLOCK
  5
71A
100
AcDbEntity
  8
Detail
100
AcDbBlockBegin
  2
B-77
 70
    66
 10
0.000000
 20
0.000000
 30
0.000000
  0
MTEXT
  5
71B
100
AcDbEntity
  8
Detail
 62
     7
100
AcDbMText
 10
79.375019
 20
136.250052
 30
0.000000
 40
4.999990
 41
140.804662
 71
     1
 72
     5
  1
Ausgleichsschicht mit Ceratherm Mörtel DP
  7
Arial
 50
0.000000
  0
ENDBLK
  5
71C
100
AcDbEntity
  8
0
100
AcDbBlockEnd
  0
BLOCK
  5
71D
100
AcDbEntity
  8
Detail
100
AcDbBlockBegin
  2
B-78
 70
    66
 10
0.000000
 20
0.000000
 30
0.000000
  0
MTEXT
  5
71E
100
AcDbEntity
  8
Detail
 62
     7
100
AcDbMText
 10
79.375019
 20
111.250052
 30
0.000000
 40
4.999990
 41
44.939892
 71
     1
 72
     5
  1
Verlegemörtel
  7
Arial
 50
0.000000
  0
ENDBLK
  5
71F
100
AcDbEntity
  8
0
100
AcDbBlockEnd
  0
BLOCK
  5
720
100
AcDbEntity
  8
Detail
100
AcDbBlockBegin
  2
B-79
 70
    66
 10
0.000000
 20
0.000000
 30
0.000000
  0
LWPOLYLINE
  5
721
100
AcDbEntity
  8
Detail
  6
CONTINUOUS
 62
     7
100
AcDbPolyline
 90
     2
 10
77.500023
 20
158.750060
 42
0.000000
 10
-64.500018
 20
158.750058
 42
0.000000
  0
ENDBLK
  5
724
100
AcDbEntity
  8
0
100
AcDbBlockEnd
  0
BLOCK
  5
725
100
AcDbEntity
  8
SCHRAFF
100
AcDbBlockBegin
  2
B-80
 70
    66
 10
0.000000
 20
0.000000
 30
0.000000
  0
HATCH
  5
726
100
AcDbEntity
  8
SCHRAFF
 62
     7
440
     0
100
AcDbHatch
 10
0.000000
 20
0.000000
 30
0.000000
210
0.000000
220
0.000000
230
1.000000
  2
SOLID
 70
     1
 71
     1
 91
     1
 92
    18
 72
     1
 73
     0
 93
     3
 10
-64.000018
 20
158.750058
 42
1.000000
 10
-65.000018
 20
158.750058
 42
1.000000
 10
-64.000018
 20
158.750058
 42
0.000000
 97
     0
 75
     0
 76
     1
 98
     0
  0
CIRCLE
  5
727
100
AcDbEntity
  8
Detail
  6
CONTINUOUS
 62
     7
100
AcDbCircle
 10
-64.500018
 20
158.750058
 40
0.500000
  0
ENDBLK
  5
728
100
AcDbEntity
  8
0
100
AcDbBlockEnd
  0
BLOCK
  5
729
100
AcDbEntity
  8
Detail
100
AcDbBlockBegin
  2
B-81
 70
    66
 10
0.000000
 20
0.000000
 30
0.000000
  0
LWPOLYLINE
  5
72A
100
AcDbEntity
  8
Detail
  6
CONTINUOUS
 62
     7
100
AcDbPolyline
 90
     2
 10
77.500023
 20
208.750063
 42
0.000000
 10
-107.500018
 20
208.750060
 42
0.000000
  0
ENDBLK
  5
72D
100
AcDbEntity
  8
0
100
AcDbBlockEnd
  0
BLOCK
  5
72E
100
AcDbEntity
  8
Detail
100
AcDbBlockBegin
  2
B-82
 70
    66
 10
0.000000
 20
0.000000
 30
0.000000
  0
MTEXT
  5
72F
100
AcDbEntity
  8
Detail
 62
     7
100
AcDbMText
 10
79.375020
 20
186.250057
 30
0.000000
 40
4.999990
 41
40.897402
 71
     1
 72
     5
  1
Fugenmörtel
  7
Arial
 50
0.000000
  0
ENDBLK
  5
730
100
AcDbEntity
  8
0
100
AcDbBlockEnd
  0
BLOCK
  5
731
100
AcDbEntity
  8
SCHRAFF
100
AcDbBlockBegin
  2
B-83
 70
    66
 10
0.000000
 20
0.000000
 30
0.000000
  0
HATCH
  5
732
100
AcDbEntity
  8
SCHRAFF
 62
     7
440
     0
100
AcDbHatch
 10
0.000000
 20
0.000000
 30
0.000000
210
0.000000
220
0.000000
230
1.000000
  2
SOLID
 70
     1
 71
     1
 91
     1
 92
    18
 72
     1
 73
     0
 93
     3
 10
-107.000018
 20
208.750060
 42
1.000000
 10
-108.000018
 20
208.750060
 42
1.000000
 10
-107.000018
 20
208.750060
 42
0.000000
 97
     0
 75
     0
 76
     1
 98
     0
  0
CIRCLE
  5
733
100
AcDbEntity
  8
Detail
  6
CONTINUOUS
 62
     7
100
AcDbCircle
 10
-107.500018
 20
208.750060
 40
0.500000
  0
ENDBLK
  5
734
100
AcDbEntity
  8
0
100
AcDbBlockEnd
  0
BLOCK
  5
735
100
AcDbEntity
  8
Detail
100
AcDbBlockBegin
  2
B-84
 70
    66
 10
0.000000
 20
0.000000
 30
0.000000
  0
LWPOLYLINE
  5
736
100
AcDbEntity
  8
Detail
  6
CONTINUOUS
 62
     7
100
AcDbPolyline
 90
     3
 10
77.500025
 20
183.750061
 42
0.000000
 10
-42.500017
 20
183.750061
 42
0.000000
 10
-52.500017
 20
183.750061
 42
0.000000
  0
ENDBLK
  5
73A
100
AcDbEntity
  8
0
100
AcDbBlockEnd
  0
BLOCK
  5
73B
100
AcDbEntity
  8
Detail
100
AcDbBlockBegin
  2
B-85
 70
    66
 10
0.000000
 20
0.000000
 30
0.000000
  0
LWPOLYLINE
  5
73C
100
AcDbEntity
  8
Detail
  6
CONTINUOUS
 62
     2
100
AcDbPolyline
 90
     2
 10
212.500023
 20
-136.249941
 42
0.000000
 10
-212.500018
 20
-136.249941
 42
0.000000
  0
ENDBLK
  5
73F
100
AcDbEntity
  8
0
100
AcDbBlockEnd
  0
BLOCK
  5
740
100
AcDbEntity
  8
L
100
AcDbBlockBegin
  2
B-86
 70
    66
 10
0.000000
 20
0.000000
 30
0.000000
  0
LWPOLYLINE
  5
741
100
AcDbEntity
  8
L
  6
CONTINUOUS
 62
     2
100
AcDbPolyline
 90
     3
 10
-212.500018
 20
-126.249941
 42
0.000000
 10
-152.500018
 20
-126.249941
 42
0.000000
 10
-152.500018
 20
296.250078
 42
0.000000
  0
ENDBLK
  5
745
100
AcDbEntity
  8
0
100
AcDbBlockEnd
  0
BLOCK
  5
746
100
AcDbEntity
  8
L
100
AcDbBlockBegin
  2
B-87
 70
    66
 10
0.000000
 20
0.000000
 30
0.000000
  0
LWPOLYLINE
  5
747
100
AcDbEntity
  8
L
  6
CONTINUOUS
 62
     3
100
AcDbPolyline
 90
     4
 10
-212.500018
 20
-136.249941
 42
0.000000
 10
-152.500018
 20
-136.249941
 42
0.000000
 10
-152.500018
 20
-126.249941
 42
0.000000
 10
-212.500018
 20
-126.249941
 42
0.000000
  0
ENDBLK
  5
74C
100
AcDbEntity
  8
0
100
AcDbBlockEnd
  0
BLOCK
  5
74D
100
AcDbEntity
  8
L
100
AcDbBlockBegin
  2
B-88
 70
    66
 10
0.000000
 20
0.000000
 30
0.000000
  0
LWPOLYLINE
  5
74E
100
AcDbEntity
  8
L
  6
CONTINUOUS
 62
     3
100
AcDbPolyline
 90
     5
 10
-67.500018
 20
-43.249941
 42
0.000000
 10
-150.500018
 20
-43.249941
 42
0.000000
 10
-150.500018
 20
-23.249941
 42
0.000000
 10
-67.500018
 20
-23.249941
 42
0.000000
 10
-67.500018
 20
-43.249941
 42
0.000000
  0
ENDBLK
  5
754
100
AcDbEntity
  8
0
100
AcDbBlockEnd
  0
BLOCK
  5
755
100
AcDbEntity
  8
Detail
100
AcDbBlockBegin
  2
B-89
 70
    66
 10
0.000000
 20
0.000000
 30
0.000000
  0
MTEXT
  5
756
100
AcDbEntity
  8
Detail
 62
     7
100
AcDbMText
 10
79.375019
 20
36.250054
 30
0.000000
 40
4.999990
 41
50.347379
 71
     1
 72
     5
  1
MW-Dämmstoff
  7
Arial
 50
0.000000
  0
ENDBLK
  5
757
100
AcDbEntity
  8
0
100
AcDbBlockEnd
  0
BLOCK
  5
758
100
AcDbEntity
  8
Detail
100
AcDbBlockBegin
  2
B-90
 70
    66
 10
0.000000
 20
0.000000
 30
0.000000
  0
LWPOLYLINE
  5
759
100
AcDbEntity
  8
Detail
  6
CONTINUOUS
 62
     7
100
AcDbPolyline
 90
     3
 10
77.500023
 20
33.750059
 42
0.000000
 10
-109.500018
 20
33.750059
 42
0.000000
 10
-109.500018
 20
-32.249941
 42
0.000000
  0
ENDBLK
  5
75D
100
AcDbEntity
  8
0
100
AcDbBlockEnd
  0
BLOCK
  5
75E
100
AcDbEntity
  8
SCHRAFF
100
AcDbBlockBegin
  2
B-91
 70
    66
 10
0.000000
 20
0.000000
 30
0.000000
  0
HATCH
  5
75F
100
AcDbEntity
  8
SCHRAFF
 62
     7
440
     0
100
AcDbHatch
 10
0.000000
 20
0.000000
 30
0.000000
210
0.000000
220
0.000000
230
1.000000
  2
SOLID
 70
     1
 71
     1
 91
     1
 92
    18
 72
     1
 73
     0
 93
     3
 10
-109.000018
 20
-32.249941
 42
1.000000
 10
-110.000018
 20
-32.249941
 42
1.000000
 10
-109.000018
 20
-32.249941
 42
0.000000
 97
     0
 75
     0
 76
     1
 98
     0
  0
CIRCLE
  5
760
100
AcDbEntity
  8
Detail
  6
CONTINUOUS
 62
     7
100
AcDbCircle
 10
-109.500018
 20
-32.249941
 40
0.500000
  0
ENDBLK
  5
761
100
AcDbEntity
  8
0
100
AcDbBlockEnd
  0
BLOCK
  5
762
100
AcDbEntity
  8
Detail
100
AcDbBlockBegin
  2
B-93
 70
    66
 10
0.000000
 20
0.000000
 30
0.000000
  0
LWPOLYLINE
  5
763
100
AcDbEntity
  8
Detail
  6
HIDDEN
 62
     9
100
AcDbPolyline
 90
     2
 10
-87.500018
 20
28.750059
 42
0.000000
 10
162.500023
 20
296.250078
 42
0.000000
  0
LWPOLYLINE
  5
766
100
AcDbEntity
  8
Detail
  6
HIDDEN
 62
     9
100
AcDbPolyline
 90
     2
 10
-37.500018
 20
-61.249941
 42
0.000000
 10
212.500023
 20
206.250078
 42
0.000000
  0
ENDBLK
  5
769
100
AcDbEntity
  8
0
100
AcDbBlockEnd
  0
BLOCK
  5
76A
100
AcDbEntity
  8
SCHRAFF
100
AcDbBlockBegin
  2
B-94
 70
    66
 10
0.000000
 20
0.000000
 30
0.000000
  0
HATCH
  5
76B
100
AcDbEntity
  8
SCHRAFF
 62
    61
440
     0
100
AcDbHatch
 10
0.000000
 20
0.000000
 30
0.000000
210
0.000000
220
0.000000
230
1.000000
  2
SOLID
 70
     1
 71
     1
 91
     1
 92
    18
 72
     1
 73
     0
 93
     5
 10
182.500023
 20
246.250078
 42
0.000000
 10
162.500023
 20
246.250078
 42
0.000000
 10
162.500023
 20
224.250078
 42
0.000000
 10
182.500023
 20
224.250078
 42
0.000000
 10
182.500023
 20
246.250078
 42
0.000000
 97
     0
 75
     0
 76
     1
 98
     0
  0
LWPOLYLINE
  5
76C
100
AcDbEntity
  8
SCHRAFF
  6
CONTINUOUS
 62
     9
100
AcDbPolyline
 90
    15
 10
182.500023
 20
246.250078
 42
-0.225975
 10
181.192466
 20
242.360989
 42
-0.172128
 10
178.035734
 20
240.750075
 42
-0.083760
 10
176.279625
 20
241.193481
 42
0.000000
 10
168.952879
 20
245.674295
 42
0.096247
 10
166.964311
 20
246.250078
 42
0.172127
 10
163.807581
 20
244.639163
 42
0.225975
 10
162.500023
 20
240.750073
 42
0.225975
 10
163.807585
 20
236.860989
 42
0.172127
 10
166.964311
 20
235.250079
 42
0.096247
 10
168.952879
 20
235.825862
 42
0.000000
 10
176.047172
 20
240.174294
 42
-0.096247
 10
178.035734
 20
240.750073
 42
-0.172127
 10
181.192461
 20
239.139161
 42
-0.225975
 10
182.500020
 20
235.250078
 42
0.000000
  0
LWPOLYLINE
  5
77C
100
AcDbEntity
  8
SCHRAFF
  6
CONTINUOUS
 62
     9
100
AcDbPolyline
 90
    15
 10
182.500023
 20
235.250078
 42
-0.225975
 10
181.192466
 20
231.360989
 42
-0.172128
 10
178.035734
 20
229.750075
 42
-0.083760
 10
176.279625
 20
230.193481
 42
0.000000
 10
168.952879
 20
234.674295
 42
0.096247
 10
166.964311
 20
235.250078
 42
0.172127
 10
163.807581
 20
233.639163
 42
0.225975
 10
162.500023
 20
229.750073
 42
0.225975
 10
163.807585
 20
225.860989
 42
0.172127
 10
166.964311
 20
224.250079
 42
0.096247
 10
168.952879
 20
224.825862
 42
0.000000
 10
176.047172
 20
229.174294
 42
-0.096247
 10
178.035734
 20
229.750073
 42
-0.172127
 10
181.192461
 20
228.139161
 42
-0.225975
 10
182.500020
 20
224.250078
 42
0.000000
  0
ENDBLK
  5
78C
100
AcDbEntity
  8
0
100
AcDbBlockEnd
  0
BLOCK
  5
78D
100
AcDbEntity
  8
SCHRAFF
100
AcDbBlockBegin
  2
B-95
 70
    66
 10
0.000000
 20
0.000000
 30
0.000000
  0
HATCH
  5
78E
100
AcDbEntity
  8
SCHRAFF
 62
     8
440
     0
100
AcDbHatch
 10
0.000000
 20
0.000000
 30
0.000000
210
0.000000
220
0.000000
230
1.000000
  2
SOLID
 70
     1
 71
     1
 91
     1
 92
    18
 72
     1
 73
     0
 93
     5
 10
202.500023
 20
246.250078
 42
0.000000
 10
182.500023
 20
246.250078
 42
0.000000
 10
182.500023
 20
236.250078
 42
0.000000
 10
202.500023
 20
236.250078
 42
0.000000
 10
202.500023
 20
246.250078
 42
0.000000
 97
     0
 75
     0
 76
     1
 98
     0
  0
ENDBLK
  5
78F
100
AcDbEntity
  8
0
100
AcDbBlockEnd
  0
BLOCK
  5
790
100
AcDbEntity
  8
SCHRAFF
100
AcDbBlockBegin
  2
B-96
 70
    66
 10
0.000000
 20
0.000000
 30
0.000000
  0
HATCH
  5
791
100
AcDbEntity
  8
SCHRAFF
 62
   161
440
     0
100
AcDbHatch
 10
0.000000
 20
0.000000
 30
0.000000
210
0.000000
220
0.000000
230
1.000000
  2
SOLID
 70
     1
 71
     1
 91
     1
 92
    18
 72
     1
 73
     0
 93
     5
 10
182.500023
 20
228.250078
 42
0.000000
 10
182.500023
 20
236.250078
 42
0.000000
 10
212.500023
 20
236.250078
 42
0.000000
 10
212.500023
 20
228.250078
 42
0.000000
 10
182.500023
 20
228.250078
 42
0.000000
 97
     0
 75
     0
 76
     1
 98
     0
  0
ENDBLK
  5
792
100
AcDbEntity
  8
0
100
AcDbBlockEnd
  0
BLOCK
  5
793
100
AcDbEntity
  8
SCHRAFF
100
AcDbBlockBegin
  2
B-97
 70
    66
 10
0.000000
 20
0.000000
 30
0.000000
  0
HATCH
  5
794
100
AcDbEntity
  8
SCHRAFF
 62
   161
440
     0
100
AcDbHatch
 10
0.000000
 20
0.000000
 30
0.000000
210
0.000000
220
0.000000
230
1.000000
  2
SOLID
 70
     1
 71
     1
 91
     1
 92
    18
 72
     1
 73
     0
 93
     5
 10
194.500023
 20
296.250078
 42
0.000000
 10
202.500023
 20
296.250078
 42
0.000000
 10
202.500023
 20
246.250078
 42
0.000000
 10
194.500023
 20
246.250078
 42
0.000000
 10
194.500023
 20
296.250078
 42
0.000000
 97
     0
 75
     0
 76
     1
 98
     0
  0
ENDBLK
  5
795
100
AcDbEntity
  8
0
100
AcDbBlockEnd
  0
BLOCK
  5
796
100
AcDbEntity
  8
SCHRAFF
100
AcDbBlockBegin
  2
B-98
 70
    66
 10
0.000000
 20
0.000000
 30
0.000000
  0
HATCH
  5
797
100
AcDbEntity
  8
SCHRAFF
 62
    51
440
     0
100
AcDbHatch
 10
0.000000
 20
0.000000
 30
0.000000
210
0.000000
220
0.000000
230
1.000000
  2
SOLID
 70
     1
 71
     1
 91
     1
 92
    18
 72
     1
 73
     0
 93
     5
 10
162.500023
 20
296.250165
 42
0.000000
 10
162.500023
 20
246.250078
 42
0.000000
 10
182.500023
 20
246.250078
 42
0.000000
 10
182.500023
 20
296.250178
 42
0.000000
 10
162.500023
 20
296.250165
 42
0.000000
 97
     0
 75
     0
 76
     1
 98
     0
  0
ENDBLK
  5
798
100
AcDbEntity
  8
0
100
AcDbBlockEnd
  0
BLOCK
  5
799
100
AcDbEntity
  8
SCHRAFF
100
AcDbBlockBegin
  2
B-99
 70
    66
 10
0.000000
 20
0.000000
 30
0.000000
  0
HATCH
  5
79A
100
AcDbEntity
  8
SCHRAFF
 62
   253
440
     0
100
AcDbHatch
 10
0.000000
 20
0.000000
 30
0.000000
210
0.000000
220
0.000000
230
1.000000
  2
SOLID
 70
     1
 71
     1
 91
     1
 92
    18
 72
     1
 73
     0
 93
     5
 10
194.500023
 20
296.250078
 42
0.000000
 10
194.500023
 20
246.250078
 42
0.000000
 10
190.500023
 20
246.250078
 42
0.000000
 10
190.500023
 20
296.250078
 42
0.000000
 10
194.500023
 20
296.250078
 42
0.000000
 97
     0
 75
     0
 76
     1
 98
     0
  0
HATCH
  5
79B
100
AcDbEntity
  8
SCHRAFF
 62
     9
440
     0
100
AcDbHatch
 10
0.000000
 20
0.000000
 30
0.000000
210
0.000000
220
0.000000
230
1.000000
  2
SOLID
 70
     1
 71
     1
 91
     1
 92
    18
 72
     1
 73
     0
 93
     5
 10
188.500023
 20
246.250078
 42
0.000000
 10
188.500023
 20
296.250078
 42
0.000000
 10
190.500023
 20
296.250078
 42
0.000000
 10
190.500023
 20
246.250078
 42
0.000000
 10
188.500023
 20
246.250078
 42
0.000000
 97
     0
 75
     0
 76
     1
 98
     0
  0
ENDBLK
  5
79C
100
AcDbEntity
  8
0
100
AcDbBlockEnd
  0
BLOCK
  5
79D
100
AcDbEntity
  8
SCHRAFF
100
AcDbBlockBegin
  2
B-100
 70
    66
 10
0.000000
 20
0.000000
 30
0.000000
  0
HATCH
  5
79E
100
AcDbEntity
  8
SCHRAFF
 62
     9
440
     0
100
AcDbHatch
 10
0.000000
 20
0.000000
 30
0.000000
210
0.000000
220
0.000000
230
1.000000
  2
SOLID
 70
     1
 71
     1
 91
     1
 92
    18
 72
     1
 73
     0
 93
     5
 10
212.500023
 20
222.250078
 42
0.000000
 10
162.500023
 20
222.250078
 42
0.000000
 10
162.500023
 20
216.250078
 42
0.000000
 10
212.500023
 20
216.250078
 42
0.000000
 10
212.500023
 20
222.250078
 42
0.000000
 97
     0
 75
     0
 76
     1
 98
     0
  0
ENDBLK
  5
79F
100
AcDbEntity
  8
0
100
AcDbBlockEnd
  0
BLOCK
  5
7A0
100
AcDbEntity
  8
SCHRAFF
100
AcDbBlockBegin
  2
B-101
 70
    66
 10
0.000000
 20
0.000000
 30
0.000000
  0
HATCH
  5
7A1
100
AcDbEntity
  8
SCHRAFF
 62
     9
440
     0
100
AcDbHatch
 10
0.000000
 20
0.000000
 30
0.000000
210
0.000000
220
0.000000
230
1.000000
  2
SOLID
 70
     1
 71
     1
 91
     1
 92
    18
 72
     1
 73
     0
 93
     5
 10
188.500023
 20
246.250078
 42
0.000000
 10
188.500023
 20
296.250078
 42
0.000000
 10
182.500023
 20
296.250078
 42
0.000000
 10
182.500023
 20
246.250078
 42
0.000000
 10
188.500023
 20
246.250078
 42
0.000000
 97
     0
 75
     0
 76
     1
 98
     0
  0
ENDBLK
  5
7A2
100
AcDbEntity
  8
0
100
AcDbBlockEnd
  0
BLOCK
  5
7A3
100
AcDbEntity
  8
SCHRAFF
100
AcDbBlockBegin
  2
B-102
 70
    66
 10
0.000000
 20
0.000000
 30
0.000000
  0
HATCH
  5
7A4
100
AcDbEntity
  8
SCHRAFF
 62
    51
440
     0
100
AcDbHatch
 10
0.000000
 20
0.000000
 30
0.000000
210
0.000000
220
0.000000
230
1.000000
  2
SOLID
 70
     1
 71
     1
 91
     1
 92
    18
 72
     1
 73
     0
 93
     5
 10
212.500023
 20
216.250078
 42
0.000000
 10
162.500023
 20
216.250078
 42
0.000000
 10
162.500023
 20
206.250078
 42
0.000000
 10
212.500023
 20
206.250078
 42
0.000000
 10
212.500023
 20
216.250078
 42
0.000000
 97
     0
 75
     0
 76
     1
 98
     0
  0
ENDBLK
  5
7A5
100
AcDbEntity
  8
0
100
AcDbBlockEnd
  0
BLOCK
  5
7A6
100
AcDbEntity
  8
SCHRAFF
100
AcDbBlockBegin
  2
B-103
 70
    66
 10
0.000000
 20
0.000000
 30
0.000000
  0
HATCH
  5
7A7
100
AcDbEntity
  8
SCHRAFF
 62
   253
440
     0
100
AcDbHatch
 10
0.000000
 20
0.000000
 30
0.000000
210
0.000000
220
0.000000
230
1.000000
  2
SOLID
 70
     1
 71
     1
 91
     1
 92
    18
 72
     1
 73
     0
 93
     5
 10
182.500023
 20
228.250078
 42
0.000000
 10
212.500023
 20
228.250078
 42
0.000000
 10
212.500023
 20
224.250078
 42
0.000000
 10
182.500023
 20
224.250078
 42
0.000000
 10
182.500023
 20
228.250078
 42
0.000000
 97
     0
 75
     0
 76
     1
 98
     0
  0
HATCH
  5
7A8
100
AcDbEntity
  8
SCHRAFF
 62
     9
440
     0
100
AcDbHatch
 10
0.000000
 20
0.000000
 30
0.000000
210
0.000000
220
0.000000
230
1.000000
  2
SOLID
 70
     1
 71
     1
 91
     1
 92
    18
 72
     1
 73
     0
 93
     5
 10
212.500023
 20
222.250078
 42
0.000000
 10
162.500023
 20
222.250078
 42
0.000000
 10
162.500023
 20
224.250078
 42
0.000000
 10
212.500023
 20
224.250078
 42
0.000000
 10
212.500023
 20
222.250078
 42
0.000000
 97
     0
 75
     0
 76
     1
 98
     0
  0
ENDBLK
  5
7A9
100
AcDbEntity
  8
0
100
AcDbBlockEnd
  0
BLOCK
  5
7AA
100
AcDbEntity
  8
Detail
100
AcDbBlockBegin
  2
B-104
 70
    66
 10
0.000000
 20
0.000000
 30
0.000000
  0
LWPOLYLINE
  5
7AB
100
AcDbEntity
  8
Detail
  6
CONTINUOUS
 62
     6
100
AcDbPolyline
 90
     2
 10
212.500023
 20
222.250078
 42
0.000000
 10
162.500023
 20
222.250078
 42
0.000000
  0
LWPOLYLINE
  5
7AE
100
AcDbEntity
  8
Detail
  6
CONTINUOUS
 62
     6
100
AcDbPolyline
 90
     2
 10
162.500023
 20
224.250078
 42
0.000000
 10
212.500023
 20
224.250078
 42
0.000000
  0
ENDBLK
  5
7B1
100
AcDbEntity
  8
0
100
AcDbBlockEnd
  0
BLOCK
  5
7B2
100
AcDbEntity
  8
Detail
100
AcDbBlockBegin
  2
B-105
 70
    66
 10
0.000000
 20
0.000000
 30
0.000000
  0
LWPOLYLINE
  5
7B3
100
AcDbEntity
  8
Detail
  6
CONTINUOUS
 62
     6
100
AcDbPolyline
 90
     4
 10
212.500023
 20
224.250078
 42
0.000000
 10
182.500023
 20
224.250078
 42
0.000000
 10
182.500023
 20
228.250078
 42
0.000000
 10
212.500023
 20
228.250078
 42
0.000000
  0
ENDBLK
  5
7B8
100
AcDbEntity
  8
0
100
AcDbBlockEnd
  0
BLOCK
  5
7B9
100
AcDbEntity
  8
Detail
100
AcDbBlockBegin
  2
B-106
 70
    66
 10
0.000000
 20
0.000000
 30
0.000000
  0
LWPOLYLINE
  5
7BA
100
AcDbEntity
  8
Detail
  6
CONTINUOUS
 62
     6
100
AcDbPolyline
 90
     4
 10
182.500023
 20
296.250078
 42
0.000000
 10
182.500023
 20
246.250078
 42
0.000000
 10
188.500023
 20
246.250078
 42
0.000000
 10
188.500023
 20
296.250078
 42
0.000000
  0
ENDBLK
  5
7BF
100
AcDbEntity
  8
0
100
AcDbBlockEnd
  0
BLOCK
  5
7C0
100
AcDbEntity
  8
Detail
100
AcDbBlockBegin
  2
B-107
 70
    66
 10
0.000000
 20
0.000000
 30
0.000000
  0
LWPOLYLINE
  5
7C1
100
AcDbEntity
  8
Detail
  6
HIDDEN
 62
     9
100
AcDbPolyline
 90
     2
 10
187.500023
 20
296.250078
 42
0.000000
 10
187.500023
 20
246.250078
 42
0.000000
  0
ENDBLK
  5
7C4
100
AcDbEntity
  8
0
100
AcDbBlockEnd
  0
BLOCK
  5
7C5
100
AcDbEntity
  8
Detail
100
AcDbBlockBegin
  2
B-108
 70
    66
 10
0.000000
 20
0.000000
 30
0.000000
  0
LWPOLYLINE
  5
7C6
100
AcDbEntity
  8
Detail
  6
CONTINUOUS
 62
     6
100
AcDbPolyline
 90
     2
 10
212.500023
 20
216.250078
 42
0.000000
 10
162.500023
 20
216.250078
 42
0.000000
  0
LWPOLYLINE
  5
7C9
100
AcDbEntity
  8
Detail
  6
CONTINUOUS
 62
     6
100
AcDbPolyline
 90
     2
 10
162.500023
 20
222.250078
 42
0.000000
 10
212.500023
 20
222.250078
 42
0.000000
  0
LWPOLYLINE
  5
7CC
100
AcDbEntity
  8
Detail
  6
HIDDEN
 62
     9
100
AcDbPolyline
 90
     2
 10
162.500023
 20
221.250078
 42
0.000000
 10
212.500023
 20
221.250078
 42
0.000000
  0
ENDBLK
  5
7CF
100
AcDbEntity
  8
0
100
AcDbBlockEnd
  0
BLOCK
  5
7D0
100
AcDbEntity
  8
Detail
100
AcDbBlockBegin
  2
B-109
 70
    66
 10
0.000000
 20
0.000000
 30
0.000000
  0
LWPOLYLINE
  5
7D1
100
AcDbEntity
  8
Detail
  6
CONTINUOUS
 62
     6
100
AcDbPolyline
 90
     4
 10
190.500023
 20
296.250078
 42
0.000000
 10
190.500023
 20
246.250078
 42
0.000000
 10
188.500023
 20
246.250078
 42
0.000000
 10
188.500023
 20
296.250078
 42
0.000000
  0
ENDBLK
  5
7D6
100
AcDbEntity
  8
0
100
AcDbBlockEnd
  0
BLOCK
  5
7D7
100
AcDbEntity
  8
Detail
100
AcDbBlockBegin
  2
B-110
 70
    66
 10
0.000000
 20
0.000000
 30
0.000000
  0
LWPOLYLINE
  5
7D8
100
AcDbEntity
  8
Detail
  6
CONTINUOUS
 62
     6
100
AcDbPolyline
 90
     4
 10
194.500023
 20
296.250078
 42
0.000000
 10
194.500023
 20
246.250078
 42
0.000000
 10
190.500023
 20
246.250078
 42
0.000000
 10
190.500023
 20
296.250078
 42
0.000000
  0
ENDBLK
  5
7DD
100
AcDbEntity
  8
0
100
AcDbBlockEnd
  0
BLOCK
  5
7DE
100
AcDbEntity
  8
L
100
AcDbBlockBegin
  2
B-111
 70
    66
 10
0.000000
 20
0.000000
 30
0.000000
  0
LWPOLYLINE
  5
7DF
100
AcDbEntity
  8
L
  6
CONTINUOUS
 62
     3
100
AcDbPolyline
 90
     4
 10
162.500023
 20
246.250078
 42
0.000000
 10
182.500023
 20
246.250078
 42
0.000000
 10
182.500023
 20
224.250078
 42
0.000000
 10
162.500023
 20
224.250078
 42
0.000000
  0
ENDBLK
  5
7E4
100
AcDbEntity
  8
0
100
AcDbBlockEnd
  0
BLOCK
  5
7E5
100
AcDbEntity
  8
Detail
100
AcDbBlockBegin
  2
B-112
 70
    66
 10
0.000000
 20
0.000000
 30
0.000000
  0
LWPOLYLINE
  5
7E6
100
AcDbEntity
  8
Detail
  6
CONTINUOUS
 62
     3
100
AcDbPolyline
 90
     4
 10
194.500023
 20
296.250078
 42
0.000000
 10
194.500023
 20
246.250078
 42
0.000000
 10
202.500023
 20
246.250078
 42
0.000000
 10
202.500023
 20
296.250078
 42
0.000000
  0
ENDBLK
  5
7EB
100
AcDbEntity
  8
0
100
AcDbBlockEnd
  0
BLOCK
  5
7EC
100
AcDbEntity
  8
L
100
AcDbBlockBegin
  2
B-113
 70
    66
 10
0.000000
 20
0.000000
 30
0.000000
  0
LWPOLYLINE
  5
7ED
100
AcDbEntity
  8
L
  6
CONTINUOUS
 62
     3
100
AcDbPolyline
 90
     2
 10
162.500023
 20
216.250078
 42
0.000000
 10
212.500023
 20
216.250078
 42
0.000000
  0
LWPOLYLINE
  5
7F0
100
AcDbEntity
  8
L
  6
CONTINUOUS
 62
     3
100
AcDbPolyline
 90
     3
 10
182.500023
 20
296.250078
 42
0.000000
 10
182.500023
 20
246.250078
 42
0.000000
 10
162.500023
 20
246.250078
 42
0.000000
  0
ENDBLK
  5
7F4
100
AcDbEntity
  8
0
100
AcDbBlockEnd
  0
BLOCK
  5
7F5
100
AcDbEntity
  8
Detail
100
AcDbBlockBegin
  2
B-114
 70
    66
 10
0.000000
 20
0.000000
 30
0.000000
  0
LWPOLYLINE
  5
7F6
100
AcDbEntity
  8
Detail
  6
CONTINUOUS
 62
     3
100
AcDbPolyline
 90
     4
 10
212.500023
 20
236.250078
 42
0.000000
 10
182.500023
 20
236.250078
 42
0.000000
 10
182.500023
 20
228.250078
 42
0.000000
 10
212.500023
 20
228.250078
 42
0.000000
  0
ENDBLK
  5
7FB
100
AcDbEntity
  8
0
100
AcDbBlockEnd
  0
BLOCK
  5
7FC
100
AcDbEntity
  8
SCHRAFF
100
AcDbBlockBegin
  2
B-115
 70
    66
 10
0.000000
 20
0.000000
 30
0.000000
  0
HATCH
  5
7FD
100
AcDbEntity
  8
SCHRAFF
  6
CONTINUOUS
 62
     9
100
AcDbHatch
 10
0.000000
 20
0.000000
 30
0.000000
210
0.000000
220
0.000000
230
1.000000
  2
_U
 70
     0
 71
     1
 91
     1
 92
    18
 72
     1
 73
     0
 93
     5
 10
172.500023
 20
206.250078
 42
0.000000
 10
212.500023
 20
206.250078
 42
0.000000
 10
212.500023
 20
216.250078
 42
0.000000
 10
172.500023
 20
216.250078
 42
0.000000
 10
172.500023
 20
206.250078
 42
0.000000
 97
     0
 75
     0
 76
     0
 52
0.000000
 41
1.000000
 77
     0
 78
     1
 53
90.000000
 43
-0.000000
 44
0.000000
 45
-13.750000
 46
0.000000
 79
     0
 98
     0
  0
ENDBLK
  5
7FE
100
AcDbEntity
  8
0
100
AcDbBlockEnd
  0
BLOCK
  5
7FF
100
AcDbEntity
  8
Detail
100
AcDbBlockBegin
  2
B-116
 70
    66
 10
0.000000
 20
0.000000
 30
0.000000
  0
LWPOLYLINE
  5
800
100
AcDbEntity
  8
Detail
  6
HIDDEN
 62
     9
100
AcDbPolyline
 90
     5
 10
162.500023
 20
206.250078
 42
0.000000
 10
212.500023
 20
206.250078
 42
0.000000
 10
212.500023
 20
296.250078
 42
0.000000
 10
162.500023
 20
296.250078
 42
0.000000
 10
162.500023
 20
206.250078
 42
0.000000
  0
ENDBLK
  5
806
100
AcDbEntity
  8
0
100
AcDbBlockEnd
  0
BLOCK
  5
807
100
AcDbEntity
  8
Detail
100
AcDbBlockBegin
  2
B-117
 70
    66
 10
0.000000
 20
0.000000
 30
0.000000
  0
LWPOLYLINE
  5
808
100
AcDbEntity
  8
Detail
  6
CONTINUOUS
 62
     4
100
AcDbPolyline
 90
     5
 10
202.500023
 20
246.250078
 42
0.000000
 10
182.500023
 20
246.250078
 42
0.000000
 10
182.500023
 20
236.250078
 42
0.000000
 10
202.500023
 20
236.250078
 42
0.000000
 10
202.500023
 20
246.250078
 42
0.000000
  0
ENDBLK
  5
80E
100
AcDbEntity
  8
0
100
AcDbBlockEnd
  0
BLOCK
  5
80F
100
AcDbEntity
  8
Detail
100
AcDbBlockBegin
  2
B-118
 70
    66
 10
0.000000
 20
0.000000
 30
0.000000
  0
MTEXT
  5
810
100
AcDbEntity
  8
Detail
 62
     7
100
AcDbMText
 10
164.375023
 20
310.000078
 30
0.000000
 40
5.000000
 41
66.570000
 71
     7
 72
     5
  1
alternativ mit Fugen-
  7
Arial
 50
0.000000
  0
MTEXT
  5
811
100
AcDbEntity
  8
Detail
 62
     7
100
AcDbMText
 10
164.375023
 20
302.500078
 30
0.000000
 40
5.000000
 41
60.112500
 71
     7
 72
     5
  1
dichtband Typ B15
  7
Arial
 50
0.000000
  0
ENDBLK
  5
812
100
AcDbEntity
  8
0
100
AcDbBlockEnd
  0
BLOCK
  5
813
100
AcDbEntity
  8
SCHRAFF
100
AcDbBlockBegin
  2
B-119
 70
    66
 10
0.000000
 20
0.000000
 30
0.000000
  0
HATCH
  5
814
100
AcDbEntity
  8
SCHRAFF
 62
   250
440
     0
100
AcDbHatch
 10
0.000000
 20
0.000000
 30
0.000000
210
0.000000
220
0.000000
230
1.000000
  2
SOLID
 70
     1
 71
     1
 91
     1
 92
    18
 72
     1
 73
     0
 93
     7
 10
184.500023
 20
276.250078
 42
0.000000
 10
184.500023
 20
248.250078
 42
0.000000
 10
188.500023
 20
248.250078
 42
0.000000
 10
188.500023
 20
246.250078
 42
0.000000
 10
182.500023
 20
246.250078
 42
0.000000
 10
182.500023
 20
276.250078
 42
0.000000
 10
184.500023
 20
276.250078
 42
0.000000
 97
     0
 75
     0
 76
     1
 98
     0
  0
LWPOLYLINE
  5
815
100
AcDbEntity
  8
Detail
  6
CONTINUOUS
 62
     4
100
AcDbPolyline
 90
     7
 10
182.500023
 20
276.250078
 42
0.000000
 10
182.500023
 20
246.250078
 42
0.000000
 10
188.500023
 20
246.250078
 42
0.000000
 10
188.500023
 20
248.250078
 42
0.000000
 10
184.500023
 20
248.250078
 42
0.000000
 10
184.500023
 20
276.250078
 42
0.000000
 10
182.500023
 20
276.250078
 42
0.000000
  0
ENDBLK
  5
81D
100
AcDbEntity
  8
0
100
AcDbBlockEnd
  0
BLOCK
  5
81E
100
AcDbEntity
  8
Detail
100
AcDbBlockBegin
  2
B-120
 70
    66
 10
0.000000
 20
0.000000
 30
0.000000
  0
LWPOLYLINE
  5
81F
100
AcDbEntity
  8
Detail
  6
HIDDEN
 62
     9
100
AcDbPolyline
 90
     5
 10
-87.500018
 20
-61.249941
 42
0.000000
 10
-37.500018
 20
-61.249941
 42
0.000000
 10
-37.500018
 20
28.750059
 42
0.000000
 10
-87.500018
 20
28.750059
 42
0.000000
 10
-87.500018
 20
-61.249941
 42
0.000000
  0
ENDBLK
  5
825
100
AcDbEntity
  8
0
100
AcDbBlockEnd
  0
BLOCK
  5
826
100
AcDbEntity
  8
SCHRAFF
100
AcDbBlockBegin
  2
B-121
 70
    66
 10
0.000000
 20
0.000000
 30
0.000000
  0
HATCH
  5
827
100
AcDbEntity
  8
SCHRAFF
  6
CONTINUOUS
 62
     9
100
AcDbHatch
 10
0.000000
 20
0.000000
 30
0.000000
210
0.000000
220
0.000000
230
1.000000
  2
_U
 70
     0
 71
     1
 91
     1
 92
    18
 72
     1
 73
     0
 93
     5
 10
182.500023
 20
246.250078
 42
0.000000
 10
182.500023
 20
296.250178
 42
0.000000
 10
162.500023
 20
296.250078
 42
0.000000
 10
162.500023
 20
246.250078
 42
0.000000
 10
182.500023
 20
246.250078
 42
0.000000
 97
     0
 75
     0
 76
     0
 52
0.000000
 41
1.000000
 77
     0
 78
     1
 53
90.000000
 43
-0.000000
 44
0.000000
 45
-13.750000
 46
0.000000
 79
     0
 98
     0
  0
ENDBLK
  5
828
100
AcDbEntity
  8
0
100
AcDbBlockEnd
  0
BLOCK
  5
829
100
AcDbEntity
  8
Detail
100
AcDbBlockBegin
  2
B-122
 70
    66
 10
0.000000
 20
0.000000
 30
0.000000
  0
MTEXT
  5
82A
100
AcDbEntity
  8
Detail
 62
     7
100
AcDbMText
 10
-210.625009
 20
-332.500016
 30
0.000000
 40
4.999980
 41
58.117268
 71
     7
 72
     5
  1
DAW Schweiz AG
  7
Arial
 50
0.000000
  0
MTEXT
  5
82B
100
AcDbEntity
  8
Detail
 62
     7
100
AcDbMText
 10
-210.625009
 20
-339.999986
 30
0.000000
 40
4.999980
 41
108.149567
 71
     7
 72
     5
  1
Gewerbestrasse 6, 8606 Nänikon
  7
Arial
 50
0.000000
  0
ENDBLK
  5
82C
100
AcDbEntity
  8
0
100
AcDbBlockEnd
  0
BLOCK
  5
82D
100
AcDbEntity
  8
Detail
100
AcDbBlockBegin
  2
B-123
 70
    66
 10
0.000000
 20
0.000000
 30
0.000000
  0
MTEXT
  5
82E
100
AcDbEntity
  8
Detail
 62
     7
100
AcDbMText
 10
-85.625025
 20
-332.500016
 30
0.000000
 40
4.999980
 41
72.134711
 71
     7
 72
     5
  1
Telefon 043 399 42 22
  7
Arial
 50
0.000000
  0
MTEXT
  5
82F
100
AcDbEntity
  8
Detail
 62
     7
100
AcDbMText
 10
-85.625025
 20
-339.999986
 30
0.000000
 40
4.999980
 41
71.767213
 71
     7
 72
     5
  1
Telefax 043 399 42 23
  7
Arial
 50
0.000000
  0
ENDBLK
  5
830
100
AcDbEntity
  8
0
100
AcDbBlockEnd
  0
BLOCK
  5
831
100
AcDbEntity
  8
Detail
100
AcDbBlockBegin
  2
B-124
 70
    66
 10
0.000000
 20
0.000000
 30
0.000000
  0
MTEXT
  5
832
100
AcDbEntity
  8
Detail
 62
     7
100
AcDbMText
 10
39.374975
 20
-332.500019
 30
0.000000
 40
4.999982
 41
51.922313
 71
     7
 72
     5
  1
info@daw.swiss
  7
Arial
 50
0.000000
  0
MTEXT
  5
833
100
AcDbEntity
  8
Detail
 62
     7
100
AcDbMText
 10
39.374975
 20
-339.999993
 30
0.000000
 40
4.999982
 41
54.599803
 71
     7
 72
     5
  1
www.capatect.ch
  7
Arial
 50
0.000000
  0
ENDBLK
  5
834
100
AcDbEntity
  8
0
100
AcDbBlockEnd
  0
BLOCK
  5
835
100
AcDbEntity
  8
Detail
100
AcDbBlockBegin
  2
B-125
 70
    66
 10
0.000000
 20
0.000000
 30
0.000000
  0
LWPOLYLINE
  5
836
100
AcDbEntity
  8
Detail
  6
CONTINUOUS
 62
     4
100
AcDbPolyline
 90
     2
 10
-47.500017
 20
178.750061
 42
-0.400000
 10
-47.500017
 20
188.750061
 42
0.000000
  0
ENDBLK
  5
839
100
AcDbEntity
  8
0
100
AcDbBlockEnd
  0
BLOCK
  5
83A
100
AcDbEntity
  8
L
100
AcDbBlockBegin
  2
B-126
 70
    66
 10
0.000000
 20
0.000000
 30
0.000000
  0
LWPOLYLINE
  5
83B
100
AcDbEntity
  8
L
  6
CONTINUOUS
 62
     4
100
AcDbPolyline
 90
     2
 10
-47.500018
 20
-31.249941
 42
-0.400000
 10
-47.500018
 20
-21.249941
 42
0.000000
  0
ENDBLK
  5
83E
100
AcDbEntity
  8
0
100
AcDbBlockEnd
  0
BLOCK
  5
83F
100
AcDbEntity
  8
Detail
100
AcDbBlockBegin
  2
B-127
 70
    66
 10
0.000000
 20
0.000000
 30
0.000000
  0
LWPOLYLINE
  5
840
100
AcDbEntity
  8
Detail
  6
CONTINUOUS
 62
     4
100
AcDbPolyline
 90
     2
 10
134.499982
 20
-31.249941
 42
0.400000
 10
144.499982
 20
-31.249941
 42
0.000000
  0
ENDBLK
  5
843
100
AcDbEntity
  8
0
100
AcDbBlockEnd
  0
ENDSEC
  0
SECTION
  2
ENTITIES
  0
INSERT
  5
844
100
AcDbEntity
  8
0
100
AcDbBlockReference
  2
B
 10
0.000000
 20
0.000000
 30
0.000000
 41
1.000000
 42
1.000000
 43
1.000000
 50
0.000000
  0
INSERT
  5
845
100
AcDbEntity
  8
L
100
AcDbBlockReference
  2
B-2
 10
0.000000
 20
0.000000
 30
0.000000
 41
1.000000
 42
1.000000
 43
1.000000
 50
0.000000
  0
INSERT
  5
846
100
AcDbEntity
  8
0
100
AcDbBlockReference
  2
B-3
 10
0.000000
 20
0.000000
 30
0.000000
 41
1.000000
 42
1.000000
 43
1.000000
 50
0.000000
  0
INSERT
  5
847
100
AcDbEntity
  8
Detail
100
AcDbBlockReference
  2
B-4
 10
0.000000
 20
0.000000
 30
0.000000
 41
1.000000
 42
1.000000
 43
1.000000
 50
0.000000
  0
INSERT
  5
848
100
AcDbEntity
  8
0
100
AcDbBlockReference
  2
B-5
 10
0.000000
 20
0.000000
 30
0.000000
 41
1.000000
 42
1.000000
 43
1.000000
 50
0.000000
  0
INSERT
  5
849
100
AcDbEntity
  8
0
100
AcDbBlockReference
  2
B-6
 10
0.000000
 20
0.000000
 30
0.000000
 41
1.000000
 42
1.000000
 43
1.000000
 50
0.000000
  0
INSERT
  5
84A
100
AcDbEntity
  8
0
100
AcDbBlockReference
  2
B-7
 10
0.000000
 20
0.000000
 30
0.000000
 41
1.000000
 42
1.000000
 43
1.000000
 50
0.000000
  0
INSERT
  5
84B
100
AcDbEntity
  8
0
100
AcDbBlockReference
  2
B-8
 10
0.000000
 20
0.000000
 30
0.000000
 41
1.000000
 42
1.000000
 43
1.000000
 50
0.000000
  0
INSERT
  5
84C
100
AcDbEntity
  8
0
100
AcDbBlockReference
  2
B-9
 10
0.000000
 20
0.000000
 30
0.000000
 41
1.000000
 42
1.000000
 43
1.000000
 50
0.000000
  0
INSERT
  5
84D
100
AcDbEntity
  8
Detail
100
AcDbBlockReference
  2
B-10
 10
0.000000
 20
0.000000
 30
0.000000
 41
1.000000
 42
1.000000
 43
1.000000
 50
0.000000
  0
INSERT
  5
84E
100
AcDbEntity
  8
0
100
AcDbBlockReference
  2
B-11
 10
0.000000
 20
0.000000
 30
0.000000
 41
1.000000
 42
1.000000
 43
1.000000
 50
0.000000
  0
INSERT
  5
84F
100
AcDbEntity
  8
Detail
100
AcDbBlockReference
  2
B-12
 10
0.000000
 20
0.000000
 30
0.000000
 41
1.000000
 42
1.000000
 43
1.000000
 50
0.000000
  0
INSERT
  5
850
100
AcDbEntity
  8
0
100
AcDbBlockReference
  2
B-13
 10
0.000000
 20
0.000000
 30
0.000000
 41
1.000000
 42
1.000000
 43
1.000000
 50
0.000000
  0
INSERT
  5
851
100
AcDbEntity
  8
0
100
AcDbBlockReference
  2
B-14
 10
0.000000
 20
0.000000
 30
0.000000
 41
1.000000
 42
1.000000
 43
1.000000
 50
0.000000
  0
INSERT
  5
852
100
AcDbEntity
  8
0
100
AcDbBlockReference
  2
B-15
 10
0.000000
 20
0.000000
 30
0.000000
 41
1.000000
 42
1.000000
 43
1.000000
 50
0.000000
  0
INSERT
  5
853
100
AcDbEntity
  8
0
100
AcDbBlockReference
  2
B-16
 10
0.000000
 20
0.000000
 30
0.000000
 41
1.000000
 42
1.000000
 43
1.000000
 50
0.000000
  0
INSERT
  5
854
100
AcDbEntity
  8
0
100
AcDbBlockReference
  2
B-17
 10
0.000000
 20
0.000000
 30
0.000000
 41
1.000000
 42
1.000000
 43
1.000000
 50
0.000000
  0
INSERT
  5
855
100
AcDbEntity
  8
0
100
AcDbBlockReference
  2
B-18
 10
0.000000
 20
0.000000
 30
0.000000
 41
1.000000
 42
1.000000
 43
1.000000
 50
0.000000
  0
INSERT
  5
856
100
AcDbEntity
  8
0
100
AcDbBlockReference
  2
B-19
 10
0.000000
 20
0.000000
 30
0.000000
 41
1.000000
 42
1.000000
 43
1.000000
 50
0.000000
  0
INSERT
  5
857
100
AcDbEntity
  8
0
100
AcDbBlockReference
  2
B-20
 10
0.000000
 20
0.000000
 30
0.000000
 41
1.000000
 42
1.000000
 43
1.000000
 50
0.000000
  0
INSERT
  5
858
100
AcDbEntity
  8
0
100
AcDbBlockReference
  2
B-21
 10
0.000000
 20
0.000000
 30
0.000000
 41
1.000000
 42
1.000000
 43
1.000000
 50
0.000000
  0
INSERT
  5
859
100
AcDbEntity
  8
0
100
AcDbBlockReference
  2
B-22
 10
0.000000
 20
0.000000
 30
0.000000
 41
1.000000
 42
1.000000
 43
1.000000
 50
0.000000
  0
INSERT
  5
85A
100
AcDbEntity
  8
Detail
100
AcDbBlockReference
  2
B-23
 10
0.000000
 20
0.000000
 30
0.000000
 41
1.000000
 42
1.000000
 43
1.000000
 50
0.000000
  0
INSERT
  5
85B
100
AcDbEntity
  8
0
100
AcDbBlockReference
  2
B-24
 10
0.000000
 20
0.000000
 30
0.000000
 41
1.000000
 42
1.000000
 43
1.000000
 50
0.000000
  0
INSERT
  5
85C
100
AcDbEntity
  8
Detail
100
AcDbBlockReference
  2
B-25
 10
0.000000
 20
0.000000
 30
0.000000
 41
1.000000
 42
1.000000
 43
1.000000
 50
0.000000
  0
INSERT
  5
85D
100
AcDbEntity
  8
Detail
100
AcDbBlockReference
  2
B-26
 10
0.000000
 20
0.000000
 30
0.000000
 41
1.000000
 42
1.000000
 43
1.000000
 50
0.000000
  0
INSERT
  5
85E
100
AcDbEntity
  8
Detail
100
AcDbBlockReference
  2
B-27
 10
0.000000
 20
0.000000
 30
0.000000
 41
1.000000
 42
1.000000
 43
1.000000
 50
0.000000
  0
INSERT
  5
85F
100
AcDbEntity
  8
Detail
100
AcDbBlockReference
  2
B-28
 10
0.000000
 20
0.000000
 30
0.000000
 41
1.000000
 42
1.000000
 43
1.000000
 50
0.000000
  0
INSERT
  5
860
100
AcDbEntity
  8
Detail
100
AcDbBlockReference
  2
B-29
 10
0.000000
 20
0.000000
 30
0.000000
 41
1.000000
 42
1.000000
 43
1.000000
 50
0.000000
  0
INSERT
  5
861
100
AcDbEntity
  8
0
100
AcDbBlockReference
  2
B-30
 10
0.000000
 20
0.000000
 30
0.000000
 41
1.000000
 42
1.000000
 43
1.000000
 50
0.000000
  0
INSERT
  5
862
100
AcDbEntity
  8
Detail
100
AcDbBlockReference
  2
B-31
 10
0.000000
 20
0.000000
 30
0.000000
 41
1.000000
 42
1.000000
 43
1.000000
 50
0.000000
  0
INSERT
  5
863
100
AcDbEntity
  8
Detail
100
AcDbBlockReference
  2
B-32
 10
0.000000
 20
0.000000
 30
0.000000
 41
1.000000
 42
1.000000
 43
1.000000
 50
0.000000
  0
INSERT
  5
864
100
AcDbEntity
  8
Detail
100
AcDbBlockReference
  2
B-33
 10
0.000000
 20
0.000000
 30
0.000000
 41
1.000000
 42
1.000000
 43
1.000000
 50
0.000000
  0
INSERT
  5
865
100
AcDbEntity
  8
0
100
AcDbBlockReference
  2
B-34
 10
0.000000
 20
0.000000
 30
0.000000
 41
1.000000
 42
1.000000
 43
1.000000
 50
0.000000
  0
INSERT
  5
866
100
AcDbEntity
  8
Detail
100
AcDbBlockReference
  2
B-35
 10
0.000000
 20
0.000000
 30
0.000000
 41
1.000000
 42
1.000000
 43
1.000000
 50
0.000000
  0
INSERT
  5
867
100
AcDbEntity
  8
Detail
100
AcDbBlockReference
  2
B-36
 10
0.000000
 20
0.000000
 30
0.000000
 41
1.000000
 42
1.000000
 43
1.000000
 50
0.000000
  0
INSERT
  5
868
100
AcDbEntity
  8
Detail
100
AcDbBlockReference
  2
B-37
 10
0.000000
 20
0.000000
 30
0.000000
 41
1.000000
 42
1.000000
 43
1.000000
 50
0.000000
  0
INSERT
  5
869
100
AcDbEntity
  8
Detail
100
AcDbBlockReference
  2
B-38
 10
0.000000
 20
0.000000
 30
0.000000
 41
1.000000
 42
1.000000
 43
1.000000
 50
0.000000
  0
INSERT
  5
86A
100
AcDbEntity
  8
Detail
100
AcDbBlockReference
  2
B-39
 10
0.000000
 20
0.000000
 30
0.000000
 41
1.000000
 42
1.000000
 43
1.000000
 50
0.000000
  0
INSERT
  5
86B
100
AcDbEntity
  8
Detail
100
AcDbBlockReference
  2
B-40
 10
0.000000
 20
0.000000
 30
0.000000
 41
1.000000
 42
1.000000
 43
1.000000
 50
0.000000
  0
INSERT
  5
86C
100
AcDbEntity
  8
Detail
100
AcDbBlockReference
  2
B-41
 10
0.000000
 20
0.000000
 30
0.000000
 41
1.000000
 42
1.000000
 43
1.000000
 50
0.000000
  0
INSERT
  5
86D
100
AcDbEntity
  8
0
100
AcDbBlockReference
  2
B-42
 10
0.000000
 20
0.000000
 30
0.000000
 41
1.000000
 42
1.000000
 43
1.000000
 50
0.000000
  0
INSERT
  5
86E
100
AcDbEntity
  8
0
100
AcDbBlockReference
  2
B-43
 10
0.000000
 20
0.000000
 30
0.000000
 41
1.000000
 42
1.000000
 43
1.000000
 50
0.000000
  0
INSERT
  5
86F
100
AcDbEntity
  8
0
100
AcDbBlockReference
  2
B-44
 10
0.000000
 20
0.000000
 30
0.000000
 41
1.000000
 42
1.000000
 43
1.000000
 50
0.000000
  0
INSERT
  5
870
100
AcDbEntity
  8
0
100
AcDbBlockReference
  2
B-45
 10
0.000000
 20
0.000000
 30
0.000000
 41
1.000000
 42
1.000000
 43
1.000000
 50
0.000000
  0
INSERT
  5
871
100
AcDbEntity
  8
Detail
100
AcDbBlockReference
  2
B-46
 10
0.000000
 20
0.000000
 30
0.000000
 41
1.000000
 42
1.000000
 43
1.000000
 50
0.000000
  0
INSERT
  5
872
100
AcDbEntity
  8
Detail
100
AcDbBlockReference
  2
B-47
 10
0.000000
 20
0.000000
 30
0.000000
 41
1.000000
 42
1.000000
 43
1.000000
 50
0.000000
  0
INSERT
  5
873
100
AcDbEntity
  8
Detail
100
AcDbBlockReference
  2
B-48
 10
0.000000
 20
0.000000
 30
0.000000
 41
1.000000
 42
1.000000
 43
1.000000
 50
0.000000
  0
INSERT
  5
874
100
AcDbEntity
  8
Detail
100
AcDbBlockReference
  2
B-49
 10
0.000000
 20
0.000000
 30
0.000000
 41
1.000000
 42
1.000000
 43
1.000000
 50
0.000000
  0
INSERT
  5
875
100
AcDbEntity
  8
Detail
100
AcDbBlockReference
  2
B-50
 10
0.000000
 20
0.000000
 30
0.000000
 41
1.000000
 42
1.000000
 43
1.000000
 50
0.000000
  0
INSERT
  5
876
100
AcDbEntity
  8
Detail
100
AcDbBlockReference
  2
B-51
 10
0.000000
 20
0.000000
 30
0.000000
 41
1.000000
 42
1.000000
 43
1.000000
 50
0.000000
  0
INSERT
  5
877
100
AcDbEntity
  8
Detail
100
AcDbBlockReference
  2
B-52
 10
0.000000
 20
0.000000
 30
0.000000
 41
1.000000
 42
1.000000
 43
1.000000
 50
0.000000
  0
INSERT
  5
878
100
AcDbEntity
  8
Detail
100
AcDbBlockReference
  2
B-53
 10
0.000000
 20
0.000000
 30
0.000000
 41
1.000000
 42
1.000000
 43
1.000000
 50
0.000000
  0
INSERT
  5
879
100
AcDbEntity
  8
Detail
100
AcDbBlockReference
  2
B-54
 10
0.000000
 20
0.000000
 30
0.000000
 41
1.000000
 42
1.000000
 43
1.000000
 50
0.000000
  0
INSERT
  5
87A
100
AcDbEntity
  8
Detail
100
AcDbBlockReference
  2
B-55
 10
0.000000
 20
0.000000
 30
0.000000
 41
1.000000
 42
1.000000
 43
1.000000
 50
0.000000
  0
INSERT
  5
87B
100
AcDbEntity
  8
Detail
100
AcDbBlockReference
  2
B-56
 10
0.000000
 20
0.000000
 30
0.000000
 41
1.000000
 42
1.000000
 43
1.000000
 50
0.000000
  0
INSERT
  5
87C
100
AcDbEntity
  8
Detail
100
AcDbBlockReference
  2
B-57
 10
0.000000
 20
0.000000
 30
0.000000
 41
1.000000
 42
1.000000
 43
1.000000
 50
0.000000
  0
INSERT
  5
87D
100
AcDbEntity
  8
L
100
AcDbBlockReference
  2
B-58
 10
0.000000
 20
0.000000
 30
0.000000
 41
1.000000
 42
1.000000
 43
1.000000
 50
0.000000
  0
INSERT
  5
87E
100
AcDbEntity
  8
Detail
100
AcDbBlockReference
  2
B-59
 10
0.000000
 20
0.000000
 30
0.000000
 41
1.000000
 42
1.000000
 43
1.000000
 50
0.000000
  0
INSERT
  5
87F
100
AcDbEntity
  8
Detail
100
AcDbBlockReference
  2
B-60
 10
0.000000
 20
0.000000
 30
0.000000
 41
1.000000
 42
1.000000
 43
1.000000
 50
0.000000
  0
INSERT
  5
880
100
AcDbEntity
  8
Detail
100
AcDbBlockReference
  2
B-61
 10
0.000000
 20
0.000000
 30
0.000000
 41
1.000000
 42
1.000000
 43
1.000000
 50
0.000000
  0
INSERT
  5
881
100
AcDbEntity
  8
Detail
100
AcDbBlockReference
  2
B-62
 10
0.000000
 20
0.000000
 30
0.000000
 41
1.000000
 42
1.000000
 43
1.000000
 50
0.000000
  0
INSERT
  5
882
100
AcDbEntity
  8
0
100
AcDbBlockReference
  2
B-63
 10
0.000000
 20
0.000000
 30
0.000000
 41
1.000000
 42
1.000000
 43
1.000000
 50
0.000000
  0
INSERT
  5
883
100
AcDbEntity
  8
0
100
AcDbBlockReference
  2
B-64
 10
0.000000
 20
0.000000
 30
0.000000
 41
1.000000
 42
1.000000
 43
1.000000
 50
0.000000
  0
INSERT
  5
884
100
AcDbEntity
  8
Detail
100
AcDbBlockReference
  2
B-65
 10
0.000000
 20
0.000000
 30
0.000000
 41
1.000000
 42
1.000000
 43
1.000000
 50
0.000000
  0
INSERT
  5
885
100
AcDbEntity
  8
Detail
100
AcDbBlockReference
  2
B-66
 10
0.000000
 20
0.000000
 30
0.000000
 41
1.000000
 42
1.000000
 43
1.000000
 50
0.000000
  0
INSERT
  5
886
100
AcDbEntity
  8
Detail
100
AcDbBlockReference
  2
B-67
 10
0.000000
 20
0.000000
 30
0.000000
 41
1.000000
 42
1.000000
 43
1.000000
 50
0.000000
  0
INSERT
  5
887
100
AcDbEntity
  8
Detail
100
AcDbBlockReference
  2
B-69
 10
0.000000
 20
0.000000
 30
0.000000
 41
1.000000
 42
1.000000
 43
1.000000
 50
0.000000
  0
INSERT
  5
888
100
AcDbEntity
  8
Detail
100
AcDbBlockReference
  2
B-70
 10
0.000000
 20
0.000000
 30
0.000000
 41
1.000000
 42
1.000000
 43
1.000000
 50
0.000000
  0
INSERT
  5
889
100
AcDbEntity
  8
Detail
100
AcDbBlockReference
  2
B-71
 10
0.000000
 20
0.000000
 30
0.000000
 41
1.000000
 42
1.000000
 43
1.000000
 50
0.000000
  0
INSERT
  5
88A
100
AcDbEntity
  8
0
100
AcDbBlockReference
  2
B-72
 10
0.000000
 20
0.000000
 30
0.000000
 41
1.000000
 42
1.000000
 43
1.000000
 50
0.000000
  0
INSERT
  5
88B
100
AcDbEntity
  8
Detail
100
AcDbBlockReference
  2
B-73
 10
0.000000
 20
0.000000
 30
0.000000
 41
1.000000
 42
1.000000
 43
1.000000
 50
0.000000
  0
INSERT
  5
88C
100
AcDbEntity
  8
0
100
AcDbBlockReference
  2
B-74
 10
0.000000
 20
0.000000
 30
0.000000
 41
1.000000
 42
1.000000
 43
1.000000
 50
0.000000
  0
INSERT
  5
88D
100
AcDbEntity
  8
Detail
100
AcDbBlockReference
  2
B-75
 10
0.000000
 20
0.000000
 30
0.000000
 41
1.000000
 42
1.000000
 43
1.000000
 50
0.000000
  0
INSERT
  5
88E
100
AcDbEntity
  8
Detail
100
AcDbBlockReference
  2
B-77
 10
0.000000
 20
0.000000
 30
0.000000
 41
1.000000
 42
1.000000
 43
1.000000
 50
0.000000
  0
INSERT
  5
88F
100
AcDbEntity
  8
Detail
100
AcDbBlockReference
  2
B-78
 10
0.000000
 20
0.000000
 30
0.000000
 41
1.000000
 42
1.000000
 43
1.000000
 50
0.000000
  0
INSERT
  5
890
100
AcDbEntity
  8
Detail
100
AcDbBlockReference
  2
B-79
 10
0.000000
 20
0.000000
 30
0.000000
 41
1.000000
 42
1.000000
 43
1.000000
 50
0.000000
  0
INSERT
  5
891
100
AcDbEntity
  8
0
100
AcDbBlockReference
  2
B-80
 10
0.000000
 20
0.000000
 30
0.000000
 41
1.000000
 42
1.000000
 43
1.000000
 50
0.000000
  0
INSERT
  5
892
100
AcDbEntity
  8
Detail
100
AcDbBlockReference
  2
B-81
 10
0.000000
 20
0.000000
 30
0.000000
 41
1.000000
 42
1.000000
 43
1.000000
 50
0.000000
  0
INSERT
  5
893
100
AcDbEntity
  8
Detail
100
AcDbBlockReference
  2
B-82
 10
0.000000
 20
0.000000
 30
0.000000
 41
1.000000
 42
1.000000
 43
1.000000
 50
0.000000
  0
INSERT
  5
894
100
AcDbEntity
  8
0
100
AcDbBlockReference
  2
B-83
 10
0.000000
 20
0.000000
 30
0.000000
 41
1.000000
 42
1.000000
 43
1.000000
 50
0.000000
  0
INSERT
  5
895
100
AcDbEntity
  8
Detail
100
AcDbBlockReference
  2
B-84
 10
0.000000
 20
0.000000
 30
0.000000
 41
1.000000
 42
1.000000
 43
1.000000
 50
0.000000
  0
INSERT
  5
896
100
AcDbEntity
  8
Detail
100
AcDbBlockReference
  2
B-85
 10
0.000000
 20
0.000000
 30
0.000000
 41
1.000000
 42
1.000000
 43
1.000000
 50
0.000000
  0
INSERT
  5
897
100
AcDbEntity
  8
L
100
AcDbBlockReference
  2
B-86
 10
0.000000
 20
0.000000
 30
0.000000
 41
1.000000
 42
1.000000
 43
1.000000
 50
0.000000
  0
INSERT
  5
898
100
AcDbEntity
  8
L
100
AcDbBlockReference
  2
B-87
 10
0.000000
 20
0.000000
 30
0.000000
 41
1.000000
 42
1.000000
 43
1.000000
 50
0.000000
  0
INSERT
  5
899
100
AcDbEntity
  8
L
100
AcDbBlockReference
  2
B-88
 10
0.000000
 20
0.000000
 30
0.000000
 41
1.000000
 42
1.000000
 43
1.000000
 50
0.000000
  0
INSERT
  5
89A
100
AcDbEntity
  8
Detail
100
AcDbBlockReference
  2
B-89
 10
0.000000
 20
0.000000
 30
0.000000
 41
1.000000
 42
1.000000
 43
1.000000
 50
0.000000
  0
INSERT
  5
89B
100
AcDbEntity
  8
Detail
100
AcDbBlockReference
  2
B-90
 10
0.000000
 20
0.000000
 30
0.000000
 41
1.000000
 42
1.000000
 43
1.000000
 50
0.000000
  0
INSERT
  5
89C
100
AcDbEntity
  8
0
100
AcDbBlockReference
  2
B-91
 10
0.000000
 20
0.000000
 30
0.000000
 41
1.000000
 42
1.000000
 43
1.000000
 50
0.000000
  0
INSERT
  5
89D
100
AcDbEntity
  8
Detail
100
AcDbBlockReference
  2
B-93
 10
0.000000
 20
0.000000
 30
0.000000
 41
1.000000
 42
1.000000
 43
1.000000
 50
0.000000
  0
INSERT
  5
89E
100
AcDbEntity
  8
0
100
AcDbBlockReference
  2
B-94
 10
0.000000
 20
0.000000
 30
0.000000
 41
1.000000
 42
1.000000
 43
1.000000
 50
0.000000
  0
INSERT
  5
89F
100
AcDbEntity
  8
0
100
AcDbBlockReference
  2
B-95
 10
0.000000
 20
0.000000
 30
0.000000
 41
1.000000
 42
1.000000
 43
1.000000
 50
0.000000
  0
INSERT
  5
8A0
100
AcDbEntity
  8
0
100
AcDbBlockReference
  2
B-96
 10
0.000000
 20
0.000000
 30
0.000000
 41
1.000000
 42
1.000000
 43
1.000000
 50
0.000000
  0
INSERT
  5
8A1
100
AcDbEntity
  8
0
100
AcDbBlockReference
  2
B-97
 10
0.000000
 20
0.000000
 30
0.000000
 41
1.000000
 42
1.000000
 43
1.000000
 50
0.000000
  0
INSERT
  5
8A2
100
AcDbEntity
  8
0
100
AcDbBlockReference
  2
B-98
 10
0.000000
 20
0.000000
 30
0.000000
 41
1.000000
 42
1.000000
 43
1.000000
 50
0.000000
  0
INSERT
  5
8A3
100
AcDbEntity
  8
0
100
AcDbBlockReference
  2
B-99
 10
0.000000
 20
0.000000
 30
0.000000
 41
1.000000
 42
1.000000
 43
1.000000
 50
0.000000
  0
INSERT
  5
8A4
100
AcDbEntity
  8
0
100
AcDbBlockReference
  2
B-100
 10
0.000000
 20
0.000000
 30
0.000000
 41
1.000000
 42
1.000000
 43
1.000000
 50
0.000000
  0
INSERT
  5
8A5
100
AcDbEntity
  8
0
100
AcDbBlockReference
  2
B-101
 10
0.000000
 20
0.000000
 30
0.000000
 41
1.000000
 42
1.000000
 43
1.000000
 50
0.000000
  0
INSERT
  5
8A6
100
AcDbEntity
  8
0
100
AcDbBlockReference
  2
B-102
 10
0.000000
 20
0.000000
 30
0.000000
 41
1.000000
 42
1.000000
 43
1.000000
 50
0.000000
  0
INSERT
  5
8A7
100
AcDbEntity
  8
0
100
AcDbBlockReference
  2
B-103
 10
0.000000
 20
0.000000
 30
0.000000
 41
1.000000
 42
1.000000
 43
1.000000
 50
0.000000
  0
INSERT
  5
8A8
100
AcDbEntity
  8
Detail
100
AcDbBlockReference
  2
B-104
 10
0.000000
 20
0.000000
 30
0.000000
 41
1.000000
 42
1.000000
 43
1.000000
 50
0.000000
  0
INSERT
  5
8A9
100
AcDbEntity
  8
Detail
100
AcDbBlockReference
  2
B-105
 10
0.000000
 20
0.000000
 30
0.000000
 41
1.000000
 42
1.000000
 43
1.000000
 50
0.000000
  0
INSERT
  5
8AA
100
AcDbEntity
  8
Detail
100
AcDbBlockReference
  2
B-106
 10
0.000000
 20
0.000000
 30
0.000000
 41
1.000000
 42
1.000000
 43
1.000000
 50
0.000000
  0
INSERT
  5
8AB
100
AcDbEntity
  8
Detail
100
AcDbBlockReference
  2
B-107
 10
0.000000
 20
0.000000
 30
0.000000
 41
1.000000
 42
1.000000
 43
1.000000
 50
0.000000
  0
INSERT
  5
8AC
100
AcDbEntity
  8
Detail
100
AcDbBlockReference
  2
B-108
 10
0.000000
 20
0.000000
 30
0.000000
 41
1.000000
 42
1.000000
 43
1.000000
 50
0.000000
  0
INSERT
  5
8AD
100
AcDbEntity
  8
Detail
100
AcDbBlockReference
  2
B-109
 10
0.000000
 20
0.000000
 30
0.000000
 41
1.000000
 42
1.000000
 43
1.000000
 50
0.000000
  0
INSERT
  5
8AE
100
AcDbEntity
  8
Detail
100
AcDbBlockReference
  2
B-110
 10
0.000000
 20
0.000000
 30
0.000000
 41
1.000000
 42
1.000000
 43
1.000000
 50
0.000000
  0
INSERT
  5
8AF
100
AcDbEntity
  8
L
100
AcDbBlockReference
  2
B-111
 10
0.000000
 20
0.000000
 30
0.000000
 41
1.000000
 42
1.000000
 43
1.000000
 50
0.000000
  0
INSERT
  5
8B0
100
AcDbEntity
  8
Detail
100
AcDbBlockReference
  2
B-112
 10
0.000000
 20
0.000000
 30
0.000000
 41
1.000000
 42
1.000000
 43
1.000000
 50
0.000000
  0
INSERT
  5
8B1
100
AcDbEntity
  8
L
100
AcDbBlockReference
  2
B-113
 10
0.000000
 20
0.000000
 30
0.000000
 41
1.000000
 42
1.000000
 43
1.000000
 50
0.000000
  0
INSERT
  5
8B2
100
AcDbEntity
  8
Detail
100
AcDbBlockReference
  2
B-114
 10
0.000000
 20
0.000000
 30
0.000000
 41
1.000000
 42
1.000000
 43
1.000000
 50
0.000000
  0
INSERT
  5
8B3
100
AcDbEntity
  8
0
100
AcDbBlockReference
  2
B-115
 10
0.000000
 20
0.000000
 30
0.000000
 41
1.000000
 42
1.000000
 43
1.000000
 50
0.000000
  0
INSERT
  5
8B4
100
AcDbEntity
  8
Detail
100
AcDbBlockReference
  2
B-116
 10
0.000000
 20
0.000000
 30
0.000000
 41
1.000000
 42
1.000000
 43
1.000000
 50
0.000000
  0
INSERT
  5
8B5
100
AcDbEntity
  8
Detail
100
AcDbBlockReference
  2
B-117
 10
0.000000
 20
0.000000
 30
0.000000
 41
1.000000
 42
1.000000
 43
1.000000
 50
0.000000
  0
INSERT
  5
8B6
100
AcDbEntity
  8
Detail
100
AcDbBlockReference
  2
B-118
 10
0.000000
 20
0.000000
 30
0.000000
 41
1.000000
 42
1.000000
 43
1.000000
 50
0.000000
  0
INSERT
  5
8B7
100
AcDbEntity
  8
0
100
AcDbBlockReference
  2
B-119
 10
0.000000
 20
0.000000
 30
0.000000
 41
1.000000
 42
1.000000
 43
1.000000
 50
0.000000
  0
INSERT
  5
8B8
100
AcDbEntity
  8
Detail
100
AcDbBlockReference
  2
B-120
 10
0.000000
 20
0.000000
 30
0.000000
 41
1.000000
 42
1.000000
 43
1.000000
 50
0.000000
  0
INSERT
  5
8B9
100
AcDbEntity
  8
0
100
AcDbBlockReference
  2
B-121
 10
0.000000
 20
0.000000
 30
0.000000
 41
1.000000
 42
1.000000
 43
1.000000
 50
0.000000
  0
INSERT
  5
8BA
100
AcDbEntity
  8
Detail
100
AcDbBlockReference
  2
B-122
 10
0.000000
 20
0.000000
 30
0.000000
 41
1.000000
 42
1.000000
 43
1.000000
 50
0.000000
  0
INSERT
  5
8BB
100
AcDbEntity
  8
Detail
100
AcDbBlockReference
  2
B-123
 10
0.000000
 20
0.000000
 30
0.000000
 41
1.000000
 42
1.000000
 43
1.000000
 50
0.000000
  0
INSERT
  5
8BC
100
AcDbEntity
  8
Detail
100
AcDbBlockReference
  2
B-124
 10
0.000000
 20
0.000000
 30
0.000000
 41
1.000000
 42
1.000000
 43
1.000000
 50
0.000000
  0
INSERT
  5
8BD
100
AcDbEntity
  8
Detail
100
AcDbBlockReference
  2
B-125
 10
0.000000
 20
0.000000
 30
0.000000
 41
1.000000
 42
1.000000
 43
1.000000
 50
0.000000
  0
INSERT
  5
8BE
100
AcDbEntity
  8
L
100
AcDbBlockReference
  2
B-126
 10
0.000000
 20
0.000000
 30
0.000000
 41
1.000000
 42
1.000000
 43
1.000000
 50
0.000000
  0
INSERT
  5
8BF
100
AcDbEntity
  8
Detail
100
AcDbBlockReference
  2
B-127
 10
0.000000
 20
0.000000
 30
0.000000
 41
1.000000
 42
1.000000
 43
1.000000
 50
0.000000
  0
ENDSEC
  0
SECTION
  2
OBJECTS
  0
DICTIONARY
  5
C
330
0
100
AcDbDictionary
281
     1
  3
ACAD_COLOR
350
6B
  3
ACAD_GROUP
350
D
  3
ACAD_IMAGE_DICT
350
1E2
  3
ACAD_IMAGE_VARS
350
1E3
  3
ACAD_MATERIAL
350
6A
  3
ACAD_MLINESTYLE
350
17
  3
ACAD_PLOTSETTINGS
350
19
  3
ACAD_PLOTSTYLENAME
350
E
  3
ACAD_SCALELIST
350
10C
  3
ACAD_TABLESTYLE
350
7E
  3
ACAD_VISUALSTYLE
350
EF
  3
ACDB_RECOMPOSE_DATA
350
15D
  3
AcDbVariableDictionary
350
5E
  0
DICTIONARY
  5
13C
330
10
100
AcDbDictionary
280
     1
281
     1
  0
DICTIONARY
  5
203
330
202
100
AcDbDictionary
280
     1
281
     1
  0
DICTIONARY
  5
6B
102
{ACAD_REACTORS
330
C
102
}
330
C
100
AcDbDictionary
281
     1
  0
DICTIONARY
  5
D
102
{ACAD_REACTORS
330
C
102
}
330
C
100
AcDbDictionary
281
     1
  0
DICTIONARY
  5
1E2
102
{ACAD_REACTORS
330
C
102
}
330
C
100
AcDbDictionary
281
     1
  3
WDVS mit Hartbekleidung_Innenecke mit Dehnfuge_10_1.tif
350
22B
  0
RASTERVARIABLES
  5
1E3
102
{ACAD_REACTORS
330
C
102
}
330
C
100
AcDbRasterVariables
 90
        0
 70
     1
 71
     1
 72
     1
  0
DICTIONARY
  5
6A
102
{ACAD_REACTORS
330
C
102
}
330
C
100
AcDbDictionary
281
     1
  3
ByBlock
350
ED
  3
ByLayer
350
EC
  3
Global
350
EE
  0
DICTIONARY
  5
12D
102
{ACAD_REACTORS
330
C
102
}
330
C
100
AcDbDictionary
281
     1
  3
Annotative
350
13B
  3
Standard
350
12E
  0
DICTIONARY
  5
17
102
{ACAD_REACTORS
330
C
102
}
330
C
100
AcDbDictionary
281
     1
  3
Standard
350
18
  0
DICTIONARY
  5
19
102
{ACAD_REACTORS
330
C
102
}
330
C
100
AcDbDictionary
281
     1
  0
ACDBDICTIONARYWDFLT
  5
E
102
{ACAD_REACTORS
330
C
102
}
330
C
100
AcDbDictionary
281
     1
  3
Normal
350
F
100
AcDbDictionaryWithDefault
340
F
  0
DICTIONARY
  5
10C
102
{ACAD_REACTORS
330
C
102
}
330
C
100
AcDbDictionary
281
     1
  3
A0
350
10D
  3
A1
350
1BE
  3
A2
350
1BF
  3
A3
350
1C0
  3
A4
350
1C1
  3
A5
350
1C2
  3
A6
350
1C3
  3
A7
350
1C4
  3
A8
350
1C5
  3
A9
350
1C6
  3
B0
350
1C7
  3
B1
350
1C8
  3
B2
350
1C9
  3
B3
350
1CA
  3
B4
350
1CB
  3
B5
350
1CC
  3
B6
350
1CD
  0
DICTIONARY
  5
7E
102
{ACAD_REACTORS
330
C
102
}
330
C
100
AcDbDictionary
281
     1
  3
Standard
350
7F
  0
DICTIONARY
  5
EF
102
{ACAD_REACTORS
330
C
102
}
330
C
100
AcDbDictionary
281
     1
  3
2dWireframe
350
F5
  3
3D Hidden
350
F7
  3
3dWireframe
350
F6
  3
Basic
350
F4
  3
Brighten
350
FB
  3
ColorChange
350
FF
  3
Conceptual
350
F8
  3
Dim
350
FA
  3
Facepattern
350
FE
  3
Flat
350
F0
  3
FlatWithEdges
350
F1
  3
Gouraud
350
F2
  3
GouraudWithEdges
350
F3
  3
Linepattern
350
FD
  3
Realistic
350
F9
  3
Thicken
350
FC
  0
XRECORD
  5
15D
102
{ACAD_REACTORS
330
C
102
}
330
C
100
AcDbXrecord
280
     1
 90
        1
330
7F
  0
DICTIONARY
  5
5E
102
{ACAD_REACTORS
330
C
102
}
330
C
100
AcDbDictionary
281
     1
  3
CANNOSCALE
350
146
  3
CMLEADERSTYLE
350
145
  3
CTABLESTYLE
350
84
  3
DIMASSOC
350
5F
  3
HIDETEXT
350
63
  3
LAYEREVAL
350
1AE
  3
LAYERNOTIFY
350
1AF
  0
MATERIAL
  5
ED
102
{ACAD_REACTORS
330
6A
102
}
330
6A
100
AcDbMaterial
  1
ByBlock
 94
       63
  0
MATERIAL
  5
EC
102
{ACAD_REACTORS
330
6A
102
}
330
6A
100
AcDbMaterial
  1
ByLayer
 94
       63
  0
MATERIAL
  5
EE
102
{ACAD_XDICTIONARY
360
173
102
}
102
{ACAD_REACTORS
330
6A
102
}
330
6A
100
AcDbMaterial
  1
Global
 43
0.0007999999797903
 43
0.0
 43
0.0
 43
0.0
 43
0.0
 43
0.0007999999797903
 43
0.0
 43
0.0
 43
0.0
 43
0.0
 43
1.0
 43
0.0
 43
0.0
 43
0.0
 43
0.0
 43
1.0
 49
0.0007999999797903
 49
0.0
 49
0.0
 49
0.0
 49
0.0
 49
0.0007999999797903
 49
0.0
 49
0.0
 49
0.0
 49
0.0
 49
1.0
 49
0.0
 49
0.0
 49
0.0
 49
0.0
 49
1.0
142
0.0007999999797903
142
0.0
142
0.0
142
0.0
142
0.0
142
0.0007999999797903
142
0.0
142
0.0
142
0.0
142
0.0
142
1.0
142
0.0
142
0.0
142
0.0
142
0.0
142
1.0
144
0.0007999999797903
144
0.0
144
0.0
144
0.0
144
0.0
144
0.0007999999797903
144
0.0
144
0.0
144
0.0
144
0.0
144
1.0
144
0.0
144
0.0
144
0.0
144
0.0
144
1.0
 94
       63
1001
ACAD
1070
    -1
1070
     3
1070
     0
1000

1071
        0
1070
     0
  0
MLINESTYLE
  5
18
102
{ACAD_REACTORS
330
17
102
}
330
17
100
AcDbMlineStyle
  2
STANDARD
 70
     0
  3

 62
   256
 51
90.0
 52
90.0
 71
     2
 49
0.5
 62
   256
  6
BYLAYER
 49
-0.5
 62
   256
  6
BYLAYER
  0
ACDBPLACEHOLDER
  5
F
102
{ACAD_REACTORS
330
E
102
}
330
E
  0
SCALE
  5
10D
102
{ACAD_REACTORS
330
10C
102
}
330
10C
100
AcDbScale
 70
     0
300
1:1
140
1.0
141
1.0
290
     1
  0
SCALE
  5
1BE
102
{ACAD_REACTORS
330
10C
102
}
330
10C
100
AcDbScale
 70
     0
300
1:2
140
1.0
141
2.0
290
     0
  0
SCALE
  5
1BF
102
{ACAD_REACTORS
330
10C
102
}
330
10C
100
AcDbScale
 70
     0
300
1:4
140
1.0
141
4.0
290
     0
  0
SCALE
  5
1C0
102
{ACAD_REACTORS
330
10C
102
}
330
10C
100
AcDbScale
 70
     0
300
1:5
140
1.0
141
5.0
290
     0
  0
SCALE
  5
1C1
102
{ACAD_REACTORS
330
10C
102
}
330
10C
100
AcDbScale
 70
     0
300
1:8
140
1.0
141
8.0
290
     0
  0
SCALE
  5
1C2
102
{ACAD_REACTORS
330
10C
102
}
330
10C
100
AcDbScale
 70
     0
300
1:10
140
1.0
141
10.0
290
     0
  0
SCALE
  5
1C3
102
{ACAD_REACTORS
330
10C
102
}
330
10C
100
AcDbScale
 70
     0
300
1:16
140
1.0
141
16.0
290
     0
  0
SCALE
  5
1C4
102
{ACAD_REACTORS
330
10C
102
}
330
10C
100
AcDbScale
 70
     0
300
1:20
140
1.0
141
20.0
290
     0
  0
SCALE
  5
1C5
102
{ACAD_REACTORS
330
10C
102
}
330
10C
100
AcDbScale
 70
     0
300
1:30
140
1.0
141
30.0
290
     0
  0
SCALE
  5
1C6
102
{ACAD_REACTORS
330
10C
102
}
330
10C
100
AcDbScale
 70
     0
300
1:40
140
1.0
141
40.0
290
     0
  0
SCALE
  5
1C7
102
{ACAD_REACTORS
330
10C
102
}
330
10C
100
AcDbScale
 70
     0
300
1:50
140
1.0
141
50.0
290
     0
  0
SCALE
  5
1C8
102
{ACAD_REACTORS
330
10C
102
}
330
10C
100
AcDbScale
 70
     0
300
1:100
140
1.0
141
100.0
290
     0
  0
SCALE
  5
1C9
102
{ACAD_REACTORS
330
10C
102
}
330
10C
100
AcDbScale
 70
     0
300
2:1
140
2.0
141
1.0
290
     0
  0
SCALE
  5
1CA
102
{ACAD_REACTORS
330
10C
102
}
330
10C
100
AcDbScale
 70
     0
300
4:1
140
4.0
141
1.0
290
     0
  0
SCALE
  5
1CB
102
{ACAD_REACTORS
330
10C
102
}
330
10C
100
AcDbScale
 70
     0
300
8:1
140
8.0
141
1.0
290
     0
  0
SCALE
  5
1CC
102
{ACAD_REACTORS
330
10C
102
}
330
10C
100
AcDbScale
 70
     0
300
10:1
140
10.0
141
1.0
290
     0
  0
SCALE
  5
1CD
102
{ACAD_REACTORS
330
10C
102
}
330
10C
100
AcDbScale
 70
     0
300
100:1
140
100.0
141
1.0
290
     0
  0
TABLESTYLE
  5
7F
102
{ACAD_XDICTIONARY
360
162
102
}
102
{ACAD_REACTORS
330
7E
102
}
330
7E
100
AcDbTableStyle
  3
Standard
 70
     0
 71
     0
 40
1.5
 41
1.5
280
     0
281
     0
  7
Standard
140
4.5
170
     2
 62
     0
 63
     7
283
     0
 90
      512
 91
        0
  1

274
    -2
284
     1
 64
     0
275
    -2
285
     1
 65
     0
276
    -2
286
     1
 66
     0
277
    -2
287
     1
 67
     0
278
    -2
288
     1
 68
     0
279
    -2
289
     1
 69
     0
  7
Standard
140
6.0
170
     5
 62
     0
 63
     7
283
     0
 90
      512
 91
        0
  1

274
    -2
284
     1
 64
     0
275
    -2
285
     1
 65
     0
276
    -2
286
     1
 66
     0
277
    -2
287
     1
 67
     0
278
    -2
288
     1
 68
     0
279
    -2
289
     1
 69
     0
  7
Standard
140
4.5
170
     5
 62
     0
 63
     7
283
     0
 90
      512
 91
        0
  1

274
    -2
284
     1
 64
     0
275
    -2
285
     1
 65
     0
276
    -2
286
     1
 66
     0
277
    -2
287
     1
 67
     0
278
    -2
288
     1
 68
     0
279
    -2
289
     1
 69
     0
  0
VISUALSTYLE
  5
F5
102
{ACAD_REACTORS
330
EF
102
}
330
EF
100
AcDbVisualStyle
  2
2dWireframe
 70
     4
 71
     0
 72
     2
 73
     1
 90
        0
 40
-0.6
 41
-30.0
 62
     5
 63
     7
421
 16777215
 74
     1
 91
        4
 64
     7
 65
   257
 75
     1
175
     1
 42
1.0
 92
        0
 66
   257
 43
1.0
 76
     1
 77
     6
 78
     2
 67
     7
 79
     5
170
     0
171
     0
290
     0
174
     0
 93
        1
 44
0.0
173
     0
291
     0
 45
0.0
  0
VISUALSTYLE
  5
F7
102
{ACAD_REACTORS
330
EF
102
}
330
EF
100
AcDbVisualStyle
  2
3D Hidden
 70
     6
 71
     1
 72
     2
 73
     2
 90
        0
 40
-0.6
 41
-30.0
 62
     5
 63
     7
421
 16777215
 74
     2
 91
        2
 64
     7
 65
   257
 75
     2
175
     1
 42
40.0
 92
        0
 66
   257
 43
1.0
 76
     1
 77
     6
 78
     2
 67
     7
 79
     3
170
     0
171
     0
290
     0
174
     0
 93
        1
 44
0.0
173
     0
291
     0
 45
0.0
  0
VISUALSTYLE
  5
F6
102
{ACAD_REACTORS
330
EF
102
}
330
EF
100
AcDbVisualStyle
  2
3dWireframe
 70
     5
 71
     0
 72
     2
 73
     1
 90
        0
 40
-0.6
 41
-30.0
 62
     5
 63
     7
421
 16777215
 74
     1
 91
        4
 64
     7
 65
   257
 75
     1
175
     1
 42
1.0
 92
        0
 66
   257
 43
1.0
 76
     1
 77
     6
 78
     2
 67
     7
 79
     5
170
     0
171
     0
290
     0
174
     0
 93
        1
 44
0.0
173
     0
291
     0
 45
0.0
  0
VISUALSTYLE
  5
F4
102
{ACAD_REACTORS
330
EF
102
}
330
EF
100
AcDbVisualStyle
  2
Basic
 70
     7
 71
     1
 72
     0
 73
     1
 90
        0
 40
-0.6
 41
-30.0
 62
     5
 63
     7
421
 16777215
 74
     0
 91
        4
 64
     7
 65
   257
 75
     1
175
     1
 42
1.0
 92
        8
 66
     7
 43
1.0
 76
     1
 77
     6
 78
     2
 67
     7
 79
     5
170
     0
171
     0
290
     0
174
     0
 93
        1
 44
0.0
173
     0
291
     1
 45
0.0
  0
VISUALSTYLE
  5
FB
102
{ACAD_REACTORS
330
EF
102
}
330
EF
100
AcDbVisualStyle
  2
Brighten
 70
    12
 71
     2
 72
     2
 73
     1
 90
        0
 40
-0.6
 41
-30.0
 62
     5
 63
     7
421
 16777215
 74
     1
 91
        4
 64
     7
 65
   257
 75
     1
175
     1
 42
1.0
 92
        8
 66
     7
 43
1.0
 76
     1
 77
     6
 78
     2
 67
     7
 79
     5
170
     0
171
     0
290
     0
174
     0
 93
        1
 44
50.0
173
     0
291
     1
 45
0.0
  0
VISUALSTYLE
  5
FF
102
{ACAD_REACTORS
330
EF
102
}
330
EF
100
AcDbVisualStyle
  2
ColorChange
 70
    16
 71
     2
 72
     2
 73
     3
 90
        0
 40
-0.6
 41
-30.0
 62
     5
 63
     8
421
  8421504
 74
     1
 91
        4
 64
     7
 65
   257
 75
     1
175
     1
 42
1.0
 92
        8
 66
     8
424
  8421504
 43
1.0
 76
     1
 77
     6
 78
     2
 67
     7
 79
     5
170
     0
171
     0
290
     0
174
     0
 93
        1
 44
0.0
173
     0
291
     1
 45
0.0
  0
VISUALSTYLE
  5
F8
102
{ACAD_REACTORS
330
EF
102
}
330
EF
100
AcDbVisualStyle
  2
Conceptual
 70
     9
 71
     3
 72
     2
 73
     1
 90
        0
 40
-0.6
 41
-30.0
 62
     5
 63
     7
421
 16777215
 74
     2
 91
        2
 64
     7
 65
   257
 75
     1
175
     1
 42
40.0
 92
        8
 66
     7
 43
1.0
 76
     1
 77
     6
 78
     2
 67
     7
 79
     3
170
     0
171
     0
290
     0
174
     0
 93
        1
 44
0.0
173
     0
291
     0
 45
0.0
  0
VISUALSTYLE
  5
FA
102
{ACAD_REACTORS
330
EF
102
}
330
EF
100
AcDbVisualStyle
  2
Dim
 70
    11
 71
     2
 72
     2
 73
     1
 90
        0
 40
-0.6
 41
-30.0
 62
     5
 63
     7
421
 16777215
 74
     1
 91
        4
 64
     7
 65
   257
 75
     1
175
     1
 42
1.0
 92
        8
 66
     7
 43
1.0
 76
     1
 77
     6
 78
     2
 67
     7
 79
     5
170
     0
171
     0
290
     0
174
     0
 93
        1
 44
-50.0
173
     0
291
     1
 45
0.0
  0
VISUALSTYLE
  5
FE
102
{ACAD_REACTORS
330
EF
102
}
330
EF
100
AcDbVisualStyle
  2
Facepattern
 70
    15
 71
     2
 72
     2
 73
     1
 90
        0
 40
-0.6
 41
-30.0
 62
     5
 63
     7
421
 16777215
 74
     1
 91
        4
 64
     7
 65
   257
 75
     1
175
     1
 42
1.0
 92
        8
 66
     7
 43
1.0
 76
     1
 77
     6
 78
     2
 67
     7
 79
     5
170
     0
171
     0
290
     0
174
     0
 93
        1
 44
0.0
173
     0
291
     1
 45
0.0
  0
VISUALSTYLE
  5
F0
102
{ACAD_REACTORS
330
EF
102
}
330
EF
100
AcDbVisualStyle
  2
Flat
 70
     0
 71
     2
 72
     1
 73
     1
 90
        2
 40
-0.6
 41
30.0
 62
     5
 63
     7
421
 16777215
 74
     0
 91
        4
 64
     7
 65
   257
 75
     1
175
     1
 42
1.0
 92
        8
 66
     7
 43
1.0
 76
     1
 77
     6
 78
     2
 67
     7
 79
     5
170
     0
171
     0
290
     0
174
     0
 93
        1
 44
0.0
173
     0
291
     1
 45
0.0
  0
VISUALSTYLE
  5
F1
102
{ACAD_REACTORS
330
EF
102
}
330
EF
100
AcDbVisualStyle
  2
FlatWithEdges
 70
     1
 71
     2
 72
     1
 73
     1
 90
        2
 40
-0.6
 41
30.0
 62
     5
 63
     7
421
 16777215
 74
     1
 91
        4
 64
     7
 65
   257
 75
     1
175
     1
 42
1.0
 92
        0
 66
   257
 43
1.0
 76
     1
 77
     6
 78
     2
 67
     7
 79
     5
170
     0
171
     0
290
     0
174
     0
 93
        1
 44
0.0
173
     0
291
     1
 45
0.0
  0
VISUALSTYLE
  5
F2
102
{ACAD_REACTORS
330
EF
102
}
330
EF
100
AcDbVisualStyle
  2
Gouraud
 70
     2
 71
     2
 72
     2
 73
     1
 90
        2
 40
-0.6
 41
30.0
 62
     5
 63
     7
421
 16777215
 74
     0
 91
        4
 64
     7
 65
   257
 75
     1
175
     1
 42
1.0
 92
        0
 66
     7
 43
1.0
 76
     1
 77
     6
 78
     2
 67
     7
 79
     5
170
     0
171
     0
290
     0
174
     0
 93
        1
 44
0.0
173
     0
291
     1
 45
0.0
  0
VISUALSTYLE
  5
F3
102
{ACAD_REACTORS
330
EF
102
}
330
EF
100
AcDbVisualStyle
  2
GouraudWithEdges
 70
     3
 71
     2
 72
     2
 73
     1
 90
        2
 40
-0.6
 41
30.0
 62
     5
 63
     7
421
 16777215
 74
     1
 91
        4
 64
     7
 65
   257
 75
     1
175
     1
 42
1.0
 92
        0
 66
   257
 43
1.0
 76
     1
 77
     6
 78
     2
 67
     7
 79
     5
170
     0
171
     0
290
     0
174
     0
 93
        1
 44
0.0
173
     0
291
     1
 45
0.0
  0
VISUALSTYLE
  5
FD
102
{ACAD_REACTORS
330
EF
102
}
330
EF
100
AcDbVisualStyle
  2
Linepattern
 70
    14
 71
     2
 72
     2
 73
     1
 90
        0
 40
-0.6
 41
-30.0
 62
     5
 63
     7
421
 16777215
 74
     1
 91
        4
 64
     7
 65
   257
 75
     7
175
     7
 42
1.0
 92
        8
 66
     7
 43
1.0
 76
     1
 77
     6
 78
     2
 67
     7
 79
     5
170
     0
171
     0
290
     0
174
     0
 93
        1
 44
0.0
173
     0
291
     1
 45
0.0
  0
VISUALSTYLE
  5
F9
102
{ACAD_REACTORS
330
EF
102
}
330
EF
100
AcDbVisualStyle
  2
Realistic
 70
     8
 71
     2
 72
     2
 73
     1
 90
        0
 40
-0.6
 41
-30.0
 62
     5
 63
     7
421
 16777215
 74
     1
 91
        0
 64
     7
 65
   257
 75
     1
175
     1
 42
1.0
 92
        8
 66
     8
424
  7895160
 43
1.0
 76
     1
 77
     6
 78
     2
 67
     7
 79
     5
170
     0
171
     0
290
     0
174
     0
 93
       13
 44
0.0
173
     0
291
     0
 45
0.0
  0
VISUALSTYLE
  5
FC
102
{ACAD_REACTORS
330
EF
102
}
330
EF
100
AcDbVisualStyle
  2
Thicken
 70
    13
 71
     2
 72
     2
 73
     1
 90
        0
 40
-0.6
 41
-30.0
 62
     5
 63
     7
421
 16777215
 74
     1
 91
        4
 64
     7
 65
   257
 75
     1
175
     1
 42
1.0
 92
       12
 66
     7
 43
1.0
 76
     1
 77
     6
 78
     2
 67
     7
 79
     5
170
     0
171
     0
290
     0
174
     0
 93
        1
 44
0.0
173
     0
291
     1
 45
0.0
  0
DICTIONARYVAR
  5
146
102
{ACAD_REACTORS
330
5E
102
}
330
5E
100
DictionaryVariables
280
     0
  1
1:1
  0
DICTIONARYVAR
  5
145
102
{ACAD_REACTORS
330
5E
102
}
330
5E
100
DictionaryVariables
280
     0
  1
STANDARD
  0
DICTIONARYVAR
  5
84
102
{ACAD_REACTORS
330
5E
102
}
330
5E
100
DictionaryVariables
280
     0
  1
STANDARD
  0
DICTIONARYVAR
  5
5F
102
{ACAD_REACTORS
330
5E
102
}
330
5E
100
DictionaryVariables
280
     0
  1
2
  0
DICTIONARYVAR
  5
63
102
{ACAD_REACTORS
330
5E
102
}
330
5E
100
DictionaryVariables
280
     0
  1
1
  0
DICTIONARYVAR
  5
1AE
102
{ACAD_REACTORS
330
5E
102
}
330
5E
100
DictionaryVariables
280
     0
  1
0
  0
DICTIONARYVAR
  5
1AF
102
{ACAD_REACTORS
330
5E
102
}
330
5E
100
DictionaryVariables
280
     0
  1
0
  0
DICTIONARY
  5
173
330
EE
100
AcDbDictionary
280
     1
281
     1
  3
BUMPTILE
360
175
  3
DIFFUSETILE
360
174
  3
OPACITYTILE
360
176
  3
REFLECTIONTILE
360
177
  0
DICTIONARY
  5
162
330
7F
100
AcDbDictionary
280
     1
281
     1
  3
ACAD_ROUNDTRIP_2008_TABLESTYLE_CELLSTYLEMAP
360
1E7
  0
XRECORD
  5
175
102
{ACAD_REACTORS
330
173
102
}
330
173
100
AcDbXrecord
280
     1
270
     1
271
     1
  0
XRECORD
  5
174
102
{ACAD_REACTORS
330
173
102
}
330
173
100
AcDbXrecord
280
     1
270
     1
271
     1
  0
XRECORD
  5
176
102
{ACAD_REACTORS
330
173
102
}
330
173
100
AcDbXrecord
280
     1
270
     1
271
     1
  0
XRECORD
  5
177
102
{ACAD_REACTORS
330
173
102
}
330
173
100
AcDbXrecord
280
     1
270
     1
271
     1
  0
CELLSTYLEMAP
  5
1E7
102
{ACAD_REACTORS
330
162
102
}
330
162
100
AcDbCellStyleMap
 90
        3
300
CELLSTYLE
  1
TABLEFORMAT_BEGIN
 90
        5
170
     1
 91
        0
 92
    32768
 62
   257
 93
        1
300
CONTENTFORMAT
  1
CONTENTFORMAT_BEGIN
 90
        0
 91
        0
 92
      512
 93
        0
300

 40
0.0
140
1.0
 94
        5
 62
     0
340
11
144
6.0
309
CONTENTFORMAT_END
171
     1
301
MARGIN
  1
CELLMARGIN_BEGIN
 40
1.5
 40
1.5
 40
1.5
 40
1.5
 40
4.5
 40
4.5
309
CELLMARGIN_END
 94
        6
 95
        1
302
GRIDFORMAT
  1
GRIDFORMAT_BEGIN
 90
        0
 91
        1
 62
     0
 92
       -2
340
633
 93
        0
 40
1.125
309
GRIDFORMAT_END
 95
        2
302
GRIDFORMAT
  1
GRIDFORMAT_BEGIN
 90
        0
 91
        1
 62
     0
 92
       -2
340
633
 93
        0
 40
1.125
309
GRIDFORMAT_END
 95
        4
302
GRIDFORMAT
  1
GRIDFORMAT_BEGIN
 90
        0
 91
        1
 62
     0
 92
       -2
340
633
 93
        0
 40
1.125
309
GRIDFORMAT_END
 95
        8
302
GRIDFORMAT
  1
GRIDFORMAT_BEGIN
 90
        0
 91
        1
 62
     0
 92
       -2
340
633
 93
        0
 40
1.125
309
GRIDFORMAT_END
 95
       16
302
GRIDFORMAT
  1
GRIDFORMAT_BEGIN
 90
        0
 91
        1
 62
     0
 92
       -2
340
633
 93
        0
 40
1.125
309
GRIDFORMAT_END
 95
       32
302
GRIDFORMAT
  1
GRIDFORMAT_BEGIN
 90
        0
 91
        1
 62
     0
 92
       -2
340
633
 93
        0
 40
1.125
309
GRIDFORMAT_END
309
TABLEFORMAT_END
  1
CELLSTYLE_BEGIN
 90
        1
 91
        1
300
_TITLE
309
CELLSTYLE_END
300
CELLSTYLE
  1
TABLEFORMAT_BEGIN
 90
        5
170
     1
 91
        0
 92
        0
 62
   257
 93
        1
300
CONTENTFORMAT
  1
CONTENTFORMAT_BEGIN
 90
        0
 91
        0
 92
      512
 93
        0
300

 40
0.0
140
1.0
 94
        5
 62
     0
340
11
144
4.5
309
CONTENTFORMAT_END
171
     1
301
MARGIN
  1
CELLMARGIN_BEGIN
 40
1.5
 40
1.5
 40
1.5
 40
1.5
 40
4.5
 40
4.5
309
CELLMARGIN_END
 94
        6
 95
        1
302
GRIDFORMAT
  1
GRIDFORMAT_BEGIN
 90
        0
 91
        1
 62
     0
 92
       -2
340
633
 93
        0
 40
1.125
309
GRIDFORMAT_END
 95
        2
302
GRIDFORMAT
  1
GRIDFORMAT_BEGIN
 90
        0
 91
        1
 62
     0
 92
       -2
340
633
 93
        0
 40
1.125
309
GRIDFORMAT_END
 95
        4
302
GRIDFORMAT
  1
GRIDFORMAT_BEGIN
 90
        0
 91
        1
 62
     0
 92
       -2
340
633
 93
        0
 40
1.125
309
GRIDFORMAT_END
 95
        8
302
GRIDFORMAT
  1
GRIDFORMAT_BEGIN
 90
        0
 91
        1
 62
     0
 92
       -2
340
633
 93
        0
 40
1.125
309
GRIDFORMAT_END
 95
       16
302
GRIDFORMAT
  1
GRIDFORMAT_BEGIN
 90
        0
 91
        1
 62
     0
 92
       -2
340
633
 93
        0
 40
1.125
309
GRIDFORMAT_END
 95
       32
302
GRIDFORMAT
  1
GRIDFORMAT_BEGIN
 90
        0
 91
        1
 62
     0
 92
       -2
340
633
 93
        0
 40
1.125
309
GRIDFORMAT_END
309
TABLEFORMAT_END
  1
CELLSTYLE_BEGIN
 90
        2
 91
        1
300
_HEADER
309
CELLSTYLE_END
300
CELLSTYLE
  1
TABLEFORMAT_BEGIN
 90
        5
170
     1
 91
        0
 92
        0
 62
   257
 93
        1
300
CONTENTFORMAT
  1
CONTENTFORMAT_BEGIN
 90
        0
 91
        0
 92
      512
 93
        0
300

 40
0.0
140
1.0
 94
        2
 62
     0
340
11
144
4.5
309
CONTENTFORMAT_END
171
     1
301
MARGIN
  1
CELLMARGIN_BEGIN
 40
1.5
 40
1.5
 40
1.5
 40
1.5
 40
4.5
 40
4.5
309
CELLMARGIN_END
 94
        6
 95
        1
302
GRIDFORMAT
  1
GRIDFORMAT_BEGIN
 90
        0
 91
        1
 62
     0
 92
       -2
340
633
 93
        0
 40
1.125
309
GRIDFORMAT_END
 95
        2
302
GRIDFORMAT
  1
GRIDFORMAT_BEGIN
 90
        0
 91
        1
 62
     0
 92
       -2
340
633
 93
        0
 40
1.125
309
GRIDFORMAT_END
 95
        4
302
GRIDFORMAT
  1
GRIDFORMAT_BEGIN
 90
        0
 91
        1
 62
     0
 92
       -2
340
633
 93
        0
 40
1.125
309
GRIDFORMAT_END
 95
        8
302
GRIDFORMAT
  1
GRIDFORMAT_BEGIN
 90
        0
 91
        1
 62
     0
 92
       -2
340
633
 93
        0
 40
1.125
309
GRIDFORMAT_END
 95
       16
302
GRIDFORMAT
  1
GRIDFORMAT_BEGIN
 90
        0
 91
        1
 62
     0
 92
       -2
340
633
 93
        0
 40
1.125
309
GRIDFORMAT_END
 95
       32
302
GRIDFORMAT
  1
GRIDFORMAT_BEGIN
 90
        0
 91
        1
 62
     0
 92
       -2
340
633
 93
        0
 40
1.125
309
GRIDFORMAT_END
309
TABLEFORMAT_END
  1
CELLSTYLE_BEGIN
 90
        3
 91
        2
300
_DATA
309
CELLSTYLE_END
  0
IMAGEDEF_REACTOR
  5
22C
330
22A
100
AcDbRasterImageDefReactor
 90
     2
330
22A
  0
IMAGEDEF
  5
22B
102
{ACAD_REACTORS
330
5E
330
22C
102
}
330
5E
100
AcDbRasterImageDef
 90
     0
  1
WDVS mit Hartbekleidung_Innenecke mit Dehnfuge_10_1.tif
 10
395.000000
 20
405.000000
 11
0.002532
 21
0.002469
280
     1
281
     0
  0
ENDSEC
  0
EOF
