  0
SECTION
  2
HEADER
  9
$ACADVER
  1
AC1024
  9
$ACADMAINTVER
 70
     6
  9
$DWGCODEPAGE
  3
ANSI_1252
  9
$INSBASE
 10
0.0
 20
0.0
 30
0.0
  9
$EXTMIN
 10
-262.500018
 20
-371.249941
 30
0.000000
  9
$EXTMAX
 10
237.500023
 20
346.250078
 30
0.000000
  9
$LIMMIN
 10
0.0
 20
0.0
  9
$LIMMAX
 10
420.0
 20
297.0
  9
$ORTHOMODE
 70
     0
  9
$REGENMODE
 70
     1
  9
$FILLMODE
 70
     1
  9
$QTEXTMODE
 70
     0
  9
$MIRRTEXT
 70
     0
  9
$LTSCALE
 40
25.000000
  9
$ATTMODE
 70
     1
  9
$TEXTSIZE
 40
2.5
  9
$TRACEWID
 40
1.0
  9
$TEXTSTYLE
  7
Standard
  9
$CLAYER
  8
0
  9
$CELTYPE
  6
ByLayer
  9
$CECOLOR
 62
   256
  9
$CELTSCALE
 40
1.0
  9
$DISPSILH
 70
     0
  9
$DIMSCALE
 40
1.0
  9
$DIMASZ
 40
2.5
  9
$DIMEXO
 40
0.625
  9
$DIMDLI
 40
3.75
  9
$DIMRND
 40
0.0
  9
$DIMDLE
 40
0.0
  9
$DIMEXE
 40
1.25
  9
$DIMTP
 40
0.0
  9
$DIMTM
 40
0.0
  9
$DIMTXT
 40
2.5
  9
$DIMCEN
 40
2.5
  9
$DIMTSZ
 40
0.0
  9
$DIMTOL
 70
     0
  9
$DIMLIM
 70
     0
  9
$DIMTIH
 70
     0
  9
$DIMTOH
 70
     0
  9
$DIMSE1
 70
     0
  9
$DIMSE2
 70
     0
  9
$DIMTAD
 70
     1
  9
$DIMZIN
 70
     8
  9
$DIMBLK
  1

  9
$DIMASO
 70
     1
  9
$DIMSHO
 70
     1
  9
$DIMPOST
  1

  9
$DIMAPOST
  1

  9
$DIMALT
 70
     0
  9
$DIMALTD
 70
     3
  9
$DIMALTF
 40
0.03937007874016
  9
$DIMLFAC
 40
1.0
  9
$DIMTOFL
 70
     1
  9
$DIMTVP
 40
0.0
  9
$DIMTIX
 70
     0
  9
$DIMSOXD
 70
     0
  9
$DIMSAH
 70
     0
  9
$DIMBLK1
  1

  9
$DIMBLK2
  1

  9
$DIMSTYLE
  2
ISO-25
  9
$DIMCLRD
 70
     0
  9
$DIMCLRE
 70
     0
  9
$DIMCLRT
 70
     0
  9
$DIMTFAC
 40
1.0
  9
$DIMGAP
 40
0.625
  9
$DIMJUST
 70
     0
  9
$DIMSD1
 70
     0
  9
$DIMSD2
 70
     0
  9
$DIMTOLJ
 70
     0
  9
$DIMTZIN
 70
     8
  9
$DIMALTZ
 70
     0
  9
$DIMALTTZ
 70
     0
  9
$DIMUPT
 70
     0
  9
$DIMDEC
 70
     2
  9
$DIMTDEC
 70
     2
  9
$DIMALTU
 70
     2
  9
$DIMALTTD
 70
     3
  9
$DIMTXSTY
  7
Standard
  9
$DIMAUNIT
 70
     0
  9
$DIMADEC
 70
     0
  9
$DIMALTRND
 40
0.0
  9
$DIMAZIN
 70
     0
  9
$DIMDSEP
 70
    44
  9
$DIMATFIT
 70
     3
  9
$DIMFRAC
 70
     0
  9
$DIMLDRBLK
  1

  9
$DIMLUNIT
 70
     2
  9
$DIMLWD
 70
    -2
  9
$DIMLWE
 70
    -2
  9
$DIMTMOVE
 70
     0
  9
$DIMFXL
 40
1.0
  9
$DIMFXLON
 70
     0
  9
$DIMJOGANG
 40
0.7853981633974483
  9
$DIMTFILL
 70
     0
  9
$DIMTFILLCLR
 70
     0
  9
$DIMARCSYM
 70
     0
  9
$DIMLTYPE
  6

  9
$DIMLTEX1
  6

  9
$DIMLTEX2
  6

  9
$DIMTXTDIRECTION
 70
     0
  9
$LUNITS
 70
     2
  9
$LUPREC
 70
     4
  9
$SKETCHINC
 40
1.0
  9
$FILLETRAD
 40
10.0
  9
$AUNITS
 70
     0
  9
$AUPREC
 70
     0
  9
$MENU
  1
.
  9
$ELEVATION
 40
0.0
  9
$PELEVATION
 40
0.0
  9
$THICKNESS
 40
0.0
  9
$LIMCHECK
 70
     0
  9
$CHAMFERA
 40
10.0
  9
$CHAMFERB
 40
10.0
  9
$CHAMFERC
 40
20.0
  9
$CHAMFERD
 40
0.0
  9
$SKPOLY
 70
     0
  9
$TDCREATE
 40
2452006.439837951
  9
$TDUCREATE
 40
2452006.356504618
  9
$TDUPDATE
 40
2452006.439963946
  9
$TDUUPDATE
 40
2452006.356630613
  9
$TDINDWG
 40
0.0001273843
  9
$TDUSRTIMER
 40
0.0001272685
  9
$USRTIMER
 70
     1
  9
$ANGBASE
 50
0.0
  9
$ANGDIR
 70
     0
  9
$PDMODE
 70
     0
  9
$PDSIZE
 40
0.0
  9
$PLINEWID
 40
0.0
  9
$SPLFRAME
 70
     0
  9
$SPLINETYPE
 70
     6
  9
$SPLINESEGS
 70
     8
  9
$HANDSEED
  5
6D7
  9
$SURFTAB1
 70
     6
  9
$SURFTAB2
 70
     6
  9
$SURFTYPE
 70
     6
  9
$SURFU
 70
     6
  9
$SURFV
 70
     6
  9
$UCSBASE
  2

  9
$UCSNAME
  2

  9
$UCSORG
 10
0.0
 20
0.0
 30
0.0
  9
$UCSXDIR
 10
1.0
 20
0.0
 30
0.0
  9
$UCSYDIR
 10
0.0
 20
1.0
 30
0.0
  9
$UCSORTHOREF
  2

  9
$UCSORTHOVIEW
 70
     0
  9
$UCSORGTOP
 10
0.0
 20
0.0
 30
0.0
  9
$UCSORGBOTTOM
 10
0.0
 20
0.0
 30
0.0
  9
$UCSORGLEFT
 10
0.0
 20
0.0
 30
0.0
  9
$UCSORGRIGHT
 10
0.0
 20
0.0
 30
0.0
  9
$UCSORGFRONT
 10
0.0
 20
0.0
 30
0.0
  9
$UCSORGBACK
 10
0.0
 20
0.0
 30
0.0
  9
$PUCSBASE
  2

  9
$PUCSNAME
  2

  9
$PUCSORG
 10
0.0
 20
0.0
 30
0.0
  9
$PUCSXDIR
 10
1.0
 20
0.0
 30
0.0
  9
$PUCSYDIR
 10
0.0
 20
1.0
 30
0.0
  9
$PUCSORTHOREF
  2

  9
$PUCSORTHOVIEW
 70
     0
  9
$PUCSORGTOP
 10
0.0
 20
0.0
 30
0.0
  9
$PUCSORGBOTTOM
 10
0.0
 20
0.0
 30
0.0
  9
$PUCSORGLEFT
 10
0.0
 20
0.0
 30
0.0
  9
$PUCSORGRIGHT
 10
0.0
 20
0.0
 30
0.0
  9
$PUCSORGFRONT
 10
0.0
 20
0.0
 30
0.0
  9
$PUCSORGBACK
 10
0.0
 20
0.0
 30
0.0
  9
$USERI1
 70
     0
  9
$USERI2
 70
     0
  9
$USERI3
 70
     0
  9
$USERI4
 70
     0
  9
$USERI5
 70
     0
  9
$USERR1
 40
0.0
  9
$USERR2
 40
0.0
  9
$USERR3
 40
0.0
  9
$USERR4
 40
0.0
  9
$USERR5
 40
0.0
  9
$WORLDVIEW
 70
     1
  9
$SHADEDGE
 70
     3
  9
$SHADEDIF
 70
    70
  9
$TILEMODE
 70
     1
  9
$MAXACTVP
 70
    64
  9
$PINSBASE
 10
0.0
 20
0.0
 30
0.0
  9
$PLIMCHECK
 70
     0
  9
$PEXTMIN
 10
1.000000000000000E+20
 20
1.000000000000000E+20
 30
1.000000000000000E+20
  9
$PEXTMAX
 10
-1.000000000000000E+20
 20
-1.000000000000000E+20
 30
-1.000000000000000E+20
  9
$PLIMMIN
 10
0.0
 20
0.0
  9
$PLIMMAX
 10
420.0
 20
297.0
  9
$UNITMODE
 70
     0
  9
$VISRETAIN
 70
     1
  9
$PLINEGEN
 70
     0
  9
$PSLTSCALE
 70
     1
  9
$TREEDEPTH
 70
  3020
  9
$CMLSTYLE
  2
Standard
  9
$CMLJUST
 70
     0
  9
$CMLSCALE
 40
20.0
  9
$PROXYGRAPHICS
 70
     1
  9
$MEASUREMENT
 70
     1
  9
$CELWEIGHT
370
    -1
  9
$ENDCAPS
280
     0
  9
$JOINSTYLE
280
     0
  9
$LWDISPLAY
290
     0
  9
$INSUNITS
 70
     4
  9
$HYPERLINKBASE
  1

  9
$STYLESHEET
  1

  9
$XEDIT
290
     1
  9
$CEPSNTYPE
380
     0
  9
$PSTYLEMODE
290
     1
  9
$FINGERPRINTGUID
  2

  9
$VERSIONGUID
  2

  9
$EXTNAMES
290
     1
  9
$PSVPSCALE
 40
0.0
  9
$OLESTARTUP
290
     0
  9
$SORTENTS
280
   127
  9
$INDEXCTL
280
     0
  9
$HIDETEXT
280
     1
  9
$XCLIPFRAME
280
     2
  9
$HALOGAP
280
     0
  9
$OBSCOLOR
 70
   257
  9
$OBSLTYPE
280
     0
  9
$INTERSECTIONDISPLAY
280
     0
  9
$INTERSECTIONCOLOR
 70
   257
  9
$DIMASSOC
280
     2
  9
$PROJECTNAME
  1

  9
$CAMERADISPLAY
290
     0
  9
$LENSLENGTH
 40
50.0
  9
$CAMERAHEIGHT
 40
0.0
  9
$STEPSPERSEC
 40
2.0
  9
$STEPSIZE
 40
6.0
  9
$3DDWFPREC
 40
2.0
  9
$PSOLWIDTH
 40
5.0
  9
$PSOLHEIGHT
 40
80.0
  9
$LOFTANG1
 40
1.570796326794896
  9
$LOFTANG2
 40
1.570796326794896
  9
$LOFTMAG1
 40
0.0
  9
$LOFTMAG2
 40
0.0
  9
$LOFTPARAM
 70
     7
  9
$LOFTNORMALS
280
     1
  9
$LATITUDE
 40
37.795
  9
$LONGITUDE
 40
-122.394
  9
$NORTHDIRECTION
 40
0.0
  9
$TIMEZONE
 70
 -8000
  9
$LIGHTGLYPHDISPLAY
280
     1
  9
$TILEMODELIGHTSYNCH
280
     1
  9
$CMATERIAL
347
EC
  9
$SOLIDHIST
280
     1
  9
$SHOWHIST
280
     1
  9
$DWFFRAME
280
     2
  9
$DGNFRAME
280
     0
  9
$REALWORLDSCALE
290
     1
  9
$INTERFERECOLOR
 62
     1
  9
$INTERFEREOBJVS
345
F9
  9
$INTERFEREVPVS
346
F6
  9
$CSHADOW
280
     0
  9
$SHADOWPLANELOCATION
 40
0.0
  0
ENDSEC
  0
SECTION
  2
CLASSES
  0
CLASS
  1
ACDBDICTIONARYWDFLT
  2
AcDbDictionaryWithDefault
  3
ObjectDBX Classes
 90
        0
 91
        1
280
     0
281
     0
  0
CLASS
  1
ACDBPLACEHOLDER
  2
AcDbPlaceHolder
  3
ObjectDBX Classes
 90
        0
 91
        1
280
     0
281
     0
  0
CLASS
  1
LAYOUT
  2
AcDbLayout
  3
ObjectDBX Classes
 90
        0
 91
        2
280
     0
281
     0
  0
CLASS
  1
DICTIONARYVAR
  2
AcDbDictionaryVar
  3
ObjectDBX Classes
 90
        0
 91
        7
280
     0
281
     0
  0
CLASS
  1
TABLESTYLE
  2
AcDbTableStyle
  3
ObjectDBX Classes
 90
     4095
 91
        1
280
     0
281
     0
  0
CLASS
  1
MATERIAL
  2
AcDbMaterial
  3
ObjectDBX Classes
 90
     1153
 91
        3
280
     0
281
     0
  0
CLASS
  1
VISUALSTYLE
  2
AcDbVisualStyle
  3
ObjectDBX Classes
 90
     4095
 91
       16
280
     0
281
     0
  0
CLASS
  1
SCALE
  2
AcDbScale
  3
ObjectDBX Classes
 90
     1153
 91
       17
280
     0
281
     0
  0
CLASS
  1
MLEADERSTYLE
  2
AcDbMLeaderStyle
  3
ACDB_MLEADERSTYLE_CLASS
 90
     4095
 91
        1
280
     0
281
     0
  0
CLASS
  1
CELLSTYLEMAP
  2
AcDbCellStyleMap
  3
ObjectDBX Classes
 90
     1152
 91
        2
280
     0
281
     0
  0
CLASS
  1
EXACXREFPANELOBJECT
  2
ExAcXREFPanelObject
  3
EXAC_ESW
 90
    33793
 91
        0
280
     0
281
     0
  0
CLASS
  1
NPOCOLLECTION
  2
AcDbImpNonPersistentObjectsCollection
  3
ObjectDBX Classes
 90
     1153
 91
        0
280
     0
281
     0
  0
CLASS
  1
LAYER_INDEX
  2
AcDbLayerIndex
  3
ObjectDBX Classes
 90
        0
 91
        0
280
     0
281
     0
  0
CLASS
  1
SPATIAL_INDEX
  2
AcDbSpatialIndex
  3
ObjectDBX Classes
 90
        0
 91
        0
280
     0
281
     0
  0
CLASS
  1
IDBUFFER
  2
AcDbIdBuffer
  3
ObjectDBX Classes
 90
        0
 91
        0
280
     0
281
     0
  0
CLASS
  1
RASTERVARIABLES
  2
AcDbRasterVariables
  3
ISM
 90
        0
 91
        2
280
     0
281
     0
  0
CLASS
  1
IMAGEDEF
  2
AcDbRasterImageDef
  3
ISM
 90
        0
 91
        5
280
     0
281
     0
  0
CLASS
  1
IMAGEDEF_REACTOR
  2
AcDbRasterImageDefReactor
  3
ISM
 90
        1
 91
        5
280
     0
281
     0
  0
CLASS
  1
IMAGE
  2
AcDbRasterImage
  3
ISM
 90
     2175
 91
        5
280
     0
281
     1
  0
CLASS
  1
LWPOLYLINE
  2
AcDbPolyline
  3
ObjectDBX Classes
 90
        0
 91
        0
280
     0
281
     1
  0
CLASS
  1
OLE2FRAME
  2
AcDbOle2Frame
  3
ObjectDBX Classes
 90
        0
 91
        0
280
     0
281
     1
  0
CLASS
  1
HATCH
  2
AcDbHatch
  3
ObjectDBX Classes
 90
        0
 91
        0
280
     0
281
     1
  0
CLASS
  1
XRECORD
  2
AcDbXrecord
  3
ObjectDBX Classes
 90
        0
 91
        9
280
     0
281
     0
  0
CLASS
  1
SORTENTSTABLE
  2
AcDbSortentsTable
  3
ObjectDBX Classes
 90
        0
 91
        0
280
     0
281
     0
  0
CLASS
  1
OBJECT_PTR
  2
CAseDLPNTableRecord
  3
"ASE-LPNTableRecord"
 90
    32769
 91
        0
280
     0
281
     0
  0
CLASS
  1
PLOTSETTINGS
  2
AcDbPlotSettings
  3
ObjectDBX Classes
 90
        0
 91
        0
280
     0
281
     0
  0
CLASS
  1
VBA_PROJECT
  2
AcDbVbaProject
  3
acad
 90
        0
 91
        0
280
     0
281
     0
  0
CLASS
  1
WIPEOUT
  2
AcDbWipeout
  3
WipeOut|AutoCAD Express Tool|expresstools@autodesk.com
 90
    32895
 91
        0
280
     0
281
     1
  0
CLASS
  1
WIPEOUTVARIABLES
  2
AcDbWipeoutVariables
  3
WipeOut|AutoCAD Express Tool|expresstools@autodesk.com
 90
    32768
 91
        0
280
     0
281
     0
  0
CLASS
  1
RTEXT
  2
RText
  3
RText|AutoCAD Express Tool|expresstools@autodesk.com
 90
    32768
 91
        0
280
     0
281
     1
  0
CLASS
  1
ARCALIGNEDTEXT
  2
AcDbArcAlignedText
  3
ATEXT|AutoCAD Express Tool|expresstools@autodesk.com
 90
    32768
 91
        0
280
     0
281
     1
  0
ENDSEC
  0
SECTION
  2
TABLES
  0
TABLE
  2
VPORT
  5
66A
100
AcDbSymbolTable
 70
     1
  0
VPORT
  5
66B
100
AcDbSymbolTableRecord
100
AcDbViewportTableRecord
  2
*ACTIVE
 70
     0
 10
0.000000
 20
0.000000
 11
1.000000
 21
1.000000
 12
50.000000
 22
50.000000
 13
0.000000
 23
0.000000
 14
1.000000
 24
1.000000
 15
10.000000
 25
10.000000
 16
0.000000
 26
0.000000
 36
1.000000
 17
0.000000
 27
0.000000
 37
0.000000
 40
100.000000
 41
1.387409
 42
50.000000
 43
0.000000
 44
0.000000
 50
0.000000
 51
0.000000
 71
     0
 72
   100
 73
     1
 74
     1
 75
     0
 76
     0
 77
     0
 78
     0
  0
ENDTAB
  0
TABLE
  2
LTYPE
  5
66C
330
0
100
AcDbSymbolTable
 70
     9
  0
LTYPE
  5
66D
330
66C
100
AcDbSymbolTableRecord
100
AcDbLinetypeTableRecord
  2
ByBlock
 70
     0
  3

 72
    65
 73
     0
 40
0.000000
  0
LTYPE
  5
66E
330
66C
100
AcDbSymbolTableRecord
100
AcDbLinetypeTableRecord
  2
ByLayer
 70
     0
  3

 72
    65
 73
     0
 40
0.000000
  0
LTYPE
  5
66F
330
66C
100
AcDbSymbolTableRecord
100
AcDbLinetypeTableRecord
  2
CONTINUOUS
 70
     0
  3
Solid line
 72
    65
 73
     0
 40
0.000000
  0
LTYPE
  5
670
330
66C
100
AcDbSymbolTableRecord
100
AcDbLinetypeTableRecord
  2
HIDDEN
 70
     0
  3
_ _ _ _ _ _ _ _ _ _ _ _ _ _ _ _ _ _ _ _ _ _ _
 72
    65
 73
     2
 40
0.375000
 49
0.250000
 74
     0
 49
-0.125000
 74
     0
  0
LTYPE
  5
671
330
66C
100
AcDbSymbolTableRecord
100
AcDbLinetypeTableRecord
  2
DOT
 70
     0
  3
...............................................
 72
    65
 73
     2
 40
0.250000
 49
0.000000
 74
     0
 49
-0.250000
 74
     0
  0
LTYPE
  5
672
330
66C
100
AcDbSymbolTableRecord
100
AcDbLinetypeTableRecord
  2
DASHED
 70
     0
  3
__ __ __ __ __ __ __ __ __ __ __ __ __ __ __ 
 72
    65
 73
     2
 40
0.750000
 49
0.500000
 74
     0
 49
-0.250000
 74
     0
  0
LTYPE
  5
673
330
66C
100
AcDbSymbolTableRecord
100
AcDbLinetypeTableRecord
  2
DIVIDE
 70
     0
  3
__ . . __ . . __ . . __ . . __ . . __ . . __
 72
    65
 73
     6
 40
1.250000
 49
0.500000
 74
     0
 49
-0.250000
 74
     0
 49
0.000000
 74
     0
 49
-0.250000
 74
     0
 49
0.000000
 74
     0
 49
-0.250000
 74
     0
  0
LTYPE
  5
674
330
66C
100
AcDbSymbolTableRecord
100
AcDbLinetypeTableRecord
  2
DASHDOT
 70
     0
  3
__ . __ . __ . __ . __ . __ . __ . __ . __ . __
 72
    65
 73
     4
 40
1.000000
 49
0.500000
 74
     0
 49
-0.250000
 74
     0
 49
0.000000
 74
     0
 49
-0.250000
 74
     0
  0
LTYPE
  5
675
330
66C
100
AcDbSymbolTableRecord
100
AcDbLinetypeTableRecord
  2
BORDER
 70
     0
  3
__ __ . __ __ . __ __ . __ __ . __ __ . __ __
 72
    65
 73
     6
 40
1.750000
 49
0.500000
 74
     0
 49
-0.250000
 74
     0
 49
0.500000
 74
     0
 49
-0.250000
 74
     0
 49
0.000000
 74
     0
 49
-0.250000
 74
     0
  0
LTYPE
  5
676
330
66C
100
AcDbSymbolTableRecord
100
AcDbLinetypeTableRecord
  2
CENTER
 70
     0
  3
____ _ ____ _ ____ _ ____ _ ____ _ ____ _ ____
 72
    65
 73
     4
 40
2.000000
 49
1.250000
 74
     0
 49
-0.250000
 74
     0
 49
0.250000
 74
     0
 49
-0.250000
 74
     0
  0
LTYPE
  5
677
330
66C
100
AcDbSymbolTableRecord
100
AcDbLinetypeTableRecord
  2
PHANTOM
 70
     0
  3
_____ _ _ _____ _ _ _____ _ _ _____ _ _ ____
 72
    65
 73
     6
 40
2.500000
 49
1.250000
 74
     0
 49
-0.250000
 74
     0
 49
0.250000
 74
     0
 49
-0.250000
 74
     0
 49
0.250000
 74
     0
 49
-0.250000
 74
     0
  0
ENDTAB
  0
TABLE
  2
LAYER
  5
678
100
AcDbSymbolTable
 70
     3
  0
LAYER
  5
679
100
AcDbSymbolTableRecord
100
AcDbLayerTableRecord
  2
0
 70
     0
 62
     7
  6
CONTINUOUS
370
    -3
390
     0
  0
LAYER
  5
67A
100
AcDbSymbolTableRecord
100
AcDbLayerTableRecord
  2
SCHRAFF
 70
     0
 62
     7
  6
CONTINUOUS
370
    -3
390
     0
  0
LAYER
  5
67B
100
AcDbSymbolTableRecord
100
AcDbLayerTableRecord
  2
Detail
 70
     0
 62
     7
  6
CONTINUOUS
370
    -3
390
     0
  0
ENDTAB
  0
TABLE
  2
STYLE
  5
67C
100
AcDbSymbolTable
 70
     2
  0
STYLE
  5
201
100
AcDbSymbolTableRecord
100
AcDbTextStyleTableRecord
  2
STANDARD
 70
     0
 40
0.000000
 41
1.000000
 50
0.000000
 71
     0
 42
3.500000
  3
txt
  4

  0
STYLE
  5
2B1
100
AcDbSymbolTableRecord
100
AcDbTextStyleTableRecord
  2
Arial
 70
     0
 40
0.000000
 41
1.000000
 50
0.000000
 71
     0
 42
3.500000
  3
Arial.ttf
  4

1001
ACAD
1000
Arial
1071
     0
  0
ENDTAB
  0
TABLE
  2
DIMSTYLE
  5
67D
100
AcDbSymbolTable
 70
     0
100
AcDbDimStyleTable
  0
ENDTAB
  0
TABLE
  2
VIEW
  5
67E
100
AcDbSymbolTable
 70
     0
  0
ENDTAB
  0
TABLE
  2
UCS
  5
67F
100
AcDbSymbolTable
 70
     0
  0
ENDTAB
  0
TABLE
  2
APPID
  5
680
100
AcDbSymbolTable
 70
     1
  0
APPID
  5
681
100
AcDbSymbolTableRecord
100
AcDbRegAppTableRecord
  2
ACAD
 70
     0
  0
ENDTAB
  0
TABLE
  2
BLOCK_RECORD
  5
682
100
AcDbSymbolTable
 70
    85
  0
BLOCK_RECORD
  5
202
102
{ACAD_XDICTIONARY
360
203
102
}
100
AcDbSymbolTableRecord
100
AcDbBlockTableRecord
  2
*Model_Space
  0
BLOCK_RECORD
  5
683
100
AcDbSymbolTableRecord
100
AcDbBlockTableRecord
  2
*Paper_Space
  0
BLOCK_RECORD
  5
684
100
AcDbSymbolTableRecord
100
AcDbBlockTableRecord
  2
*Paper_Space0
  0
BLOCK_RECORD
  5
685
100
AcDbSymbolTableRecord
100
AcDbBlockTableRecord
  2
B
  0
BLOCK_RECORD
  5
686
100
AcDbSymbolTableRecord
100
AcDbBlockTableRecord
  2
B-2
  0
BLOCK_RECORD
  5
687
100
AcDbSymbolTableRecord
100
AcDbBlockTableRecord
  2
B-3
  0
BLOCK_RECORD
  5
688
100
AcDbSymbolTableRecord
100
AcDbBlockTableRecord
  2
B-4
  0
BLOCK_RECORD
  5
689
100
AcDbSymbolTableRecord
100
AcDbBlockTableRecord
  2
B-5
  0
BLOCK_RECORD
  5
68A
100
AcDbSymbolTableRecord
100
AcDbBlockTableRecord
  2
B-6
  0
BLOCK_RECORD
  5
68B
100
AcDbSymbolTableRecord
100
AcDbBlockTableRecord
  2
B-7
  0
BLOCK_RECORD
  5
68C
100
AcDbSymbolTableRecord
100
AcDbBlockTableRecord
  2
B-8
  0
BLOCK_RECORD
  5
68D
100
AcDbSymbolTableRecord
100
AcDbBlockTableRecord
  2
B-9
  0
BLOCK_RECORD
  5
68E
100
AcDbSymbolTableRecord
100
AcDbBlockTableRecord
  2
B-10
  0
BLOCK_RECORD
  5
68F
100
AcDbSymbolTableRecord
100
AcDbBlockTableRecord
  2
B-11
  0
BLOCK_RECORD
  5
690
100
AcDbSymbolTableRecord
100
AcDbBlockTableRecord
  2
B-12
  0
BLOCK_RECORD
  5
691
100
AcDbSymbolTableRecord
100
AcDbBlockTableRecord
  2
B-13
  0
BLOCK_RECORD
  5
692
100
AcDbSymbolTableRecord
100
AcDbBlockTableRecord
  2
B-14
  0
BLOCK_RECORD
  5
693
100
AcDbSymbolTableRecord
100
AcDbBlockTableRecord
  2
B-15
  0
BLOCK_RECORD
  5
694
100
AcDbSymbolTableRecord
100
AcDbBlockTableRecord
  2
B-16
  0
BLOCK_RECORD
  5
695
100
AcDbSymbolTableRecord
100
AcDbBlockTableRecord
  2
B-17
  0
BLOCK_RECORD
  5
696
100
AcDbSymbolTableRecord
100
AcDbBlockTableRecord
  2
B-18
  0
BLOCK_RECORD
  5
697
100
AcDbSymbolTableRecord
100
AcDbBlockTableRecord
  2
B-19
  0
BLOCK_RECORD
  5
698
100
AcDbSymbolTableRecord
100
AcDbBlockTableRecord
  2
B-20
  0
BLOCK_RECORD
  5
699
100
AcDbSymbolTableRecord
100
AcDbBlockTableRecord
  2
B-21
  0
BLOCK_RECORD
  5
69A
100
AcDbSymbolTableRecord
100
AcDbBlockTableRecord
  2
B-22
  0
BLOCK_RECORD
  5
69B
100
AcDbSymbolTableRecord
100
AcDbBlockTableRecord
  2
B-23
  0
BLOCK_RECORD
  5
69C
100
AcDbSymbolTableRecord
100
AcDbBlockTableRecord
  2
B-24
  0
BLOCK_RECORD
  5
69D
100
AcDbSymbolTableRecord
100
AcDbBlockTableRecord
  2
B-25
  0
BLOCK_RECORD
  5
69E
100
AcDbSymbolTableRecord
100
AcDbBlockTableRecord
  2
B-26
  0
BLOCK_RECORD
  5
69F
100
AcDbSymbolTableRecord
100
AcDbBlockTableRecord
  2
B-27
  0
BLOCK_RECORD
  5
6A0
100
AcDbSymbolTableRecord
100
AcDbBlockTableRecord
  2
B-28
  0
BLOCK_RECORD
  5
6A1
100
AcDbSymbolTableRecord
100
AcDbBlockTableRecord
  2
B-29
  0
BLOCK_RECORD
  5
6A2
100
AcDbSymbolTableRecord
100
AcDbBlockTableRecord
  2
B-30
  0
BLOCK_RECORD
  5
6A3
100
AcDbSymbolTableRecord
100
AcDbBlockTableRecord
  2
B-31
  0
BLOCK_RECORD
  5
6A4
100
AcDbSymbolTableRecord
100
AcDbBlockTableRecord
  2
B-32
  0
BLOCK_RECORD
  5
6A5
100
AcDbSymbolTableRecord
100
AcDbBlockTableRecord
  2
B-33
  0
BLOCK_RECORD
  5
6A6
100
AcDbSymbolTableRecord
100
AcDbBlockTableRecord
  2
B-34
  0
BLOCK_RECORD
  5
6A7
100
AcDbSymbolTableRecord
100
AcDbBlockTableRecord
  2
B-35
  0
BLOCK_RECORD
  5
6A8
100
AcDbSymbolTableRecord
100
AcDbBlockTableRecord
  2
B-36
  0
BLOCK_RECORD
  5
6A9
100
AcDbSymbolTableRecord
100
AcDbBlockTableRecord
  2
B-37
  0
BLOCK_RECORD
  5
6AA
100
AcDbSymbolTableRecord
100
AcDbBlockTableRecord
  2
B-38
  0
BLOCK_RECORD
  5
6AB
100
AcDbSymbolTableRecord
100
AcDbBlockTableRecord
  2
B-39
  0
BLOCK_RECORD
  5
6AC
100
AcDbSymbolTableRecord
100
AcDbBlockTableRecord
  2
B-40
  0
BLOCK_RECORD
  5
6AD
100
AcDbSymbolTableRecord
100
AcDbBlockTableRecord
  2
B-41
  0
BLOCK_RECORD
  5
6AE
100
AcDbSymbolTableRecord
100
AcDbBlockTableRecord
  2
B-42
  0
BLOCK_RECORD
  5
6AF
100
AcDbSymbolTableRecord
100
AcDbBlockTableRecord
  2
B-43
  0
BLOCK_RECORD
  5
6B0
100
AcDbSymbolTableRecord
100
AcDbBlockTableRecord
  2
B-44
  0
BLOCK_RECORD
  5
6B1
100
AcDbSymbolTableRecord
100
AcDbBlockTableRecord
  2
B-45
  0
BLOCK_RECORD
  5
6B2
100
AcDbSymbolTableRecord
100
AcDbBlockTableRecord
  2
B-46
  0
BLOCK_RECORD
  5
6B3
100
AcDbSymbolTableRecord
100
AcDbBlockTableRecord
  2
B-47
  0
BLOCK_RECORD
  5
6B4
100
AcDbSymbolTableRecord
100
AcDbBlockTableRecord
  2
B-48
  0
BLOCK_RECORD
  5
6B5
100
AcDbSymbolTableRecord
100
AcDbBlockTableRecord
  2
B-49
  0
BLOCK_RECORD
  5
6B6
100
AcDbSymbolTableRecord
100
AcDbBlockTableRecord
  2
B-50
  0
BLOCK_RECORD
  5
6B7
100
AcDbSymbolTableRecord
100
AcDbBlockTableRecord
  2
B-51
  0
BLOCK_RECORD
  5
6B8
100
AcDbSymbolTableRecord
100
AcDbBlockTableRecord
  2
B-52
  0
BLOCK_RECORD
  5
6B9
100
AcDbSymbolTableRecord
100
AcDbBlockTableRecord
  2
glasleiste
  0
BLOCK_RECORD
  5
6BA
100
AcDbSymbolTableRecord
100
AcDbBlockTableRecord
  2
glas
  0
BLOCK_RECORD
  5
6BB
100
AcDbSymbolTableRecord
100
AcDbBlockTableRecord
  2
rahmen
  0
BLOCK_RECORD
  5
6BC
100
AcDbSymbolTableRecord
100
AcDbBlockTableRecord
  2
fluegel
  0
BLOCK_RECORD
  5
6BD
100
AcDbSymbolTableRecord
100
AcDbBlockTableRecord
  2
B-53
  0
BLOCK_RECORD
  5
6BE
100
AcDbSymbolTableRecord
100
AcDbBlockTableRecord
  2
B-54
  0
BLOCK_RECORD
  5
6BF
100
AcDbSymbolTableRecord
100
AcDbBlockTableRecord
  2
B-55
  0
BLOCK_RECORD
  5
6C0
100
AcDbSymbolTableRecord
100
AcDbBlockTableRecord
  2
B-56
  0
BLOCK_RECORD
  5
6C1
100
AcDbSymbolTableRecord
100
AcDbBlockTableRecord
  2
B-57
  0
BLOCK_RECORD
  5
6C2
100
AcDbSymbolTableRecord
100
AcDbBlockTableRecord
  2
B-58
  0
BLOCK_RECORD
  5
6C3
100
AcDbSymbolTableRecord
100
AcDbBlockTableRecord
  2
B-59
  0
BLOCK_RECORD
  5
6C4
100
AcDbSymbolTableRecord
100
AcDbBlockTableRecord
  2
B-60
  0
BLOCK_RECORD
  5
6C5
100
AcDbSymbolTableRecord
100
AcDbBlockTableRecord
  2
B-61
  0
BLOCK_RECORD
  5
6C6
100
AcDbSymbolTableRecord
100
AcDbBlockTableRecord
  2
B-62
  0
BLOCK_RECORD
  5
6C7
100
AcDbSymbolTableRecord
100
AcDbBlockTableRecord
  2
B-63
  0
BLOCK_RECORD
  5
6C8
100
AcDbSymbolTableRecord
100
AcDbBlockTableRecord
  2
B-64
  0
BLOCK_RECORD
  5
6C9
100
AcDbSymbolTableRecord
100
AcDbBlockTableRecord
  2
B-66
  0
BLOCK_RECORD
  5
6CA
100
AcDbSymbolTableRecord
100
AcDbBlockTableRecord
  2
B-67
  0
BLOCK_RECORD
  5
6CB
100
AcDbSymbolTableRecord
100
AcDbBlockTableRecord
  2
B-68
  0
BLOCK_RECORD
  5
6CC
100
AcDbSymbolTableRecord
100
AcDbBlockTableRecord
  2
B-69
  0
BLOCK_RECORD
  5
6CD
100
AcDbSymbolTableRecord
100
AcDbBlockTableRecord
  2
B-70
  0
BLOCK_RECORD
  5
6CE
100
AcDbSymbolTableRecord
100
AcDbBlockTableRecord
  2
B-71
  0
BLOCK_RECORD
  5
6CF
100
AcDbSymbolTableRecord
100
AcDbBlockTableRecord
  2
B-72
  0
BLOCK_RECORD
  5
6D0
100
AcDbSymbolTableRecord
100
AcDbBlockTableRecord
  2
B-73
  0
BLOCK_RECORD
  5
6D1
100
AcDbSymbolTableRecord
100
AcDbBlockTableRecord
  2
B-74
  0
BLOCK_RECORD
  5
6D2
100
AcDbSymbolTableRecord
100
AcDbBlockTableRecord
  2
B-75
  0
BLOCK_RECORD
  5
6D3
100
AcDbSymbolTableRecord
100
AcDbBlockTableRecord
  2
B-76
  0
BLOCK_RECORD
  5
6D4
100
AcDbSymbolTableRecord
100
AcDbBlockTableRecord
  2
B-77
  0
BLOCK_RECORD
  5
6D5
100
AcDbSymbolTableRecord
100
AcDbBlockTableRecord
  2
B-78
  0
BLOCK_RECORD
  5
6D6
100
AcDbSymbolTableRecord
100
AcDbBlockTableRecord
  2
B-79
  0
ENDTAB
  0
ENDSEC
  0
SECTION
  2
BLOCKS
  0
BLOCK
  5
204
100
AcDbEntity
  8
0
100
AcDbBlockBegin
  2
*Model_Space
 70
     0
 10
0.000000
 20
0.000000
 30
0.000000
  3
*Model_Space
  1

  0
ENDBLK
  5
205
100
AcDbEntity
  8
0
100
AcDbBlockEnd
  0
BLOCK
  5
206
100
AcDbEntity
 67
     1
  8
0
100
AcDbBlockBegin
  2
*Paper_Space
 70
     0
 10
0.000000
 20
0.000000
 30
0.000000
  3
*Paper_Space
  1

  0
ENDBLK
  5
207
100
AcDbEntity
 67
     1
  8
0
100
AcDbBlockEnd
  0
BLOCK
  5
208
100
AcDbEntity
 67
     1
  8
0
100
AcDbBlockBegin
  2
*Paper_Space0
 70
     0
 10
0.000000
 20
0.000000
 30
0.000000
  3
*Paper_Space0
  1

  0
ENDBLK
  5
209
100
AcDbEntity
 67
     1
  8
0
100
AcDbBlockEnd
  0
BLOCK
  5
20A
100
AcDbEntity
  8
SCHRAFF
100
AcDbBlockBegin
  2
B
 70
    66
 10
0.000000
 20
0.000000
 30
0.000000
  0
HATCH
  5
20B
100
AcDbEntity
  8
SCHRAFF
 62
     8
440
     0
100
AcDbHatch
 10
0.000000
 20
0.000000
 30
0.000000
210
0.000000
220
0.000000
230
1.000000
  2
SOLID
 70
     1
 71
     1
 91
     1
 92
    18
 72
     1
 73
     0
 93
     7
 10
-122.500018
 20
-67.249941
 42
-1.000000
 10
-132.500018
 20
-67.249941
 42
0.000000
 10
-132.500018
 20
-80.249941
 42
-0.400000
 10
-122.500018
 20
-80.249941
 42
0.000000
 10
-122.500018
 20
-72.249941
 42
0.000000
 10
-122.500018
 20
-68.249941
 42
0.000000
 10
-122.500018
 20
-67.249941
 42
0.000000
 97
     0
 75
     0
 76
     1
 98
     0
  0
ENDBLK
  5
20C
100
AcDbEntity
  8
0
100
AcDbBlockEnd
  0
BLOCK
  5
20D
100
AcDbEntity
  8
SCHRAFF
100
AcDbBlockBegin
  2
B-2
 70
    66
 10
0.000000
 20
0.000000
 30
0.000000
  0
HATCH
  5
20E
100
AcDbEntity
  8
SCHRAFF
 62
     8
440
     0
100
AcDbHatch
 10
0.000000
 20
0.000000
 30
0.000000
210
0.000000
220
0.000000
230
1.000000
  2
SOLID
 70
     1
 71
     1
 91
     1
 92
    18
 72
     1
 73
     0
 93
     5
 10
22.499982
 20
134.750059
 42
0.000000
 10
14.499982
 20
134.750059
 42
0.000000
 10
14.499982
 20
124.750059
 42
0.000000
 10
22.499982
 20
124.750059
 42
-0.400000
 10
22.499982
 20
134.750059
 42
0.000000
 97
     0
 75
     0
 76
     1
 98
     0
  0
ENDBLK
  5
20F
100
AcDbEntity
  8
0
100
AcDbBlockEnd
  0
BLOCK
  5
210
100
AcDbEntity
  8
SCHRAFF
100
AcDbBlockBegin
  2
B-3
 70
    66
 10
0.000000
 20
0.000000
 30
0.000000
  0
HATCH
  5
211
100
AcDbEntity
  8
SCHRAFF
 62
     8
440
     0
100
AcDbHatch
 10
0.000000
 20
0.000000
 30
0.000000
210
0.000000
220
0.000000
230
1.000000
  2
SOLID
 70
     1
 71
     1
 91
     1
 92
    18
 72
     1
 73
     0
 93
     5
 10
4.499982
 20
-80.249941
 42
-0.400000
 10
14.499982
 20
-80.249941
 42
0.000000
 10
14.499982
 20
-72.249941
 42
0.000000
 10
4.499982
 20
-72.249941
 42
0.000000
 10
4.499982
 20
-80.249941
 42
0.000000
 97
     0
 75
     0
 76
     1
 98
     0
  0
ENDBLK
  5
212
100
AcDbEntity
  8
0
100
AcDbBlockEnd
  0
BLOCK
  5
213
100
AcDbEntity
  8
SCHRAFF
100
AcDbBlockBegin
  2
B-4
 70
    66
 10
0.000000
 20
0.000000
 30
0.000000
  0
IMAGE
  5
214
100
AcDbEntity
  8
SCHRAFF
100
AcDbRasterImage
 10
140.969928
 20
-349.249941
 30
0.000000
 11
0.204938
 21
-0.000000
 31
0.000000
 12
-0.000000
 22
0.204938
 32
-0.000000
 13
395.000000
 23
405.000000
340
215
 70
     7
280
     0
281
    50
282
    50
283
     0
360
216
 71
     1
 91
     2
 14
-0.500000
 24
-0.500000
 14
394.500000
 24
404.500000
  0
ENDBLK
  5
217
100
AcDbEntity
  8
0
100
AcDbBlockEnd
  0
BLOCK
  5
218
100
AcDbEntity
  8
SCHRAFF
100
AcDbBlockBegin
  2
B-5
 70
    66
 10
0.000000
 20
0.000000
 30
0.000000
  0
HATCH
  5
219
100
AcDbEntity
  8
SCHRAFF
 62
     9
440
     0
100
AcDbHatch
 10
0.000000
 20
0.000000
 30
0.000000
210
0.000000
220
0.000000
230
1.000000
  2
SOLID
 70
     1
 71
     1
 91
     1
 92
    18
 72
     1
 73
     0
 93
     3
 10
-132.500018
 20
-67.249941
 42
1.000000
 10
-122.500018
 20
-67.249941
 42
1.000000
 10
-132.500018
 20
-67.249941
 42
0.000000
 97
     0
 75
     0
 76
     1
 98
     0
  0
ENDBLK
  5
21A
100
AcDbEntity
  8
0
100
AcDbBlockEnd
  0
BLOCK
  5
21B
100
AcDbEntity
  8
SCHRAFF
100
AcDbBlockBegin
  2
B-6
 70
    66
 10
0.000000
 20
0.000000
 30
0.000000
  0
HATCH
  5
21C
100
AcDbEntity
  8
SCHRAFF
 62
   161
440
     0
100
AcDbHatch
 10
0.000000
 20
0.000000
 30
0.000000
210
0.000000
220
0.000000
230
1.000000
  2
SOLID
 70
     1
 71
     1
 91
     1
 92
    18
 72
     1
 73
     0
 93
     5
 10
-122.500018
 20
-72.249941
 42
0.000000
 10
-122.500018
 20
-80.249941
 42
0.000000
 10
4.499982
 20
-80.249941
 42
0.000000
 10
4.499982
 20
-72.249941
 42
0.000000
 10
-122.500018
 20
-72.249941
 42
0.000000
 97
     0
 75
     0
 76
     1
 98
     0
  0
ENDBLK
  5
21D
100
AcDbEntity
  8
0
100
AcDbBlockEnd
  0
BLOCK
  5
21E
100
AcDbEntity
  8
SCHRAFF
100
AcDbBlockBegin
  2
B-7
 70
    66
 10
0.000000
 20
0.000000
 30
0.000000
  0
HATCH
  5
21F
100
AcDbEntity
  8
SCHRAFF
 62
   254
440
     0
100
AcDbHatch
 10
0.000000
 20
0.000000
 30
0.000000
210
0.000000
220
0.000000
230
1.000000
  2
SOLID
 70
     1
 71
     1
 91
     1
 92
    18
 72
     1
 73
     0
 93
     5
 10
-77.500018
 20
-60.249941
 42
0.000000
 10
-77.500018
 20
-30.249941
 42
0.000000
 10
-79.500018
 20
-30.249941
 42
0.000000
 10
-79.500018
 20
-60.249941
 42
0.000000
 10
-77.500018
 20
-60.249941
 42
0.000000
 97
     0
 75
     0
 76
     1
 98
     0
  0
LWPOLYLINE
  5
220
100
AcDbEntity
  8
Detail
  6
CONTINUOUS
 62
     6
100
AcDbPolyline
 90
     5
 10
-79.500018
 20
-30.249941
 42
0.000000
 10
-77.500018
 20
-30.249941
 42
0.000000
 10
-77.500018
 20
-60.249941
 42
0.000000
 10
-79.500018
 20
-60.249941
 42
0.000000
 10
-79.500018
 20
-30.249941
 42
0.000000
  0
ENDBLK
  5
226
100
AcDbEntity
  8
0
100
AcDbBlockEnd
  0
BLOCK
  5
227
100
AcDbEntity
  8
SCHRAFF
100
AcDbBlockBegin
  2
B-8
 70
    66
 10
0.000000
 20
0.000000
 30
0.000000
  0
HATCH
  5
228
100
AcDbEntity
  8
SCHRAFF
 62
   253
440
     0
100
AcDbHatch
 10
0.000000
 20
0.000000
 30
0.000000
210
0.000000
220
0.000000
230
1.000000
  2
SOLID
 70
     1
 71
     1
 91
     1
 92
    18
 72
     1
 73
     0
 93
     7
 10
14.499982
 20
-72.249941
 42
0.000000
 10
14.499982
 20
296.250078
 42
0.000000
 10
10.499982
 20
296.250078
 42
0.000000
 10
10.499982
 20
-68.249941
 42
0.000000
 10
-122.500018
 20
-68.249941
 42
0.000000
 10
-122.500018
 20
-72.249941
 42
0.000000
 10
14.499982
 20
-72.249941
 42
0.000000
 97
     0
 75
     0
 76
     1
 98
     0
  0
HATCH
  5
229
100
AcDbEntity
  8
SCHRAFF
 62
     9
440
     0
100
AcDbHatch
 10
0.000000
 20
0.000000
 30
0.000000
210
0.000000
220
0.000000
230
1.000000
  2
SOLID
 70
     1
 71
     1
 91
     1
 92
    18
 72
     1
 73
     0
 93
     7
 10
8.499982
 20
296.250078
 42
0.000000
 10
8.499982
 20
-66.249941
 42
0.000000
 10
-122.500018
 20
-66.249941
 42
0.000000
 10
-122.500018
 20
-68.249941
 42
0.000000
 10
10.499982
 20
-68.249941
 42
0.000000
 10
10.499982
 20
296.250078
 42
0.000000
 10
8.499982
 20
296.250078
 42
0.000000
 97
     0
 75
     0
 76
     1
 98
     0
  0
ENDBLK
  5
22A
100
AcDbEntity
  8
0
100
AcDbBlockEnd
  0
BLOCK
  5
22B
100
AcDbEntity
  8
SCHRAFF
100
AcDbBlockBegin
  2
B-9
 70
    66
 10
0.000000
 20
0.000000
 30
0.000000
  0
HATCH
  5
22C
100
AcDbEntity
  8
SCHRAFF
 62
     9
440
     0
100
AcDbHatch
 10
0.000000
 20
0.000000
 30
0.000000
210
0.000000
220
0.000000
230
1.000000
  2
SOLID
 70
     1
 71
     1
 91
     1
 92
    18
 72
     1
 73
     0
 93
     7
 10
-122.500018
 20
-66.249941
 42
0.000000
 10
8.499982
 20
-66.249941
 42
0.000000
 10
8.499982
 20
296.250078
 42
0.000000
 10
2.499982
 20
296.250078
 42
0.000000
 10
2.499982
 20
-60.249941
 42
0.000000
 10
-122.500018
 20
-60.249941
 42
0.000000
 10
-122.500018
 20
-66.249941
 42
0.000000
 97
     0
 75
     0
 76
     1
 98
     0
  0
HATCH
  5
22D
100
AcDbEntity
  8
SCHRAFF
 62
   254
440
     0
100
AcDbHatch
 10
0.000000
 20
0.000000
 30
0.000000
210
0.000000
220
0.000000
230
1.000000
  2
SOLID
 70
     1
 71
     1
 91
     1
 92
    18
 72
     1
 73
     0
 93
     7
 10
-127.500018
 20
-30.249941
 42
0.000000
 10
-77.500018
 20
-30.249941
 42
0.000000
 10
-77.500018
 20
296.250078
 42
0.000000
 10
-82.500018
 20
296.250078
 42
0.000000
 10
-82.500018
 20
-25.249941
 42
0.000000
 10
-127.500018
 20
-25.249941
 42
0.000000
 10
-127.500018
 20
-30.249941
 42
0.000000
 97
     0
 75
     0
 76
     1
 98
     0
  0
ENDBLK
  5
22E
100
AcDbEntity
  8
0
100
AcDbBlockEnd
  0
BLOCK
  5
22F
100
AcDbEntity
  8
SCHRAFF
100
AcDbBlockBegin
  2
B-10
 70
    66
 10
0.000000
 20
0.000000
 30
0.000000
  0
HATCH
  5
230
100
AcDbEntity
  8
SCHRAFF
 62
   161
440
     0
100
AcDbHatch
 10
0.000000
 20
0.000000
 30
0.000000
210
0.000000
220
0.000000
230
1.000000
  2
SOLID
 70
     1
 71
     1
 91
     1
 92
    18
 72
     1
 73
     0
 93
     5
 10
14.499982
 20
-80.249941
 42
0.000000
 10
22.499982
 20
-80.249941
 42
0.000000
 10
22.499982
 20
124.750059
 42
0.000000
 10
14.499982
 20
124.750059
 42
0.000000
 10
14.499982
 20
-80.249941
 42
0.000000
 97
     0
 75
     0
 76
     1
 98
     0
  0
HATCH
  5
231
100
AcDbEntity
  8
SCHRAFF
 62
   161
440
     0
100
AcDbHatch
 10
0.000000
 20
0.000000
 30
0.000000
210
0.000000
220
0.000000
230
1.000000
  2
SOLID
 70
     1
 71
     1
 91
     1
 92
    18
 72
     1
 73
     0
 93
     5
 10
14.499982
 20
134.750059
 42
0.000000
 10
22.499982
 20
134.750059
 42
0.000000
 10
22.499982
 20
296.250078
 42
0.000000
 10
14.499982
 20
296.250078
 42
0.000000
 10
14.499982
 20
134.750059
 42
0.000000
 97
     0
 75
     0
 76
     1
 98
     0
  0
ENDBLK
  5
232
100
AcDbEntity
  8
0
100
AcDbBlockEnd
  0
BLOCK
  5
233
100
AcDbEntity
  8
SCHRAFF
100
AcDbBlockBegin
  2
B-11
 70
    66
 10
0.000000
 20
0.000000
 30
0.000000
  0
HATCH
  5
234
100
AcDbEntity
  8
SCHRAFF
 62
    51
440
     0
100
AcDbHatch
 10
0.000000
 20
0.000000
 30
0.000000
210
0.000000
220
0.000000
230
1.000000
  2
SOLID
 70
     1
 71
     1
 91
     1
 92
    18
 72
     1
 73
     0
 93
     5
 10
-77.500018
 20
-60.249941
 42
0.000000
 10
2.499982
 20
-60.249941
 42
0.000000
 10
2.499982
 20
296.250078
 42
0.000000
 10
-77.500018
 20
296.250078
 42
0.000000
 10
-77.500018
 20
-60.249941
 42
0.000000
 97
     0
 75
     0
 76
     1
 98
     0
  0
HATCH
  5
235
100
AcDbEntity
  8
SCHRAFF
 62
    51
440
     0
100
AcDbHatch
 10
0.000000
 20
0.000000
 30
0.000000
210
0.000000
220
0.000000
230
1.000000
  2
SOLID
 70
     1
 71
     1
 91
     1
 92
    18
 72
     1
 73
     0
 93
     5
 10
-127.500018
 20
-60.249941
 42
0.000000
 10
-79.500018
 20
-60.249941
 42
0.000000
 10
-79.500018
 20
-30.249941
 42
0.000000
 10
-127.500018
 20
-30.249941
 42
0.000000
 10
-127.500018
 20
-60.249941
 42
0.000000
 97
     0
 75
     0
 76
     1
 98
     0
  0
ENDBLK
  5
236
100
AcDbEntity
  8
0
100
AcDbBlockEnd
  0
BLOCK
  5
237
100
AcDbEntity
  8
Detail
100
AcDbBlockBegin
  2
B-12
 70
    66
 10
0.000000
 20
0.000000
 30
0.000000
  0
LWPOLYLINE
  5
238
100
AcDbEntity
  8
Detail
  6
CONTINUOUS
 62
     6
100
AcDbPolyline
 90
     6
 10
-82.500018
 20
296.250078
 42
0.000000
 10
-82.500018
 20
-25.249941
 42
0.000000
 10
-127.500018
 20
-25.249941
 42
0.000000
 10
-127.500018
 20
-30.249941
 42
0.000000
 10
-77.500018
 20
-30.249941
 42
0.000000
 10
-77.500018
 20
296.250078
 42
0.000000
  0
ENDBLK
  5
23F
100
AcDbEntity
  8
0
100
AcDbBlockEnd
  0
BLOCK
  5
240
100
AcDbEntity
  8
Detail
100
AcDbBlockBegin
  2
B-13
 70
    66
 10
0.000000
 20
0.000000
 30
0.000000
  0
LWPOLYLINE
  5
241
100
AcDbEntity
  8
Detail
  6
CONTINUOUS
 62
     6
100
AcDbPolyline
 90
     6
 10
8.499982
 20
296.250078
 42
0.000000
 10
8.499982
 20
-66.249941
 42
0.000000
 10
-122.500018
 20
-66.249941
 42
0.000000
 10
-122.500018
 20
-68.249941
 42
0.000000
 10
10.499982
 20
-68.249941
 42
0.000000
 10
10.499982
 20
296.250078
 42
0.000000
  0
ENDBLK
  5
248
100
AcDbEntity
  8
0
100
AcDbBlockEnd
  0
BLOCK
  5
249
100
AcDbEntity
  8
Detail
100
AcDbBlockBegin
  2
B-14
 70
    66
 10
0.000000
 20
0.000000
 30
0.000000
  0
LWPOLYLINE
  5
24A
100
AcDbEntity
  8
Detail
  6
CONTINUOUS
 62
     6
100
AcDbPolyline
 90
     6
 10
10.499982
 20
296.250078
 42
0.000000
 10
10.499982
 20
-68.249941
 42
0.000000
 10
-122.500018
 20
-68.249941
 42
0.000000
 10
-122.500018
 20
-72.249941
 42
0.000000
 10
14.499982
 20
-72.249941
 42
0.000000
 10
14.499982
 20
296.250078
 42
0.000000
  0
ENDBLK
  5
251
100
AcDbEntity
  8
0
100
AcDbBlockEnd
  0
BLOCK
  5
252
100
AcDbEntity
  8
Detail
100
AcDbBlockBegin
  2
B-15
 70
    66
 10
0.000000
 20
0.000000
 30
0.000000
  0
LWPOLYLINE
  5
253
100
AcDbEntity
  8
Detail
  6
CONTINUOUS
 62
     6
100
AcDbPolyline
 90
     6
 10
2.499982
 20
296.250078
 42
0.000000
 10
2.499982
 20
-60.249941
 42
0.000000
 10
-122.500018
 20
-60.249941
 42
0.000000
 10
-122.500018
 20
-66.249941
 42
0.000000
 10
8.499982
 20
-66.249941
 42
0.000000
 10
8.499982
 20
296.250078
 42
0.000000
  0
ENDBLK
  5
25A
100
AcDbEntity
  8
0
100
AcDbBlockEnd
  0
BLOCK
  5
25B
100
AcDbEntity
  8
SCHRAFF
100
AcDbBlockBegin
  2
B-16
 70
    66
 10
0.000000
 20
0.000000
 30
0.000000
  0
HATCH
  5
25C
100
AcDbEntity
  8
SCHRAFF
  6
CONTINUOUS
 62
     9
100
AcDbHatch
 10
0.000000
 20
0.000000
 30
0.000000
210
0.000000
220
0.000000
230
1.000000
  2
_U
 70
     0
 71
     1
 91
     1
 92
    18
 72
     1
 73
     0
 93
     5
 10
-77.500018
 20
-60.249941
 42
0.000000
 10
2.499982
 20
-60.249941
 42
0.000000
 10
2.499982
 20
296.250078
 42
0.000000
 10
-77.500018
 20
296.250078
 42
0.000000
 10
-77.500018
 20
-60.249941
 42
0.000000
 97
     0
 75
     0
 76
     0
 52
0.000000
 41
1.000000
 77
     0
 78
     1
 53
90.000000
 43
-0.000000
 44
0.000000
 45
-13.750000
 46
0.000000
 79
     0
 98
     0
  0
ENDBLK
  5
25D
100
AcDbEntity
  8
0
100
AcDbBlockEnd
  0
BLOCK
  5
25E
100
AcDbEntity
  8
SCHRAFF
100
AcDbBlockBegin
  2
B-17
 70
    66
 10
0.000000
 20
0.000000
 30
0.000000
  0
HATCH
  5
25F
100
AcDbEntity
  8
SCHRAFF
  6
CONTINUOUS
 62
     9
100
AcDbHatch
 10
0.000000
 20
0.000000
 30
0.000000
210
0.000000
220
0.000000
230
1.000000
  2
_U
 70
     0
 71
     1
 91
     1
 92
    18
 72
     1
 73
     0
 93
     5
 10
-212.500018
 20
-25.249941
 42
0.000000
 10
-82.500018
 20
-25.249941
 42
0.000000
 10
-82.500018
 20
296.250078
 42
0.000000
 10
-212.500018
 20
296.250078
 42
0.000000
 10
-212.500018
 20
-25.249941
 42
0.000000
 97
     0
 75
     0
 76
     0
 52
0.000000
 41
1.000000
 77
     0
 78
     1
 53
44.999997
 43
-0.000000
 44
0.000000
 45
-17.677669
 46
17.677671
 79
     0
 98
     0
  0
ENDBLK
  5
260
100
AcDbEntity
  8
0
100
AcDbBlockEnd
  0
BLOCK
  5
261
100
AcDbEntity
  8
Detail
100
AcDbBlockBegin
  2
B-18
 70
    66
 10
0.000000
 20
0.000000
 30
0.000000
  0
LWPOLYLINE
  5
262
100
AcDbEntity
  8
Detail
  6
CONTINUOUS
 62
     3
100
AcDbPolyline
 90
     5
 10
22.499982
 20
-80.249941
 42
0.000000
 10
14.499982
 20
-80.249941
 42
0.000000
 10
14.499982
 20
124.750059
 42
0.000000
 10
22.499982
 20
124.750059
 42
0.000000
 10
22.499982
 20
-80.249941
 42
0.000000
  0
LWPOLYLINE
  5
268
100
AcDbEntity
  8
Detail
  6
CONTINUOUS
 62
     3
100
AcDbPolyline
 90
     4
 10
-77.500018
 20
296.250078
 42
0.000000
 10
-77.500018
 20
-60.249941
 42
0.000000
 10
2.499982
 20
-60.249941
 42
0.000000
 10
2.499982
 20
296.250078
 42
0.000000
  0
ENDBLK
  5
26D
100
AcDbEntity
  8
0
100
AcDbBlockEnd
  0
BLOCK
  5
26E
100
AcDbEntity
  8
Detail
100
AcDbBlockBegin
  2
B-19
 70
    66
 10
0.000000
 20
0.000000
 30
0.000000
  0
LWPOLYLINE
  5
26F
100
AcDbEntity
  8
Detail
  6
CONTINUOUS
 62
     3
100
AcDbPolyline
 90
     5
 10
-79.500018
 20
-30.249941
 42
0.000000
 10
-127.500018
 20
-30.249941
 42
0.000000
 10
-127.500018
 20
-60.249941
 42
0.000000
 10
-79.500018
 20
-60.249941
 42
0.000000
 10
-79.500018
 20
-30.249941
 42
0.000000
  0
ENDBLK
  5
275
100
AcDbEntity
  8
0
100
AcDbBlockEnd
  0
BLOCK
  5
276
100
AcDbEntity
  8
SCHRAFF
100
AcDbBlockBegin
  2
B-20
 70
    66
 10
0.000000
 20
0.000000
 30
0.000000
  0
HATCH
  5
277
100
AcDbEntity
  8
SCHRAFF
 62
   250
440
     0
100
AcDbHatch
 10
0.000000
 20
0.000000
 30
0.000000
210
0.000000
220
0.000000
230
1.000000
  2
SOLID
 70
     1
 71
     1
 91
     1
 92
    18
 72
     1
 73
     0
 93
     8
 10
2.999982
 20
-60.749941
 42
0.000000
 10
-20.750018
 20
-60.749941
 42
0.000000
 10
-20.750018
 20
-61.999941
 42
0.000000
 10
4.249982
 20
-61.999941
 42
0.000000
 10
4.249982
 20
-36.999941
 42
0.000000
 10
2.999982
 20
-36.999941
 42
0.000000
 10
2.999982
 20
-60.726077
 42
0.000000
 10
2.999982
 20
-60.749941
 42
0.000000
 97
     0
 75
     0
 76
     1
 98
     0
  0
POLYLINE
  5
278
100
AcDbEntity
  8
Detail
 66
     1
  6
CONTINUOUS
 62
     4
100
AcDb2dPolyline
  0
VERTEX
  5
279
100
AcDbEntity
  8
Detail
100
AcDbVertex
100
AcDb2dVertex
 10
-20.750018
 20
-60.749941
 42
0.000000
  0
VERTEX
  5
27A
100
AcDbEntity
  8
Detail
100
AcDbVertex
100
AcDb2dVertex
 10
-20.750018
 20
-61.999941
 42
0.000000
  0
VERTEX
  5
27B
100
AcDbEntity
  8
Detail
100
AcDbVertex
100
AcDb2dVertex
 10
4.249982
 20
-61.999941
 42
0.000000
  0
VERTEX
  5
27C
100
AcDbEntity
  8
Detail
100
AcDbVertex
100
AcDb2dVertex
 10
4.249982
 20
-36.999941
 42
0.000000
  0
VERTEX
  5
27D
100
AcDbEntity
  8
Detail
100
AcDbVertex
100
AcDb2dVertex
 10
2.999982
 20
-36.999941
 42
0.000000
  0
VERTEX
  5
27E
100
AcDbEntity
  8
Detail
100
AcDbVertex
100
AcDb2dVertex
 10
2.999982
 20
-60.749941
 42
0.000000
  0
VERTEX
  5
27F
100
AcDbEntity
  8
Detail
 62
     9
100
AcDbVertex
100
AcDb2dVertex
 10
2.999982
 20
-60.726077
 42
0.000000
  0
VERTEX
  5
280
100
AcDbEntity
  8
Detail
 62
     9
100
AcDbVertex
100
AcDb2dVertex
 10
2.999982
 20
-60.749941
 42
0.000000
  0
VERTEX
  5
281
100
AcDbEntity
  8
Detail
100
AcDbVertex
100
AcDb2dVertex
 10
-20.750018
 20
-60.749941
 42
0.000000
  0
SEQEND
  5
282
100
AcDbEntity
  8
Detail
  0
LWPOLYLINE
  5
283
100
AcDbEntity
  8
Detail
  6
HIDDEN
 62
     9
100
AcDbPolyline
 90
     3
 10
-122.500018
 20
-65.249941
 42
0.000000
 10
7.499982
 20
-65.249941
 42
0.000000
 10
7.499982
 20
295.000137
 42
0.000000
  0
LWPOLYLINE
  5
287
100
AcDbEntity
  8
Detail
  6
CONTINUOUS
 62
     3
100
AcDbPolyline
 90
     4
 10
14.499982
 20
296.250078
 42
0.000000
 10
14.499982
 20
134.750059
 42
0.000000
 10
22.499982
 20
134.750059
 42
0.000000
 10
22.499982
 20
296.250078
 42
0.000000
  0
ENDBLK
  5
28C
100
AcDbEntity
  8
0
100
AcDbBlockEnd
  0
BLOCK
  5
28D
100
AcDbEntity
  8
SCHRAFF
100
AcDbBlockBegin
  2
B-21
 70
    66
 10
0.000000
 20
0.000000
 30
0.000000
  0
HATCH
  5
28E
100
AcDbEntity
  8
SCHRAFF
  6
CONTINUOUS
 62
     9
100
AcDbHatch
 10
0.000000
 20
0.000000
 30
0.000000
210
0.000000
220
0.000000
230
1.000000
  2
_U
 70
     0
 71
     1
 91
     1
 92
    18
 72
     1
 73
     0
 93
     5
 10
-127.500018
 20
-60.249941
 42
0.000000
 10
-79.500018
 20
-60.249941
 42
0.000000
 10
-79.500018
 20
-30.249941
 42
0.000000
 10
-127.500018
 20
-30.249941
 42
0.000000
 10
-127.500018
 20
-60.249941
 42
0.000000
 97
     0
 75
     0
 76
     0
 52
0.000000
 41
1.000000
 77
     0
 78
     1
 53
90.000000
 43
-0.000000
 44
0.000000
 45
-6.875000
 46
0.000000
 79
     0
 98
     0
  0
ENDBLK
  5
28F
100
AcDbEntity
  8
0
100
AcDbBlockEnd
  0
BLOCK
  5
290
100
AcDbEntity
  8
Detail
100
AcDbBlockBegin
  2
B-22
 70
    66
 10
0.000000
 20
0.000000
 30
0.000000
  0
LWPOLYLINE
  5
291
100
AcDbEntity
  8
Detail
  6
CONTINUOUS
 62
     6
100
AcDbPolyline
 90
    24
 10
-212.500018
 20
-35.715697
 42
0.000000
 10
-212.431530
 20
-35.749941
 42
0.000000
 10
-211.431530
 20
-35.249941
 42
0.000000
 10
-210.431530
 20
-35.249941
 42
0.000000
 10
-209.431530
 20
-34.749941
 42
0.000000
 10
-208.431530
 20
-35.249941
 42
0.000000
 10
-207.431530
 20
-35.249941
 42
0.000000
 10
-206.431530
 20
-35.749941
 42
0.000000
 10
-205.431530
 20
-35.249941
 42
0.000000
 10
-204.431530
 20
-35.249941
 42
0.000000
 10
-203.431530
 20
-34.749941
 42
0.000000
 10
-202.431530
 20
-35.249941
 42
0.000000
 10
-201.431530
 20
-35.249941
 42
0.000000
 10
-200.431530
 20
-35.749941
 42
0.000000
 10
-199.431530
 20
-35.249941
 42
0.000000
 10
-198.431530
 20
-35.249941
 42
0.000000
 10
-197.431530
 20
-34.749941
 42
0.000000
 10
-196.431530
 20
-35.249941
 42
0.000000
 10
-195.431530
 20
-35.249941
 42
0.000000
 10
-194.431530
 20
-35.749941
 42
0.000000
 10
-193.431530
 20
-35.249941
 42
0.000000
 10
-192.431530
 20
-35.249941
 42
0.000000
 10
-191.431530
 20
-34.749941
 42
0.000000
 10
-190.431530
 20
-35.249941
 42
0.000000
  0
ENDBLK
  5
2AA
100
AcDbEntity
  8
0
100
AcDbBlockEnd
  0
BLOCK
  5
2AB
100
AcDbEntity
  8
Detail
100
AcDbBlockBegin
  2
B-23
 70
    66
 10
0.000000
 20
0.000000
 30
0.000000
  0
LWPOLYLINE
  5
2AC
100
AcDbEntity
  8
Detail
  6
HIDDEN
 62
     9
100
AcDbPolyline
 90
     2
 10
3.499982
 20
-36.999941
 42
0.000000
 10
3.499982
 20
38.000059
 42
0.000000
  0
ENDBLK
  5
2AF
100
AcDbEntity
  8
0
100
AcDbBlockEnd
  0
BLOCK
  5
2B0
100
AcDbEntity
  8
Detail
100
AcDbBlockBegin
  2
B-24
 70
    66
 10
0.000000
 20
0.000000
 30
0.000000
  0
MTEXT
  5
2B2
100
AcDbEntity
  8
Detail
 62
     7
100
AcDbMText
 10
79.375023
 20
107.250059
 30
0.000000
 40
5.000000
 41
38.902500
 71
     1
 72
     5
  1
Klebemörtel
  7
Arial
 50
0.000000
  0
ENDBLK
  5
2B3
100
AcDbEntity
  8
0
100
AcDbBlockEnd
  0
BLOCK
  5
2B4
100
AcDbEntity
  8
SCHRAFF
100
AcDbBlockBegin
  2
B-25
 70
    66
 10
0.000000
 20
0.000000
 30
0.000000
  0
HATCH
  5
2B5
100
AcDbEntity
  8
SCHRAFF
 62
     7
440
     0
100
AcDbHatch
 10
0.000000
 20
0.000000
 30
0.000000
210
0.000000
220
0.000000
230
1.000000
  2
SOLID
 70
     1
 71
     1
 91
     1
 92
    18
 72
     1
 73
     0
 93
     3
 10
-79.500018
 20
104.750059
 42
1.000000
 10
-80.500018
 20
104.750059
 42
1.000000
 10
-79.500018
 20
104.750059
 42
0.000000
 97
     0
 75
     0
 76
     1
 98
     0
  0
CIRCLE
  5
2B6
100
AcDbEntity
  8
Detail
  6
CONTINUOUS
 62
     7
100
AcDbCircle
 10
-80.000018
 20
104.750059
 40
0.500000
  0
LWPOLYLINE
  5
2B7
100
AcDbEntity
  8
Detail
  6
CONTINUOUS
 62
     7
100
AcDbPolyline
 90
     2
 10
77.500023
 20
104.750059
 42
0.000000
 10
-80.000018
 20
104.750059
 42
0.000000
  0
ENDBLK
  5
2BA
100
AcDbEntity
  8
0
100
AcDbBlockEnd
  0
BLOCK
  5
2BB
100
AcDbEntity
  8
SCHRAFF
100
AcDbBlockBegin
  2
B-26
 70
    66
 10
0.000000
 20
0.000000
 30
0.000000
  0
HATCH
  5
2BC
100
AcDbEntity
  8
SCHRAFF
 62
     7
440
     0
100
AcDbHatch
 10
0.000000
 20
0.000000
 30
0.000000
210
0.000000
220
0.000000
230
1.000000
  2
SOLID
 70
     1
 71
     1
 91
     1
 92
    18
 72
     1
 73
     0
 93
     3
 10
-37.000018
 20
79.750059
 42
1.000000
 10
-38.000018
 20
79.750059
 42
1.000000
 10
-37.000018
 20
79.750059
 42
0.000000
 97
     0
 75
     0
 76
     1
 98
     0
  0
CIRCLE
  5
2BD
100
AcDbEntity
  8
Detail
  6
CONTINUOUS
 62
     7
100
AcDbCircle
 10
-37.500018
 20
79.750059
 40
0.500000
  0
LWPOLYLINE
  5
2BE
100
AcDbEntity
  8
Detail
  6
CONTINUOUS
 62
     7
100
AcDbPolyline
 90
     2
 10
77.500023
 20
79.750059
 42
0.000000
 10
-37.500018
 20
79.750059
 42
0.000000
  0
ENDBLK
  5
2C1
100
AcDbEntity
  8
0
100
AcDbBlockEnd
  0
BLOCK
  5
2C2
100
AcDbEntity
  8
Detail
100
AcDbBlockBegin
  2
B-27
 70
    66
 10
0.000000
 20
0.000000
 30
0.000000
  0
MTEXT
  5
2C3
100
AcDbEntity
  8
Detail
 62
     7
100
AcDbMText
 10
79.375023
 20
82.250059
 30
0.000000
 40
5.000000
 41
59.482500
 71
     1
 72
     5
  1
WDVS-Dämmstoff
  7
Arial
 50
0.000000
  0
ENDBLK
  5
2C4
100
AcDbEntity
  8
0
100
AcDbBlockEnd
  0
BLOCK
  5
2C5
100
AcDbEntity
  8
SCHRAFF
100
AcDbBlockBegin
  2
B-28
 70
    66
 10
0.000000
 20
0.000000
 30
0.000000
  0
HATCH
  5
2C6
100
AcDbEntity
  8
SCHRAFF
 62
     7
440
     0
100
AcDbHatch
 10
0.000000
 20
0.000000
 30
0.000000
210
0.000000
220
0.000000
230
1.000000
  2
SOLID
 70
     1
 71
     1
 91
     1
 92
    18
 72
     1
 73
     0
 93
     3
 10
9.499982
 20
54.750059
 42
1.000000
 10
8.499982
 20
54.750059
 42
1.000000
 10
9.499982
 20
54.750059
 42
0.000000
 97
     0
 75
     0
 76
     1
 98
     0
  0
CIRCLE
  5
2C7
100
AcDbEntity
  8
Detail
  6
CONTINUOUS
 62
     7
100
AcDbCircle
 10
8.999982
 20
54.750059
 40
0.500000
  0
LWPOLYLINE
  5
2C8
100
AcDbEntity
  8
Detail
  6
CONTINUOUS
 62
     7
100
AcDbPolyline
 90
     2
 10
77.500023
 20
54.750059
 42
0.000000
 10
8.999982
 20
54.750059
 42
0.000000
  0
ENDBLK
  5
2CB
100
AcDbEntity
  8
0
100
AcDbBlockEnd
  0
BLOCK
  5
2CC
100
AcDbEntity
  8
Detail
100
AcDbBlockBegin
  2
B-29
 70
    66
 10
0.000000
 20
0.000000
 30
0.000000
  0
MTEXT
  5
2CD
100
AcDbEntity
  8
Detail
 62
     7
100
AcDbMText
 10
79.375023
 20
57.250059
 30
0.000000
 40
5.000000
 41
122.955000
 71
     1
 72
     5
  1
Verdübelung durch Gewebearmierung
  7
Arial
 50
0.000000
  0
ENDBLK
  5
2CE
100
AcDbEntity
  8
0
100
AcDbBlockEnd
  0
BLOCK
  5
2CF
100
AcDbEntity
  8
Detail
100
AcDbBlockBegin
  2
B-30
 70
    66
 10
0.000000
 20
0.000000
 30
0.000000
  0
MTEXT
  5
2D0
100
AcDbEntity
  8
Detail
 62
     7
100
AcDbMText
 10
79.375023
 20
32.250059
 30
0.000000
 40
5.000000
 41
142.747500
 71
     1
 72
     5
  1
Armierungsschicht mit Ceratherm Mörtel DP
  7
Arial
 50
0.000000
  0
ENDBLK
  5
2D1
100
AcDbEntity
  8
0
100
AcDbBlockEnd
  0
BLOCK
  5
2D2
100
AcDbEntity
  8
SCHRAFF
100
AcDbBlockBegin
  2
B-31
 70
    66
 10
0.000000
 20
0.000000
 30
0.000000
  0
HATCH
  5
2D3
100
AcDbEntity
  8
SCHRAFF
 62
     7
440
     0
100
AcDbHatch
 10
0.000000
 20
0.000000
 30
0.000000
210
0.000000
220
0.000000
230
1.000000
  2
SOLID
 70
     1
 71
     1
 91
     1
 92
    18
 72
     1
 73
     0
 93
     3
 10
5.999982
 20
29.750059
 42
1.000000
 10
4.999982
 20
29.750059
 42
1.000000
 10
5.999982
 20
29.750059
 42
0.000000
 97
     0
 75
     0
 76
     1
 98
     0
  0
CIRCLE
  5
2D4
100
AcDbEntity
  8
Detail
  6
CONTINUOUS
 62
     7
100
AcDbCircle
 10
5.499982
 20
29.750059
 40
0.500000
  0
LWPOLYLINE
  5
2D5
100
AcDbEntity
  8
Detail
  6
CONTINUOUS
 62
     7
100
AcDbPolyline
 90
     2
 10
77.500023
 20
29.750059
 42
0.000000
 10
5.499982
 20
29.750059
 42
0.000000
  0
ENDBLK
  5
2D8
100
AcDbEntity
  8
0
100
AcDbBlockEnd
  0
BLOCK
  5
2D9
100
AcDbEntity
  8
Detail
100
AcDbBlockBegin
  2
B-32
 70
    66
 10
0.000000
 20
0.000000
 30
0.000000
  0
MTEXT
  5
2DA
100
AcDbEntity
  8
Detail
 62
     7
100
AcDbMText
 10
79.375023
 20
7.250059
 30
0.000000
 40
5.000000
 41
140.805000
 71
     1
 72
     5
  1
Ausgleichsschicht mit Ceratherm Mörtel DP
  7
Arial
 50
0.000000
  0
ENDBLK
  5
2DB
100
AcDbEntity
  8
0
100
AcDbBlockEnd
  0
BLOCK
  5
2DC
100
AcDbEntity
  8
SCHRAFF
100
AcDbBlockBegin
  2
B-33
 70
    66
 10
0.000000
 20
0.000000
 30
0.000000
  0
HATCH
  5
2DD
100
AcDbEntity
  8
SCHRAFF
 62
     7
440
     0
100
AcDbHatch
 10
0.000000
 20
0.000000
 30
0.000000
210
0.000000
220
0.000000
230
1.000000
  2
SOLID
 70
     1
 71
     1
 91
     1
 92
    18
 72
     1
 73
     0
 93
     3
 10
9.999982
 20
4.750059
 42
1.000000
 10
8.999982
 20
4.750059
 42
1.000000
 10
9.999982
 20
4.750059
 42
0.000000
 97
     0
 75
     0
 76
     1
 98
     0
  0
CIRCLE
  5
2DE
100
AcDbEntity
  8
Detail
  6
CONTINUOUS
 62
     7
100
AcDbCircle
 10
9.499982
 20
4.750059
 40
0.500000
  0
LWPOLYLINE
  5
2DF
100
AcDbEntity
  8
Detail
  6
CONTINUOUS
 62
     7
100
AcDbPolyline
 90
     2
 10
77.500023
 20
4.750059
 42
0.000000
 10
9.499982
 20
4.750059
 42
0.000000
  0
ENDBLK
  5
2E2
100
AcDbEntity
  8
0
100
AcDbBlockEnd
  0
BLOCK
  5
2E3
100
AcDbEntity
  8
Detail
100
AcDbBlockBegin
  2
B-34
 70
    66
 10
0.000000
 20
0.000000
 30
0.000000
  0
MTEXT
  5
2E4
100
AcDbEntity
  8
Detail
 62
     7
100
AcDbMText
 10
79.375023
 20
-17.749941
 30
0.000000
 40
5.000000
 41
44.940000
 71
     1
 72
     5
  1
Verlegemörtel
  7
Arial
 50
0.000000
  0
ENDBLK
  5
2E5
100
AcDbEntity
  8
0
100
AcDbBlockEnd
  0
BLOCK
  5
2E6
100
AcDbEntity
  8
SCHRAFF
100
AcDbBlockBegin
  2
B-35
 70
    66
 10
0.000000
 20
0.000000
 30
0.000000
  0
HATCH
  5
2E7
100
AcDbEntity
  8
SCHRAFF
 62
     7
440
     0
100
AcDbHatch
 10
0.000000
 20
0.000000
 30
0.000000
210
0.000000
220
0.000000
230
1.000000
  2
SOLID
 70
     1
 71
     1
 91
     1
 92
    18
 72
     1
 73
     0
 93
     3
 10
12.999982
 20
-20.249941
 42
1.000000
 10
11.999982
 20
-20.249941
 42
1.000000
 10
12.999982
 20
-20.249941
 42
0.000000
 97
     0
 75
     0
 76
     1
 98
     0
  0
CIRCLE
  5
2E8
100
AcDbEntity
  8
Detail
  6
CONTINUOUS
 62
     7
100
AcDbCircle
 10
12.499982
 20
-20.249941
 40
0.500000
  0
LWPOLYLINE
  5
2E9
100
AcDbEntity
  8
Detail
  6
CONTINUOUS
 62
     7
100
AcDbPolyline
 90
     2
 10
77.500023
 20
-20.249941
 42
0.000000
 10
12.499982
 20
-20.249941
 42
0.000000
  0
ENDBLK
  5
2EC
100
AcDbEntity
  8
0
100
AcDbBlockEnd
  0
BLOCK
  5
2ED
100
AcDbEntity
  8
SCHRAFF
100
AcDbBlockBegin
  2
B-36
 70
    66
 10
0.000000
 20
0.000000
 30
0.000000
  0
HATCH
  5
2EE
100
AcDbEntity
  8
SCHRAFF
 62
     7
440
     0
100
AcDbHatch
 10
0.000000
 20
0.000000
 30
0.000000
210
0.000000
220
0.000000
230
1.000000
  2
SOLID
 70
     1
 71
     1
 91
     1
 92
    18
 72
     1
 73
     0
 93
     3
 10
18.999982
 20
-45.249941
 42
1.000000
 10
17.999982
 20
-45.249941
 42
1.000000
 10
18.999982
 20
-45.249941
 42
0.000000
 97
     0
 75
     0
 76
     1
 98
     0
  0
CIRCLE
  5
2EF
100
AcDbEntity
  8
Detail
  6
CONTINUOUS
 62
     7
100
AcDbCircle
 10
18.499982
 20
-45.249941
 40
0.500000
  0
LWPOLYLINE
  5
2F0
100
AcDbEntity
  8
Detail
  6
CONTINUOUS
 62
     7
100
AcDbPolyline
 90
     2
 10
77.500023
 20
-45.249941
 42
0.000000
 10
18.499982
 20
-45.249941
 42
0.000000
  0
ENDBLK
  5
2F3
100
AcDbEntity
  8
0
100
AcDbBlockEnd
  0
BLOCK
  5
2F4
100
AcDbEntity
  8
Detail
100
AcDbBlockBegin
  2
B-37
 70
    66
 10
0.000000
 20
0.000000
 30
0.000000
  0
MTEXT
  5
2F5
100
AcDbEntity
  8
Detail
 62
     7
100
AcDbMText
 10
79.375023
 20
-42.749941
 30
0.000000
 40
5.000000
 41
48.982500
 71
     1
 72
     5
  1
Hartbekleidung
  7
Arial
 50
0.000000
  0
ENDBLK
  5
2F6
100
AcDbEntity
  8
0
100
AcDbBlockEnd
  0
BLOCK
  5
2F7
100
AcDbEntity
  8
SCHRAFF
100
AcDbBlockBegin
  2
B-38
 70
    66
 10
0.000000
 20
0.000000
 30
0.000000
  0
HATCH
  5
2F8
100
AcDbEntity
  8
SCHRAFF
 62
     7
440
     0
100
AcDbHatch
 10
0.000000
 20
0.000000
 30
0.000000
210
0.000000
220
0.000000
230
1.000000
  2
SOLID
 70
     1
 71
     1
 91
     1
 92
    18
 72
     1
 73
     0
 93
     3
 10
4.124982
 20
-57.749941
 42
1.000000
 10
3.124982
 20
-57.749941
 42
1.000000
 10
4.124982
 20
-57.749941
 42
0.000000
 97
     0
 75
     0
 76
     1
 98
     0
  0
CIRCLE
  5
2F9
100
AcDbEntity
  8
Detail
  6
CONTINUOUS
 62
     7
100
AcDbCircle
 10
3.624982
 20
-57.749941
 40
0.500000
  0
LWPOLYLINE
  5
2FA
100
AcDbEntity
  8
Detail
  6
CONTINUOUS
 62
     7
100
AcDbPolyline
 90
     4
 10
77.500023
 20
-70.249941
 42
0.000000
 10
27.499982
 20
-70.249941
 42
0.000000
 10
27.499982
 20
-57.749941
 42
0.000000
 10
3.624982
 20
-57.749941
 42
0.000000
  0
ENDBLK
  5
2FF
100
AcDbEntity
  8
0
100
AcDbBlockEnd
  0
BLOCK
  5
300
100
AcDbEntity
  8
Detail
100
AcDbBlockBegin
  2
B-39
 70
    66
 10
0.000000
 20
0.000000
 30
0.000000
  0
MTEXT
  5
301
100
AcDbEntity
  8
Detail
 62
     7
100
AcDbMText
 10
79.375023
 20
-67.749941
 30
0.000000
 40
5.000000
 41
62.842500
 71
     1
 72
     5
  1
Gewebe-Eckschutz
  7
Arial
 50
0.000000
  0
ENDBLK
  5
302
100
AcDbEntity
  8
0
100
AcDbBlockEnd
  0
BLOCK
  5
303
100
AcDbEntity
  8
Detail
100
AcDbBlockBegin
  2
B-40
 70
    66
 10
0.000000
 20
0.000000
 30
0.000000
  0
LWPOLYLINE
  5
304
100
AcDbEntity
  8
Detail
  6
HIDDEN
 62
     9
100
AcDbPolyline
 90
     2
 10
-20.750018
 20
-61.249941
 42
0.000000
 10
-95.750018
 20
-61.249941
 42
0.000000
  0
ENDBLK
  5
307
100
AcDbEntity
  8
0
100
AcDbBlockEnd
  0
BLOCK
  5
308
100
AcDbEntity
  8
Detail
100
AcDbBlockBegin
  2
B-41
 70
    66
 10
0.000000
 20
0.000000
 30
0.000000
  0
MTEXT
  5
309
100
AcDbEntity
  8
Detail
 62
     7
100
AcDbMText
 10
79.375023
 20
-92.749941
 30
0.000000
 40
5.000000
 41
67.305000
 71
     1
 72
     5
  1
elastischer Dichtstoff
  7
Arial
 50
0.000000
  0
ENDBLK
  5
30A
100
AcDbEntity
  8
0
100
AcDbBlockEnd
  0
BLOCK
  5
30B
100
AcDbEntity
  8
SCHRAFF
100
AcDbBlockBegin
  2
B-42
 70
    66
 10
0.000000
 20
0.000000
 30
0.000000
  0
HATCH
  5
30C
100
AcDbEntity
  8
SCHRAFF
 62
     7
440
     0
100
AcDbHatch
 10
0.000000
 20
0.000000
 30
0.000000
210
0.000000
220
0.000000
230
1.000000
  2
SOLID
 70
     1
 71
     1
 91
     1
 92
    18
 72
     1
 73
     0
 93
     3
 10
9.999982
 20
-75.249941
 42
1.000000
 10
8.999982
 20
-75.249941
 42
1.000000
 10
9.999982
 20
-75.249941
 42
0.000000
 97
     0
 75
     0
 76
     1
 98
     0
  0
CIRCLE
  5
30D
100
AcDbEntity
  8
Detail
  6
CONTINUOUS
 62
     7
100
AcDbCircle
 10
9.499982
 20
-75.249941
 40
0.500000
  0
LWPOLYLINE
  5
30E
100
AcDbEntity
  8
Detail
  6
CONTINUOUS
 62
     7
100
AcDbPolyline
 90
     3
 10
77.500023
 20
-95.249941
 42
0.000000
 10
9.499982
 20
-95.249941
 42
0.000000
 10
9.499982
 20
-75.249941
 42
0.000000
  0
ENDBLK
  5
312
100
AcDbEntity
  8
0
100
AcDbBlockEnd
  0
BLOCK
  5
313
100
AcDbEntity
  8
Detail
100
AcDbBlockBegin
  2
B-43
 70
    66
 10
0.000000
 20
0.000000
 30
0.000000
  0
MTEXT
  5
314
100
AcDbEntity
  8
Detail
 62
     7
100
AcDbMText
 10
79.375023
 20
-117.749941
 30
0.000000
 40
5.000000
 41
63.577500
 71
     1
 72
     5
  1
Fugendichtband 2D
  7
Arial
 50
0.000000
  0
ENDBLK
  5
315
100
AcDbEntity
  8
0
100
AcDbBlockEnd
  0
BLOCK
  5
316
100
AcDbEntity
  8
SCHRAFF
100
AcDbBlockBegin
  2
B-44
 70
    66
 10
0.000000
 20
0.000000
 30
0.000000
  0
HATCH
  5
317
100
AcDbEntity
  8
SCHRAFF
 62
     7
440
     0
100
AcDbHatch
 10
0.000000
 20
0.000000
 30
0.000000
210
0.000000
220
0.000000
230
1.000000
  2
SOLID
 70
     1
 71
     1
 91
     1
 92
    18
 72
     1
 73
     0
 93
     3
 10
-127.000018
 20
-67.249941
 42
1.000000
 10
-128.000018
 20
-67.249941
 42
1.000000
 10
-127.000018
 20
-67.249941
 42
0.000000
 97
     0
 75
     0
 76
     1
 98
     0
  0
CIRCLE
  5
318
100
AcDbEntity
  8
Detail
  6
CONTINUOUS
 62
     7
100
AcDbCircle
 10
-127.500018
 20
-67.249941
 40
0.500000
  0
ENDBLK
  5
319
100
AcDbEntity
  8
0
100
AcDbBlockEnd
  0
BLOCK
  5
31A
100
AcDbEntity
  8
Detail
100
AcDbBlockBegin
  2
B-45
 70
    66
 10
0.000000
 20
0.000000
 30
0.000000
  0
LWPOLYLINE
  5
31B
100
AcDbEntity
  8
Detail
  6
CONTINUOUS
 62
     9
100
AcDbPolyline
 90
    17
 10
-188.000016
 20
-27.749941
 42
-0.262676
 10
-187.568451
 20
-26.985142
 42
-0.082357
 10
-185.049765
 20
-25.982174
 42
-0.034537
 10
-181.781918
 20
-25.440242
 42
-0.024669
 10
-177.927229
 20
-25.249941
 42
-0.024669
 10
-174.072540
 20
-25.440242
 42
-0.034537
 10
-170.804693
 20
-25.982174
 42
-0.082357
 10
-168.286007
 20
-26.985142
 42
-0.262676
 10
-167.854442
 20
-27.749941
 42
-0.262676
 10
-168.286007
 20
-28.514740
 42
-0.082357
 10
-170.804693
 20
-29.517708
 42
-0.034537
 10
-174.072540
 20
-30.059640
 42
-0.024669
 10
-177.927229
 20
-30.249941
 42
-0.024669
 10
-181.781918
 20
-30.059640
 42
-0.034537
 10
-185.049765
 20
-29.517708
 42
-0.082357
 10
-187.568451
 20
-28.514740
 42
-0.262676
 10
-188.000016
 20
-27.749941
 42
0.000000
  0
ENDBLK
  5
32D
100
AcDbEntity
  8
0
100
AcDbBlockEnd
  0
BLOCK
  5
32E
100
AcDbEntity
  8
Detail
100
AcDbBlockBegin
  2
B-46
 70
    66
 10
0.000000
 20
0.000000
 30
0.000000
  0
LWPOLYLINE
  5
32F
100
AcDbEntity
  8
Detail
  6
CONTINUOUS
 62
     9
100
AcDbPolyline
 90
    17
 10
-184.373813
 20
-27.749941
 42
-0.262676
 10
-184.097611
 20
-27.260469
 42
-0.082357
 10
-182.485652
 20
-26.618570
 42
-0.034537
 10
-180.394230
 20
-26.271734
 42
-0.024669
 10
-177.927229
 20
-26.149941
 42
-0.024669
 10
-175.460228
 20
-26.271734
 42
-0.034537
 10
-173.368806
 20
-26.618570
 42
-0.082357
 10
-171.756847
 20
-27.260469
 42
-0.262676
 10
-171.480645
 20
-27.749941
 42
-0.262676
 10
-171.756847
 20
-28.239412
 42
-0.082357
 10
-173.368806
 20
-28.881312
 42
-0.034537
 10
-175.460228
 20
-29.228148
 42
-0.024669
 10
-177.927229
 20
-29.349941
 42
-0.024669
 10
-180.394230
 20
-29.228148
 42
-0.034537
 10
-182.485652
 20
-28.881312
 42
-0.082357
 10
-184.097611
 20
-28.239412
 42
-0.262676
 10
-184.373813
 20
-27.749941
 42
0.000000
  0
ENDBLK
  5
341
100
AcDbEntity
  8
0
100
AcDbBlockEnd
  0
BLOCK
  5
342
100
AcDbEntity
  8
Detail
100
AcDbBlockBegin
  2
B-47
 70
    66
 10
0.000000
 20
0.000000
 30
0.000000
  0
LWPOLYLINE
  5
343
100
AcDbEntity
  8
Detail
  6
CONTINUOUS
 62
     9
100
AcDbPolyline
 90
    17
 10
-138.626221
 20
-27.749941
 42
0.262676
 10
-138.902423
 20
-27.260469
 42
0.082357
 10
-140.514382
 20
-26.618570
 42
0.034537
 10
-142.605804
 20
-26.271734
 42
0.024669
 10
-145.072805
 20
-26.149941
 42
0.024669
 10
-147.539806
 20
-26.271734
 42
0.034537
 10
-149.631228
 20
-26.618570
 42
0.082357
 10
-151.243187
 20
-27.260469
 42
0.262676
 10
-151.519389
 20
-27.749941
 42
0.262676
 10
-151.243187
 20
-28.239412
 42
0.082357
 10
-149.631228
 20
-28.881312
 42
0.034537
 10
-147.539806
 20
-29.228148
 42
0.024669
 10
-145.072805
 20
-29.349941
 42
0.024669
 10
-142.605804
 20
-29.228148
 42
0.034537
 10
-140.514382
 20
-28.881312
 42
0.082357
 10
-138.902423
 20
-28.239412
 42
0.262676
 10
-138.626221
 20
-27.749941
 42
0.000000
  0
ENDBLK
  5
355
100
AcDbEntity
  8
0
100
AcDbBlockEnd
  0
BLOCK
  5
356
100
AcDbEntity
  8
Detail
100
AcDbBlockBegin
  2
B-48
 70
    66
 10
0.000000
 20
0.000000
 30
0.000000
  0
LWPOLYLINE
  5
357
100
AcDbEntity
  8
Detail
  6
CONTINUOUS
 62
     9
100
AcDbPolyline
 90
    17
 10
-135.000018
 20
-27.749941
 42
0.262676
 10
-135.431583
 20
-26.985142
 42
0.082357
 10
-137.950269
 20
-25.982174
 42
0.034537
 10
-141.218116
 20
-25.440242
 42
0.024669
 10
-145.072805
 20
-25.249941
 42
0.024669
 10
-148.927494
 20
-25.440242
 42
0.034537
 10
-152.195341
 20
-25.982174
 42
0.082357
 10
-154.714027
 20
-26.985142
 42
0.262676
 10
-155.145592
 20
-27.749941
 42
0.262676
 10
-154.714027
 20
-28.514740
 42
0.082357
 10
-152.195341
 20
-29.517708
 42
0.034537
 10
-148.927494
 20
-30.059640
 42
0.024669
 10
-145.072805
 20
-30.249941
 42
0.024669
 10
-141.218116
 20
-30.059640
 42
0.034537
 10
-137.950269
 20
-29.517708
 42
0.082357
 10
-135.431583
 20
-28.514740
 42
0.262676
 10
-135.000018
 20
-27.749941
 42
0.000000
  0
ENDBLK
  5
369
100
AcDbEntity
  8
0
100
AcDbBlockEnd
  0
BLOCK
  5
36A
100
AcDbEntity
  8
Detail
100
AcDbBlockBegin
  2
B-49
 70
    66
 10
0.000000
 20
0.000000
 30
0.000000
  0
ENDBLK
  5
36B
100
AcDbEntity
  8
0
100
AcDbBlockEnd
  0
BLOCK
  5
36C
100
AcDbEntity
  8
Detail
100
AcDbBlockBegin
  2
B-50
 70
    66
 10
0.000000
 20
0.000000
 30
0.000000
  0
LWPOLYLINE
  5
36D
100
AcDbEntity
  8
Detail
  6
CONTINUOUS
 62
     2
100
AcDbPolyline
 90
     3
 10
-82.500018
 20
296.250078
 42
0.000000
 10
-82.500018
 20
-25.249941
 42
0.000000
 10
-212.500018
 20
-25.249941
 42
0.000000
  0
ENDBLK
  5
371
100
AcDbEntity
  8
0
100
AcDbBlockEnd
  0
BLOCK
  5
372
100
AcDbEntity
  8
Detail
100
AcDbBlockBegin
  2
B-51
 70
    66
 10
0.000000
 20
0.000000
 30
0.000000
  0
LWPOLYLINE
  5
373
100
AcDbEntity
  8
Detail
  6
CONTINUOUS
 62
     3
100
AcDbPolyline
 90
     5
 10
-122.500018
 20
-80.249941
 42
0.000000
 10
-122.500018
 20
-72.249941
 42
0.000000
 10
4.499982
 20
-72.249941
 42
0.000000
 10
4.499982
 20
-80.249941
 42
0.000000
 10
-122.500018
 20
-80.249941
 42
0.000000
  0
ENDBLK
  5
379
100
AcDbEntity
  8
0
100
AcDbBlockEnd
  0
BLOCK
  5
37A
100
AcDbEntity
  8
Detail
100
AcDbBlockBegin
  2
B-52
 70
    66
 10
0.000000
 20
0.000000
 30
0.000000
  0
CIRCLE
  5
37B
100
AcDbEntity
  8
Detail
  6
CONTINUOUS
 62
     4
100
AcDbCircle
 10
-127.500018
 20
-67.249941
 40
5.000000
  0
ENDBLK
  5
37C
100
AcDbEntity
  8
0
100
AcDbBlockEnd
  0
BLOCK
  5
37D
100
AcDbEntity
  8
SCHRAFF
100
AcDbBlockBegin
  2
glasleiste
 70
    66
 10
0.000000
 20
0.000000
 30
0.000000
  0
HATCH
  5
37E
100
AcDbEntity
  8
SCHRAFF
  6
CONTINUOUS
 62
     9
100
AcDbHatch
 10
0.000000
 20
0.000000
 30
0.000000
210
0.000000
220
0.000000
230
1.000000
  2
_U
 70
     0
 71
     1
 91
     1
 92
    18
 72
     1
 73
     0
 93
    15
 10
-190.292258
 20
-165.249940
 42
0.000000
 10
-208.009894
 20
-160.502514
 42
-0.339455
 10
-209.492256
 20
-158.570662
 42
0.000000
 10
-209.492256
 20
-149.249940
 42
-0.414214
 10
-207.492256
 20
-147.249940
 42
0.000000
 10
-206.492256
 20
-147.249941
 42
0.000000
 10
-185.292258
 20
-147.249940
 42
0.000000
 10
-185.292258
 20
-157.249940
 42
0.000000
 10
-185.492258
 20
-157.249940
 42
0.000000
 10
-189.492258
 20
-157.249940
 42
0.000000
 10
-190.992258
 20
-159.249940
 42
0.000000
 10
-190.992258
 20
-161.249940
 42
0.000000
 10
-189.492258
 20
-161.249940
 42
0.000000
 10
-189.492258
 20
-164.270145
 42
-0.356393
 10
-190.292258
 20
-165.249940
 42
0.000000
 97
     0
 75
     0
 76
     0
 52
0.000000
 41
1.000000
 77
     0
 78
     1
 53
45.000000
 43
-0.000000
 44
0.000000
 45
-2.209709
 46
2.209709
 79
     0
 98
     0
  0
LWPOLYLINE
  5
37F
100
AcDbEntity
  8
Detail
  6
CONTINUOUS
 62
     3
100
AcDbPolyline
 90
     2
 10
-208.009895
 20
-160.502513
 42
0.000000
 10
-190.292258
 20
-165.249939
 42
0.000000
  0
LWPOLYLINE
  5
382
100
AcDbEntity
  8
Detail
  6
CONTINUOUS
 62
     4
100
AcDbPolyline
 90
     2
 10
-184.492258
 20
-167.249939
 42
0.000000
 10
-190.292258
 20
-165.249939
 42
0.000000
  0
LWPOLYLINE
  5
385
100
AcDbEntity
  8
Detail
  6
CONTINUOUS
 62
     4
100
AcDbPolyline
 90
     2
 10
-184.492258
 20
-158.249939
 42
0.000000
 10
-184.492258
 20
-167.249939
 42
0.000000
  0
LWPOLYLINE
  5
388
100
AcDbEntity
  8
Detail
  6
CONTINUOUS
 62
     3
100
AcDbPolyline
 90
     2
 10
-185.292258
 20
-157.249939
 42
0.000000
 10
-185.292258
 20
-147.249939
 42
0.000000
  0
LWPOLYLINE
  5
38B
100
AcDbEntity
  8
Detail
  6
CONTINUOUS
 62
     4
100
AcDbPolyline
 90
     2
 10
-185.492258
 20
-157.249939
 42
-0.414214
 10
-184.492258
 20
-158.249939
 42
0.000000
  0
LWPOLYLINE
  5
38E
100
AcDbEntity
  8
Detail
  6
CONTINUOUS
 62
     3
100
AcDbPolyline
 90
     2
 10
-189.492258
 20
-157.249939
 42
0.000000
 10
-185.292258
 20
-157.249939
 42
0.000000
  0
LWPOLYLINE
  5
391
100
AcDbEntity
  8
Detail
  6
CONTINUOUS
 62
     3
100
AcDbPolyline
 90
     2
 10
-190.992258
 20
-159.249939
 42
0.000000
 10
-189.492258
 20
-157.249939
 42
0.000000
  0
LWPOLYLINE
  5
394
100
AcDbEntity
  8
Detail
  6
CONTINUOUS
 62
     3
100
AcDbPolyline
 90
     2
 10
-190.992258
 20
-161.249939
 42
0.000000
 10
-190.992258
 20
-159.249939
 42
0.000000
  0
LWPOLYLINE
  5
397
100
AcDbEntity
  8
Detail
  6
CONTINUOUS
 62
     3
100
AcDbPolyline
 90
     3
 10
-189.492258
 20
-164.270143
 42
0.000000
 10
-189.492258
 20
-161.249939
 42
0.000000
 10
-190.992258
 20
-161.249939
 42
0.000000
  0
LWPOLYLINE
  5
39B
100
AcDbEntity
  8
Detail
  6
CONTINUOUS
 62
     3
100
AcDbPolyline
 90
     2
 10
-190.292258
 20
-165.249939
 42
0.356394
 10
-189.492258
 20
-164.270144
 42
0.000000
  0
LWPOLYLINE
  5
39E
100
AcDbEntity
  8
Detail
  6
CONTINUOUS
 62
     3
100
AcDbPolyline
 90
     3
 10
-209.492257
 20
-149.249939
 42
0.000000
 10
-209.492257
 20
-158.570661
 42
0.339454
 10
-208.009895
 20
-160.502512
 42
0.000000
  0
LWPOLYLINE
  5
3A2
100
AcDbEntity
  8
Detail
  6
CONTINUOUS
 62
     3
100
AcDbPolyline
 90
     2
 10
-207.492257
 20
-147.249939
 42
0.414214
 10
-209.492257
 20
-149.249939
 42
0.000000
  0
LWPOLYLINE
  5
3A5
100
AcDbEntity
  8
Detail
  6
CONTINUOUS
 62
     3
100
AcDbPolyline
 90
     2
 10
-185.292258
 20
-147.249939
 42
0.000000
 10
-207.492257
 20
-147.249939
 42
0.000000
  0
ENDBLK
  5
3A8
100
AcDbEntity
  8
0
100
AcDbBlockEnd
  0
BLOCK
  5
3A9
100
AcDbEntity
  8
Detail
100
AcDbBlockBegin
  2
glas
 70
    66
 10
0.000000
 20
0.000000
 30
0.000000
  0
LWPOLYLINE
  5
3AA
100
AcDbEntity
  8
Detail
  6
CONTINUOUS
 62
     4
100
AcDbPolyline
 90
     2
 10
-164.500069
 20
-152.249939
 42
0.000000
 10
-164.500069
 20
-192.988533
 42
0.000000
  0
LWPOLYLINE
  5
3AD
100
AcDbEntity
  8
Detail
  6
CONTINUOUS
 62
     4
100
AcDbPolyline
 90
     2
 10
-180.492257
 20
-152.249941
 42
0.000000
 10
-180.492257
 20
-192.988535
 42
0.000000
  0
LWPOLYLINE
  5
3B0
100
AcDbEntity
  8
Detail
  6
CONTINUOUS
 62
     4
100
AcDbPolyline
 90
     2
 10
-180.492257
 20
-166.249941
 42
0.000000
 10
-164.500069
 20
-166.249939
 42
0.000000
  0
LWPOLYLINE
  5
3B3
100
AcDbEntity
  8
Detail
  6
CONTINUOUS
 62
     4
100
AcDbPolyline
 90
     2
 10
-184.492258
 20
-192.988536
 42
0.000000
 10
-184.492258
 20
-152.249942
 42
0.000000
  0
LWPOLYLINE
  5
3B6
100
AcDbEntity
  8
Detail
  6
CONTINUOUS
 62
     4
100
AcDbPolyline
 90
     2
 10
-160.500070
 20
-152.249940
 42
0.000000
 10
-160.500070
 20
-192.988534
 42
0.000000
  0
LWPOLYLINE
  5
3B9
100
AcDbEntity
  8
Detail
  6
CONTINUOUS
 62
     4
100
AcDbPolyline
 90
     2
 10
-184.492258
 20
-152.249942
 42
0.000000
 10
-180.492257
 20
-152.249941
 42
0.000000
  0
LWPOLYLINE
  5
3BC
100
AcDbEntity
  8
Detail
  6
CONTINUOUS
 62
     4
100
AcDbPolyline
 90
     2
 10
-164.500069
 20
-152.249939
 42
0.000000
 10
-160.500070
 20
-152.249940
 42
0.000000
  0
LWPOLYLINE
  5
3BF
100
AcDbEntity
  8
Detail
  6
CONTINUOUS
 62
     4
100
AcDbPolyline
 90
     2
 10
-164.500069
 20
-152.249939
 42
0.000000
 10
-180.492257
 20
-152.249941
 42
0.000000
  0
LWPOLYLINE
  5
3C2
100
AcDbEntity
  8
Detail
  6
CONTINUOUS
 62
     4
100
AcDbPolyline
 90
     2
 10
-164.500069
 20
-156.249939
 42
0.000000
 10
-180.492257
 20
-156.249941
 42
0.000000
  0
ENDBLK
  5
3C5
100
AcDbEntity
  8
0
100
AcDbBlockEnd
  0
BLOCK
  5
3C6
100
AcDbEntity
  8
SCHRAFF
100
AcDbBlockBegin
  2
rahmen
 70
    66
 10
0.000000
 20
0.000000
 30
0.000000
  0
HATCH
  5
3C7
100
AcDbEntity
  8
SCHRAFF
  6
CONTINUOUS
 62
     9
100
AcDbHatch
 10
0.000000
 20
0.000000
 30
0.000000
210
0.000000
220
0.000000
230
1.000000
  2
_U
 70
     0
 71
     1
 91
     1
 92
    18
 72
     1
 73
     0
 93
    31
 10
-159.700034
 20
-100.249941
 42
0.000000
 10
-163.700033
 20
-100.249941
 42
0.000000
 10
-163.700033
 20
-107.749939
 42
0.000000
 10
-164.200033
 20
-108.249939
 42
0.000000
 10
-168.000033
 20
-108.249939
 42
-0.414214
 10
-169.500033
 20
-106.749939
 42
0.000000
 10
-169.500033
 20
-102.249939
 42
0.414213
 10
-171.500033
 20
-100.249941
 42
0.000000
 10
-174.500033
 20
-100.249941
 42
-0.414214
 10
-175.500033
 20
-99.249940
 42
0.000000
 10
-175.500032
 20
-96.249940
 42
0.000000
 10
-183.500033
 20
-96.249940
 42
0.000000
 10
-183.500033
 20
-99.249940
 42
-0.414214
 10
-184.500033
 20
-100.249941
 42
0.000000
 10
-189.000032
 20
-100.249941
 42
-0.414214
 10
-190.500033
 20
-98.749941
 42
0.000000
 10
-190.500032
 20
-31.749941
 42
0.000000
 10
-189.000032
 20
-30.249941
 42
0.000000
 10
-134.000035
 20
-30.249941
 42
0.000000
 10
-132.500035
 20
-31.749941
 42
0.000000
 10
-132.500035
 20
-125.062642
 42
-0.339454
 10
-134.352987
 20
-127.477456
 42
0.000000
 10
-143.991216
 20
-130.060011
 42
-0.493145
 10
-145.250035
 20
-129.094085
 42
0.000000
 10
-145.250035
 20
-113.749939
 42
0.414213
 10
-146.750034
 20
-112.249939
 42
0.000000
 10
-158.500035
 20
-112.249939
 42
-0.414213
 10
-159.500034
 20
-111.249939
 42
0.000000
 10
-159.500034
 20
-108.249939
 42
0.000000
 10
-159.700034
 20
-108.249939
 42
0.000000
 10
-159.700034
 20
-100.249941
 42
0.000000
 97
     0
 75
     0
 76
     0
 52
0.000000
 41
1.000000
 77
     0
 78
     1
 53
45.000003
 43
-0.000000
 44
0.000000
 45
-2.209709
 46
2.209709
 79
     0
 98
     0
  0
LWPOLYLINE
  5
3C8
100
AcDbEntity
  8
Detail
  6
CONTINUOUS
 62
     3
100
AcDbPolyline
 90
    31
 10
-163.700034
 20
-107.749940
 42
0.000000
 10
-163.700034
 20
-100.249940
 42
0.000000
 10
-159.700034
 20
-100.249940
 42
0.000000
 10
-159.700034
 20
-108.249940
 42
0.000000
 10
-159.500034
 20
-108.249940
 42
0.000000
 10
-159.500034
 20
-111.249940
 42
0.414214
 10
-158.500034
 20
-112.249940
 42
0.000000
 10
-146.750034
 20
-112.249940
 42
-0.414214
 10
-145.250034
 20
-113.749940
 42
0.000000
 10
-145.250034
 20
-129.094086
 42
0.493145
 10
-143.991215
 20
-130.060012
 42
0.000000
 10
-134.352986
 20
-127.477457
 42
0.339454
 10
-132.500034
 20
-125.062642
 42
0.000000
 10
-132.500034
 20
-31.749940
 42
0.000000
 10
-134.000034
 20
-30.249940
 42
0.000000
 10
-189.000034
 20
-30.249940
 42
0.000000
 10
-190.500034
 20
-31.749940
 42
0.000000
 10
-190.500034
 20
-98.749940
 42
0.414214
 10
-189.000034
 20
-100.249940
 42
0.000000
 10
-184.500034
 20
-100.249940
 42
0.414214
 10
-183.500034
 20
-99.249940
 42
0.000000
 10
-183.500034
 20
-96.249940
 42
0.000000
 10
-175.500034
 20
-96.249940
 42
0.000000
 10
-175.500034
 20
-99.249940
 42
0.414214
 10
-174.500034
 20
-100.249940
 42
0.000000
 10
-171.500034
 20
-100.249940
 42
-0.414214
 10
-169.500034
 20
-102.249940
 42
0.000000
 10
-169.500034
 20
-106.749940
 42
0.414214
 10
-168.000034
 20
-108.249940
 42
0.000000
 10
-164.200034
 20
-108.249940
 42
0.000000
 10
-163.700034
 20
-107.749940
 42
0.000000
  0
POLYLINE
  5
3E8
100
AcDbEntity
  8
Detail
 66
     1
  6
CONTINUOUS
 62
     4
100
AcDb2dPolyline
  0
VERTEX
  5
3E9
100
AcDbEntity
  8
Detail
100
AcDbVertex
100
AcDb2dVertex
 10
-161.400198
 20
-117.804431
 42
0.203482
  0
VERTEX
  5
3EA
100
AcDbEntity
  8
Detail
100
AcDbVertex
100
AcDb2dVertex
 10
-161.450206
 20
-118.584396
 42
-0.308188
  0
VERTEX
  5
3EB
100
AcDbEntity
  8
Detail
100
AcDbVertex
100
AcDb2dVertex
 10
-161.282275
 20
-118.858335
 42
-0.887236
  0
VERTEX
  5
3EC
100
AcDbEntity
  8
Detail
100
AcDbVertex
100
AcDb2dVertex
 10
-162.274131
 20
-118.813135
 42
0.000000
  0
VERTEX
  5
3ED
100
AcDbEntity
  8
Detail
100
AcDbVertex
100
AcDb2dVertex
 10
-162.698686
 20
-112.779266
 42
0.679251
  0
VERTEX
  5
3EE
100
AcDbEntity
  8
Detail
100
AcDbVertex
100
AcDb2dVertex
 10
-163.408345
 20
-112.556904
 42
0.150740
  0
VERTEX
  5
3EF
100
AcDbEntity
  8
Detail
100
AcDbVertex
100
AcDb2dVertex
 10
-163.507216
 20
-112.803096
 42
0.000000
  0
VERTEX
  5
3F0
100
AcDbEntity
  8
Detail
100
AcDbVertex
100
AcDb2dVertex
 10
-163.272813
 20
-118.865879
 42
0.210504
  0
VERTEX
  5
3F1
100
AcDbEntity
  8
Detail
100
AcDbVertex
100
AcDb2dVertex
 10
-162.719983
 20
-119.941565
 42
0.183556
  0
VERTEX
  5
3F2
100
AcDbEntity
  8
Detail
100
AcDbVertex
100
AcDb2dVertex
 10
-162.188723
 20
-120.226037
 42
0.320371
  0
VERTEX
  5
3F3
100
AcDbEntity
  8
Detail
100
AcDbVertex
100
AcDb2dVertex
 10
-160.612452
 20
-119.481422
 42
0.000000
  0
VERTEX
  5
3F4
100
AcDbEntity
  8
Detail
100
AcDbVertex
100
AcDb2dVertex
 10
-157.966500
 20
-115.307732
 42
0.000000
  0
VERTEX
  5
3F5
100
AcDbEntity
  8
Detail
100
AcDbVertex
100
AcDb2dVertex
 10
-157.757148
 20
-114.921139
 42
0.000000
  0
VERTEX
  5
3F6
100
AcDbEntity
  8
Detail
100
AcDbVertex
100
AcDb2dVertex
 10
-156.721700
 20
-112.779799
 42
0.082849
  0
VERTEX
  5
3F7
100
AcDbEntity
  8
Detail
100
AcDbVertex
100
AcDb2dVertex
 10
-156.700034
 20
-112.649940
 42
0.718680
  0
VERTEX
  5
3F8
100
AcDbEntity
  8
Detail
100
AcDbVertex
100
AcDb2dVertex
 10
-157.418714
 20
-112.408190
 42
0.000000
  0
VERTEX
  5
3F9
100
AcDbEntity
  8
Detail
100
AcDbVertex
100
AcDb2dVertex
 10
-157.469539
 20
-112.475188
 42
-0.234622
  0
VERTEX
  5
3FA
100
AcDbEntity
  8
Detail
100
AcDbVertex
100
AcDb2dVertex
 10
-158.425580
 20
-112.849940
 42
0.000000
  0
VERTEX
  5
3FB
100
AcDbEntity
  8
Detail
 62
     3
100
AcDbVertex
100
AcDb2dVertex
 10
-158.509675
 20
-112.849940
 42
-0.500491
  0
VERTEX
  5
3FC
100
AcDbEntity
  8
Detail
100
AcDbVertex
100
AcDb2dVertex
 10
-159.700034
 20
-110.403718
 42
0.000000
  0
SEQEND
  5
3FD
100
AcDbEntity
  8
Detail
  0
LWPOLYLINE
  5
3FE
100
AcDbEntity
  8
Detail
  6
CONTINUOUS
 62
     4
100
AcDbPolyline
 90
     4
 10
-159.700034
 20
-101.999940
 42
0.414214
 10
-160.950034
 20
-100.749940
 42
0.198912
 10
-161.907141
 20
-101.042833
 42
0.000000
 10
-163.700034
 20
-102.835726
 42
0.000000
  0
LWPOLYLINE
  5
403
100
AcDbEntity
  8
Detail
  6
CONTINUOUS
 62
     4
100
AcDbPolyline
 90
     5
 10
-163.700034
 20
-103.542833
 42
0.000000
 10
-162.002677
 20
-102.492913
 42
-0.723524
 10
-161.711778
 20
-102.737300
 42
-0.231341
 10
-163.664253
 20
-106.367413
 42
0.095440
 10
-163.700034
 20
-106.553155
 42
0.000000
  0
LWPOLYLINE
  5
409
100
AcDbEntity
  8
Detail
  6
CONTINUOUS
 62
     4
100
AcDbPolyline
 90
     3
 10
-163.700034
 20
-107.008320
 42
0.305615
 10
-163.512534
 20
-107.286427
 42
-0.724202
 10
-163.700034
 20
-108.249940
 42
0.000000
  0
POLYLINE
  5
40D
100
AcDbEntity
  8
Detail
 66
     1
  6
CONTINUOUS
 62
     4
100
AcDb2dPolyline
  0
VERTEX
  5
40E
100
AcDbEntity
  8
Detail
100
AcDbVertex
100
AcDb2dVertex
 10
-165.300034
 20
-108.249940
 42
0.373804
  0
VERTEX
  5
40F
100
AcDbEntity
  8
Detail
100
AcDbVertex
100
AcDb2dVertex
 10
-165.696125
 20
-108.594158
 42
0.146794
  0
VERTEX
  5
410
100
AcDbEntity
  8
Detail
 62
     3
100
AcDbVertex
100
AcDb2dVertex
 10
-165.678765
 20
-108.707798
 42
0.243289
  0
VERTEX
  5
411
100
AcDbEntity
  8
Detail
100
AcDbVertex
100
AcDb2dVertex
 10
-164.330781
 20
-109.569098
 42
0.000000
  0
VERTEX
  5
412
100
AcDbEntity
  8
Detail
100
AcDbVertex
100
AcDb2dVertex
 10
-162.807748
 20
-109.825913
 42
-0.308709
  0
VERTEX
  5
413
100
AcDbEntity
  8
Detail
100
AcDbVertex
100
AcDb2dVertex
 10
-162.157688
 20
-110.451112
 42
0.000000
  0
VERTEX
  5
414
100
AcDbEntity
  8
Detail
100
AcDbVertex
100
AcDb2dVertex
 10
-161.751900
 20
-112.392660
 42
0.305486
  0
VERTEX
  5
415
100
AcDbEntity
  8
Detail
100
AcDbVertex
100
AcDb2dVertex
 10
-160.550443
 20
-113.561867
 42
-0.446187
  0
VERTEX
  5
416
100
AcDbEntity
  8
Detail
100
AcDbVertex
100
AcDb2dVertex
 10
-159.925411
 20
-114.575377
 42
0.000000
  0
VERTEX
  5
417
100
AcDbEntity
  8
Detail
100
AcDbVertex
100
AcDb2dVertex
 10
-161.400198
 20
-117.804431
 42
0.000000
  0
SEQEND
  5
418
100
AcDbEntity
  8
Detail
  0
LWPOLYLINE
  5
419
100
AcDbEntity
  8
Detail
  6
CONTINUOUS
 62
     4
100
AcDbPolyline
 90
     2
 10
-163.700034
 20
-108.249940
 42
0.000000
 10
-164.300034
 20
-108.249940
 42
0.000000
  0
LWPOLYLINE
  5
41C
100
AcDbEntity
  8
Detail
  6
CONTINUOUS
 62
     4
100
AcDbPolyline
 90
     2
 10
-159.700034
 20
-110.403718
 42
0.000000
 10
-159.700034
 20
-108.249939
 42
0.000000
  0
ENDBLK
  5
41F
100
AcDbEntity
  8
0
100
AcDbBlockEnd
  0
BLOCK
  5
420
100
AcDbEntity
  8
SCHRAFF
100
AcDbBlockBegin
  2
fluegel
 70
    66
 10
0.000000
 20
0.000000
 30
0.000000
  0
HATCH
  5
421
100
AcDbEntity
  8
SCHRAFF
  6
CONTINUOUS
 62
     9
100
AcDbHatch
 10
0.000000
 20
0.000000
 30
0.000000
210
0.000000
220
0.000000
230
1.000000
  2
_U
 70
     0
 71
     1
 91
     1
 92
    18
 72
     1
 73
     0
 93
    56
 10
-142.500035
 20
-138.722418
 42
0.000000
 10
-142.500072
 20
-157.968309
 42
-0.291474
 10
-143.943527
 20
-160.234079
 42
0.000000
 10
-154.700072
 20
-165.249938
 42
-0.356394
 10
-155.500071
 20
-164.270142
 42
0.000000
 10
-155.500072
 20
-161.749938
 42
-0.414213
 10
-155.000071
 20
-161.249938
 42
0.000000
 10
-154.500072
 20
-161.249938
 42
0.414214
 10
-154.000071
 20
-160.749938
 42
0.000000
 10
-154.000072
 20
-159.749938
 42
0.000000
 10
-154.917467
 20
-158.220947
 42
0.263447
 10
-156.632453
 20
-157.249938
 42
0.000000
 10
-160.000071
 20
-157.249938
 42
0.000000
 10
-160.500071
 20
-156.749938
 42
0.000000
 10
-160.500071
 20
-148.549939
 42
0.576922
 10
-162.748402
 20
-147.249939
 42
0.000000
 10
-164.732744
 20
-147.249939
 42
-0.339454
 10
-165.698669
 20
-146.508758
 42
0.000000
 10
-166.710568
 20
-142.732301
 42
0.339454
 10
-168.642420
 20
-141.249939
 42
0.000000
 10
-171.857721
 20
-141.249938
 42
0.339454
 10
-173.789573
 20
-142.732301
 42
0.000000
 10
-174.801472
 20
-146.508758
 42
-0.339455
 10
-175.767398
 20
-147.249939
 42
0.000000
 10
-199.000070
 20
-147.249939
 42
-0.414214
 10
-200.000070
 20
-146.249939
 42
0.000000
 10
-200.000070
 20
-143.249939
 42
0.000000
 10
-205.500069
 20
-143.249939
 42
0.000000
 10
-205.500069
 20
-146.249939
 42
-0.414214
 10
-206.500070
 20
-147.249939
 42
0.000000
 10
-208.000069
 20
-147.249939
 42
-0.414214
 10
-210.500070
 20
-144.749939
 42
0.000000
 10
-210.500069
 20
-94.749941
 42
-0.414214
 10
-208.000070
 20
-92.249940
 42
0.000000
 10
-192.000032
 20
-92.249941
 42
-0.414213
 10
-190.500033
 20
-93.749940
 42
0.000000
 10
-190.500032
 20
-110.249938
 42
0.414214
 10
-188.500032
 20
-112.249939
 42
0.000000
 10
-165.000033
 20
-112.249939
 42
-0.414213
 10
-163.500033
 20
-113.749939
 42
0.000000
 10
-163.500033
 20
-122.249938
 42
0.414214
 10
-161.500034
 20
-124.249939
 42
0.000000
 10
-159.151026
 20
-124.249939
 42
-0.339454
 10
-157.702137
 20
-125.361711
 42
0.000000
 10
-156.958188
 20
-128.138167
 42
0.339455
 10
-155.509298
 20
-129.249938
 42
0.000000
 10
-152.990772
 20
-129.249938
 42
0.339454
 10
-151.541882
 20
-128.138168
 42
0.000000
 10
-150.797932
 20
-125.361711
 42
-0.339454
 10
-149.349044
 20
-124.249939
 42
0.000000
 10
-147.500035
 20
-124.249939
 42
-0.414214
 10
-146.000034
 20
-125.749939
 42
0.000000
 10
-146.000035
 20
-135.268609
 42
0.393578
 10
-144.624978
 20
-136.744885
 42
0.000000
 10
-143.982397
 20
-136.790563
 42
-0.339455
 10
-142.500035
 20
-138.722419
 42
0.000000
 97
     0
 75
     0
 76
     0
 52
0.000000
 41
1.000000
 77
     0
 78
     1
 53
45.000003
 43
-0.000000
 44
0.000000
 45
-2.209705
 46
2.209705
 79
     0
 98
     0
  0
LWPOLYLINE
  5
422
100
AcDbEntity
  8
Detail
  6
CONTINUOUS
 62
     3
100
AcDbPolyline
 90
    15
 10
-142.500034
 20
-138.722419
 42
0.339455
 10
-143.982396
 20
-136.790564
 42
0.000000
 10
-144.624977
 20
-136.744885
 42
-0.393577
 10
-146.000034
 20
-135.268610
 42
0.000000
 10
-146.000034
 20
-125.749940
 42
0.414214
 10
-147.500034
 20
-124.249940
 42
0.000000
 10
-149.349044
 20
-124.249940
 42
0.339454
 10
-150.797932
 20
-125.361711
 42
0.000000
 10
-151.541882
 20
-128.138168
 42
-0.339454
 10
-152.990770
 20
-129.249940
 42
0.000000
 10
-155.509298
 20
-129.249940
 42
-0.339454
 10
-156.958186
 20
-128.138168
 42
0.000000
 10
-157.702136
 20
-125.361711
 42
0.339454
 10
-159.151025
 20
-124.249940
 42
0.000000
 10
-161.500033
 20
-124.249939
 42
0.000000
  0
LWPOLYLINE
  5
432
100
AcDbEntity
  8
Detail
  6
CONTINUOUS
 62
     3
100
AcDbPolyline
 90
     2
 10
-163.500033
 20
-122.249939
 42
0.000000
 10
-163.500034
 20
-113.749940
 42
0.000000
  0
LWPOLYLINE
  5
435
100
AcDbEntity
  8
Detail
  6
CONTINUOUS
 62
     3
100
AcDbPolyline
 90
     2
 10
-163.500033
 20
-122.249939
 42
0.414214
 10
-161.500033
 20
-124.249939
 42
0.000000
  0
LWPOLYLINE
  5
438
100
AcDbEntity
  8
Detail
  6
CONTINUOUS
 62
     3
100
AcDbPolyline
 90
     3
 10
-163.500033
 20
-113.749939
 42
0.414213
 10
-165.000034
 20
-112.249939
 42
0.000000
 10
-188.500033
 20
-112.249939
 42
0.000000
  0
LWPOLYLINE
  5
43C
100
AcDbEntity
  8
Detail
  6
CONTINUOUS
 62
     3
100
AcDbPolyline
 90
     2
 10
-190.500033
 20
-110.249939
 42
0.000000
 10
-190.500034
 20
-93.749940
 42
0.000000
  0
LWPOLYLINE
  5
43F
100
AcDbEntity
  8
Detail
  6
CONTINUOUS
 62
     3
100
AcDbPolyline
 90
     2
 10
-190.500033
 20
-110.249939
 42
0.414214
 10
-188.500033
 20
-112.249939
 42
0.000000
  0
LWPOLYLINE
  5
442
100
AcDbEntity
  8
Detail
  6
CONTINUOUS
 62
     3
100
AcDbPolyline
 90
    36
 10
-190.500033
 20
-93.749940
 42
0.414214
 10
-192.000034
 20
-92.249939
 42
0.000000
 10
-208.000071
 20
-92.249940
 42
0.414214
 10
-210.500071
 20
-94.749940
 42
0.000000
 10
-210.500071
 20
-144.749940
 42
0.414214
 10
-208.000071
 20
-147.249940
 42
0.000000
 10
-206.500071
 20
-147.249940
 42
0.414214
 10
-205.500071
 20
-146.249940
 42
0.000000
 10
-205.500071
 20
-143.249940
 42
0.000000
 10
-200.000071
 20
-143.249940
 42
0.000000
 10
-200.000071
 20
-146.249940
 42
0.414214
 10
-199.000071
 20
-147.249940
 42
0.000000
 10
-175.767398
 20
-147.249940
 42
0.339454
 10
-174.801472
 20
-146.508759
 42
0.000000
 10
-173.789574
 20
-142.732302
 42
-0.339454
 10
-171.857722
 20
-141.249940
 42
0.000000
 10
-168.642420
 20
-141.249940
 42
-0.339454
 10
-166.710569
 20
-142.732302
 42
0.000000
 10
-165.698670
 20
-146.508759
 42
0.339454
 10
-164.732744
 20
-147.249940
 42
0.000000
 10
-162.748403
 20
-147.249940
 42
-0.576922
 10
-160.500071
 20
-148.549940
 42
0.000000
 10
-160.500071
 20
-156.749940
 42
0.000000
 10
-160.000071
 20
-157.249940
 42
0.000000
 10
-156.632452
 20
-157.249940
 42
-0.263447
 10
-154.917466
 20
-158.220948
 42
0.000000
 10
-154.000071
 20
-159.749940
 42
0.000000
 10
-154.000071
 20
-160.749940
 42
-0.414214
 10
-154.500071
 20
-161.249940
 42
0.000000
 10
-155.000071
 20
-161.249940
 42
0.414214
 10
-155.500071
 20
-161.749940
 42
0.000000
 10
-155.500071
 20
-164.270144
 42
0.356394
 10
-154.700071
 20
-165.249940
 42
0.000000
 10
-143.943526
 20
-160.234080
 42
0.291473
 10
-142.500071
 20
-157.968311
 42
0.000000
 10
-142.500034
 20
-138.722419
 42
0.000000
  0
LWPOLYLINE
  5
467
100
AcDbEntity
  8
Detail
  6
CONTINUOUS
 62
     4
100
AcDbPolyline
 90
     4
 10
-154.700071
 20
-165.249939
 42
0.000000
 10
-160.500027
 20
-167.249939
 42
0.000000
 10
-160.500027
 20
-158.249939
 42
-0.414213
 10
-159.500027
 20
-157.249939
 42
0.000000
  0
ENDBLK
  5
46C
100
AcDbEntity
  8
0
100
AcDbBlockEnd
  0
BLOCK
  5
46D
100
AcDbEntity
  8
Detail
100
AcDbBlockBegin
  2
B-53
 70
    66
 10
0.000000
 20
0.000000
 30
0.000000
  0
MTEXT
  5
46E
100
AcDbEntity
  8
Detail
 62
     7
100
AcDbMText
 10
-211.093768
 20
-225.937628
 30
0.000000
 40
3.749990
 41
353.428963
 71
     7
 72
     5
  1
Capatect Details sind allgemeine planerische Vorschläge. Sie stellen schematisch die Ausführung dar. Ihnen zugrunde liegen die entsprechenden 
  7
Arial
 50
0.000000
  0
MTEXT
  5
46F
100
AcDbEntity
  8
Detail
 62
     7
100
AcDbMText
 10
-211.093768
 20
-231.562613
 30
0.000000
 40
3.749990
 41
392.764473
 71
     7
 72
     5
  1
Produktdatenblätter sowie Systemzulassungen. Die Möglichkeit der Detailanwendung sowie deren Vollständigkeit sind im speziellen Anwendungsfall vom Planer / 
  7
Arial
 50
0.000000
  0
MTEXT
  5
470
100
AcDbEntity
  8
Detail
 62
     7
100
AcDbMText
 10
-211.093768
 20
-237.187598
 30
0.000000
 40
3.749990
 41
107.887184
 71
     7
 72
     5
  1
Unternehmer eigenverantwortlich zu prüfen. 
  7
Arial
 50
0.000000
  0
ENDBLK
  5
471
100
AcDbEntity
  8
0
100
AcDbBlockEnd
  0
BLOCK
  5
472
100
AcDbEntity
  8
Detail
100
AcDbBlockBegin
  2
B-54
 70
    66
 10
0.000000
 20
0.000000
 30
0.000000
  0
LWPOLYLINE
  5
473
100
AcDbEntity
  8
Detail
  6
CONTINUOUS
 62
     6
100
AcDbPolyline
 90
     2
 10
237.500023
 20
-246.249941
 42
0.000000
 10
-237.500018
 20
-246.249941
 42
0.000000
  0
ENDBLK
  5
476
100
AcDbEntity
  8
0
100
AcDbBlockEnd
  0
BLOCK
  5
477
100
AcDbEntity
  8
Detail
100
AcDbBlockBegin
  2
B-55
 70
    66
 10
0.000000
 20
0.000000
 30
0.000000
  0
MTEXT
  5
478
100
AcDbEntity
  8
Detail
 62
     7
100
AcDbMText
 10
-210.625002
 20
-252.656391
 30
0.000000
 40
5.625000
 41
144.880313
 71
     1
 72
     5
  1
System:	WDVS mit Hartbekleidung 
  7
Arial
 50
0.000000
  0
ENDBLK
  5
479
100
AcDbEntity
  8
0
100
AcDbBlockEnd
  0
BLOCK
  5
47A
100
AcDbEntity
  8
Detail
100
AcDbBlockBegin
  2
B-56
 70
    66
 10
0.000000
 20
0.000000
 30
0.000000
  0
MTEXT
  5
47B
100
AcDbEntity
  8
Detail
 62
     7
100
AcDbMText
 10
-210.625002
 20
-290.156391
 30
0.000000
 40
5.625000
 41
93.023438
 71
     1
 72
     5
  1
Detail:	Vollsturz / Leibung 
  7
Arial
 50
0.000000
  0
ENDBLK
  5
47C
100
AcDbEntity
  8
0
100
AcDbBlockEnd
  0
BLOCK
  5
47D
100
AcDbEntity
  8
Detail
100
AcDbBlockBegin
  2
B-57
 70
    66
 10
0.000000
 20
0.000000
 30
0.000000
  0
MTEXT
  5
47E
100
AcDbEntity
  8
Detail
 62
     7
100
AcDbMText
 10
6.314834
 20
-252.500141
 30
0.000000
 40
5.000000
 41
114.712500
 71
     1
 72
     5
  1
Plannummer:		125-0910
  7
Arial
 50
0.000000
  0
ENDBLK
  5
47F
100
AcDbEntity
  8
0
100
AcDbBlockEnd
  0
BLOCK
  5
480
100
AcDbEntity
  8
Detail
100
AcDbBlockBegin
  2
B-58
 70
    66
 10
0.000000
 20
0.000000
 30
0.000000
  0
MTEXT
  5
481
100
AcDbEntity
  8
Detail
 62
     7
100
AcDbMText
 10
6.314834
 20
-277.500141
 30
0.000000
 40
5.000000
 41
91.035000
 71
     1
 72
     5
  1
Massstab:		ca. 1:2,5
  7
Arial
 50
0.000000
  0
ENDBLK
  5
482
100
AcDbEntity
  8
0
100
AcDbBlockEnd
  0
BLOCK
  5
483
100
AcDbEntity
  8
Detail
100
AcDbBlockBegin
  2
B-59
 70
    66
 10
0.000000
 20
0.000000
 30
0.000000
  0
MTEXT
  5
484
100
AcDbEntity
  8
Detail
 62
     7
100
AcDbMText
 10
6.314834
 20
-302.500141
 30
0.000000
 40
5.000000
 41
99.435000
 71
     1
 72
     5
  1
Aktualisierung:	14.07.2016
  7
Arial
 50
0.000000
  0
ENDBLK
  5
485
100
AcDbEntity
  8
0
100
AcDbBlockEnd
  0
BLOCK
  5
486
100
AcDbEntity
  8
Detail
100
AcDbBlockBegin
  2
B-60
 70
    66
 10
0.000000
 20
0.000000
 30
0.000000
  0
LWPOLYLINE
  5
487
100
AcDbEntity
  8
Detail
  6
CONTINUOUS
 62
     6
100
AcDbPolyline
 90
     2
 10
-20.560166
 20
-321.249941
 42
0.000000
 10
-20.560166
 20
-246.249941
 42
0.000000
  0
LWPOLYLINE
  5
48A
100
AcDbEntity
  8
Detail
  6
CONTINUOUS
 62
     6
100
AcDbPolyline
 90
     2
 10
-237.500018
 20
-321.249941
 42
0.000000
 10
120.969928
 20
-321.249941
 42
0.000000
  0
LWPOLYLINE
  5
48D
100
AcDbEntity
  8
Detail
  6
CONTINUOUS
 62
     6
100
AcDbPolyline
 90
     2
 10
-20.560166
 20
-271.249941
 42
0.000000
 10
120.969928
 20
-271.249941
 42
0.000000
  0
LWPOLYLINE
  5
490
100
AcDbEntity
  8
Detail
  6
CONTINUOUS
 62
     6
100
AcDbPolyline
 90
     2
 10
-20.560166
 20
-296.249941
 42
0.000000
 10
120.969928
 20
-296.249941
 42
0.000000
  0
ENDBLK
  5
493
100
AcDbEntity
  8
0
100
AcDbBlockEnd
  0
BLOCK
  5
494
100
AcDbEntity
  8
Detail
100
AcDbBlockBegin
  2
B-61
 70
    66
 10
0.000000
 20
0.000000
 30
0.000000
  0
LWPOLYLINE
  5
495
100
AcDbEntity
  8
Detail
  6
CONTINUOUS
 62
     6
100
AcDbPolyline
 90
     2
 10
-20.560166
 20
-283.749941
 42
0.000000
 10
-237.500018
 20
-283.749941
 42
0.000000
  0
ENDBLK
  5
498
100
AcDbEntity
  8
0
100
AcDbBlockEnd
  0
BLOCK
  5
499
100
AcDbEntity
  8
Detail
100
AcDbBlockBegin
  2
B-62
 70
    66
 10
0.000000
 20
0.000000
 30
0.000000
  0
LWPOLYLINE
  5
49A
100
AcDbEntity
  8
Detail
  6
CONTINUOUS
 62
     6
100
AcDbPolyline
 90
     2
 10
120.969928
 20
-346.249941
 42
0.000000
 10
120.969928
 20
-246.249941
 42
0.000000
  0
ENDBLK
  5
49D
100
AcDbEntity
  8
0
100
AcDbBlockEnd
  0
BLOCK
  5
49E
100
AcDbEntity
  8
Detail
100
AcDbBlockBegin
  2
B-63
 70
    66
 10
0.000000
 20
0.000000
 30
0.000000
  0
LWPOLYLINE
  5
49F
100
AcDbEntity
  8
Detail
  6
CONTINUOUS
 62
     6
100
AcDbPolyline
 90
     5
 10
-237.500018
 20
-346.249941
 42
0.000000
 10
237.500023
 20
-346.249941
 42
0.000000
 10
237.500023
 20
346.250078
 42
0.000000
 10
-237.500018
 20
346.250078
 42
0.000000
 10
-237.500018
 20
-346.249941
 42
0.000000
  0
ENDBLK
  5
4A5
100
AcDbEntity
  8
0
100
AcDbBlockEnd
  0
BLOCK
  5
4A6
100
AcDbEntity
  8
Detail
100
AcDbBlockBegin
  2
B-64
 70
    66
 10
0.000000
 20
0.000000
 30
0.000000
  0
LWPOLYLINE
  5
4A7
100
AcDbEntity
  8
Detail
  6
CONTINUOUS
 62
     9
100
AcDbPolyline
 90
     2
 10
-21.000018
 20
61.750059
 42
0.000000
 10
-21.000018
 20
47.770646
 42
0.000000
  0
LWPOLYLINE
  5
4AA
100
AcDbEntity
  8
Detail
  6
CONTINUOUS
 62
     9
100
AcDbPolyline
 90
    83
 10
7.499982
 20
24.750059
 42
0.000000
 10
7.999982
 20
24.750059
 42
0.000000
 10
8.999982
 20
29.750059
 42
0.000000
 10
8.999982
 20
79.750059
 42
0.000000
 10
7.999982
 20
84.750059
 42
0.000000
 10
7.499982
 20
84.750059
 42
0.000000
 10
7.499982
 20
67.750059
 42
0.000000
 10
6.249982
 20
64.000059
 42
0.000000
 10
2.499982
 20
62.750059
 42
0.000000
 10
-21.000018
 20
61.750059
 42
0.000000
 10
-27.000018
 20
59.250059
 42
0.000000
 10
-89.462215
 20
58.710059
 42
0.000000
 10
-90.828158
 20
58.463050
 42
0.000000
 10
-90.903911
 20
58.710059
 42
0.000000
 10
-93.686215
 20
58.710059
 42
0.000000
 10
-95.052158
 20
58.463050
 42
0.000000
 10
-95.127911
 20
58.710059
 42
0.000000
 10
-97.910215
 20
58.710059
 42
0.000000
 10
-99.276158
 20
58.463050
 42
0.000000
 10
-99.351827
 20
58.705259
 42
0.000000
 10
-102.134215
 20
58.710059
 42
0.000000
 10
-103.500158
 20
58.463050
 42
0.000000
 10
-103.575911
 20
58.710059
 42
0.000000
 10
-106.358215
 20
58.710059
 42
0.000000
 10
-107.724158
 20
58.463050
 42
0.000000
 10
-107.799911
 20
58.710059
 42
0.000000
 10
-110.582215
 20
58.710059
 42
0.000000
 10
-111.948158
 20
58.463050
 42
0.000000
 10
-112.023911
 20
58.710059
 42
0.000000
 10
-114.806215
 20
58.710059
 42
0.000000
 10
-116.172158
 20
58.463050
 42
0.000000
 10
-116.247911
 20
58.710059
 42
0.000000
 10
-119.030215
 20
58.710059
 42
0.000000
 10
-120.396158
 20
58.463050
 42
0.000000
 10
-120.471911
 20
58.710059
 42
0.000000
 10
-123.254215
 20
58.710059
 42
0.000000
 10
-124.458372
 20
58.427627
 42
0.000000
 10
-124.917355
 20
58.590058
 42
0.000000
 10
-125.894215
 20
58.155803
 42
0.000000
 10
-126.134215
 20
57.630059
 42
0.000000
 10
-126.902215
 20
57.630059
 42
0.000000
 10
-128.420108
 20
57.089091
 42
0.000000
 10
-129.253725
 20
55.710059
 42
0.000000
 10
-131.000018
 20
54.750059
 42
0.000000
 10
-129.253725
 20
53.790059
 42
0.000000
 10
-128.420108
 20
52.411027
 42
0.000000
 10
-127.157414
 20
51.883666
 42
0.000000
 10
-126.134215
 20
51.870059
 42
0.000000
 10
-125.894215
 20
51.344315
 42
0.000000
 10
-125.142059
 20
50.910059
 42
0.000000
 10
-124.692646
 20
50.910059
 42
0.000000
 10
-124.458372
 20
51.072491
 42
0.000000
 10
-123.254215
 20
50.790059
 42
0.000000
 10
-120.471911
 20
50.790059
 42
0.000000
 10
-120.396158
 20
51.037068
 42
0.000000
 10
-119.030215
 20
50.790059
 42
0.000000
 10
-116.247911
 20
50.790059
 42
0.000000
 10
-116.172158
 20
51.037068
 42
0.000000
 10
-114.806215
 20
50.790059
 42
0.000000
 10
-112.023911
 20
50.790059
 42
0.000000
 10
-111.948158
 20
51.037068
 42
0.000000
 10
-110.582215
 20
50.790059
 42
0.000000
 10
-107.799911
 20
50.790059
 42
0.000000
 10
-107.724158
 20
51.037068
 42
0.000000
 10
-106.358215
 20
50.790059
 42
0.000000
 10
-103.575911
 20
50.790059
 42
0.000000
 10
-103.500158
 20
51.037068
 42
0.000000
 10
-102.134215
 20
50.790059
 42
0.000000
 10
-99.351827
 20
50.794859
 42
0.000000
 10
-99.276158
 20
51.037068
 42
0.000000
 10
-97.910215
 20
50.790059
 42
0.000000
 10
-95.127911
 20
50.790059
 42
0.000000
 10
-95.052158
 20
51.037068
 42
0.000000
 10
-93.686215
 20
50.790059
 42
0.000000
 10
-90.903911
 20
50.790059
 42
0.000000
 10
-90.828158
 20
51.037068
 42
0.000000
 10
-89.462215
 20
50.790059
 42
0.000000
 10
-27.000018
 20
50.250059
 42
0.000000
 10
-21.000018
 20
47.750059
 42
0.000000
 10
2.499982
 20
46.750059
 42
0.000000
 10
6.249982
 20
45.500059
 42
0.000000
 10
7.499982
 20
41.750059
 42
0.000000
 10
7.499982
 20
24.750059
 42
0.000000
  0
LWPOLYLINE
  5
4FE
100
AcDbEntity
  8
Detail
  6
CONTINUOUS
 62
     9
100
AcDbPolyline
 90
   203
 10
-131.000018
 20
54.750059
 42
0.000000
 10
-128.886942
 20
55.625324
 42
0.000000
 10
-128.385367
 20
56.494078
 42
0.000000
 10
-127.996692
 20
55.994078
 42
0.000000
 10
-126.916355
 20
56.441568
 42
0.000000
 10
-126.414780
 20
57.310322
 42
0.000000
 10
-126.026105
 20
56.810322
 42
0.000000
 10
-125.447328
 20
57.050059
 42
0.000000
 10
-124.846289
 20
57.050059
 42
0.000000
 10
-124.557614
 20
57.550059
 42
0.000000
 10
-124.168939
 20
57.050059
 42
0.000000
 10
-123.036289
 20
57.050059
 42
0.000000
 10
-122.747614
 20
57.550059
 42
0.000000
 10
-122.358939
 20
57.050059
 42
0.000000
 10
-121.226289
 20
57.050059
 42
0.000000
 10
-120.937614
 20
57.550059
 42
0.000000
 10
-120.548939
 20
57.050059
 42
0.000000
 10
-119.416289
 20
57.050059
 42
0.000000
 10
-119.127614
 20
57.550059
 42
0.000000
 10
-118.738939
 20
57.050059
 42
0.000000
 10
-117.606289
 20
57.050059
 42
0.000000
 10
-117.317614
 20
57.550059
 42
0.000000
 10
-116.928939
 20
57.050059
 42
0.000000
 10
-115.796289
 20
57.050059
 42
0.000000
 10
-115.507614
 20
57.550059
 42
0.000000
 10
-115.118939
 20
57.050059
 42
0.000000
 10
-113.986289
 20
57.050059
 42
0.000000
 10
-113.697614
 20
57.550059
 42
0.000000
 10
-113.308939
 20
57.050059
 42
0.000000
 10
-112.176289
 20
57.050059
 42
0.000000
 10
-111.887614
 20
57.550059
 42
0.000000
 10
-111.498939
 20
57.050059
 42
0.000000
 10
-110.366289
 20
57.050059
 42
0.000000
 10
-110.077614
 20
57.550059
 42
0.000000
 10
-109.688939
 20
57.050059
 42
0.000000
 10
-108.556289
 20
57.050059
 42
0.000000
 10
-108.267614
 20
57.550059
 42
0.000000
 10
-107.878939
 20
57.050059
 42
0.000000
 10
-106.746289
 20
57.050059
 42
0.000000
 10
-106.457614
 20
57.550059
 42
0.000000
 10
-106.068939
 20
57.050059
 42
0.000000
 10
-104.936289
 20
57.050059
 42
0.000000
 10
-104.647614
 20
57.550059
 42
0.000000
 10
-104.258939
 20
57.050059
 42
0.000000
 10
-103.126289
 20
57.050059
 42
0.000000
 10
-102.837614
 20
57.550059
 42
0.000000
 10
-102.448939
 20
57.050059
 42
0.000000
 10
-101.316289
 20
57.050059
 42
0.000000
 10
-101.027614
 20
57.550059
 42
0.000000
 10
-100.638939
 20
57.050059
 42
0.000000
 10
-99.506289
 20
57.050059
 42
0.000000
 10
-99.217614
 20
57.550059
 42
0.000000
 10
-98.828939
 20
57.050059
 42
0.000000
 10
-97.696289
 20
57.050059
 42
0.000000
 10
-97.407614
 20
57.550059
 42
0.000000
 10
-97.018939
 20
57.050059
 42
0.000000
 10
-95.886289
 20
57.050059
 42
0.000000
 10
-95.597614
 20
57.550059
 42
0.000000
 10
-95.186425
 20
57.050059
 42
0.000000
 10
-94.076289
 20
57.050059
 42
0.000000
 10
-93.787614
 20
57.550059
 42
0.000000
 10
-93.398939
 20
57.050059
 42
0.000000
 10
-92.266289
 20
57.050059
 42
0.000000
 10
-91.977614
 20
57.550059
 42
0.000000
 10
-91.588939
 20
57.050059
 42
0.000000
 10
-90.456289
 20
57.050059
 42
0.000000
 10
-90.167614
 20
57.550059
 42
0.000000
 10
-89.778939
 20
57.050059
 42
0.000000
 10
-88.646289
 20
57.050059
 42
0.000000
 10
-88.357614
 20
57.550059
 42
0.000000
 10
-87.968939
 20
57.050059
 42
0.000000
 10
-86.836289
 20
57.050059
 42
0.000000
 10
-86.547614
 20
57.550059
 42
0.000000
 10
-86.158939
 20
57.050059
 42
0.000000
 10
-85.026289
 20
57.050059
 42
0.000000
 10
-84.737614
 20
57.550059
 42
0.000000
 10
-84.348939
 20
57.050059
 42
0.000000
 10
-83.216289
 20
57.050059
 42
0.000000
 10
-82.927614
 20
57.550059
 42
0.000000
 10
-82.538939
 20
57.050059
 42
0.000000
 10
-81.406289
 20
57.050059
 42
0.000000
 10
-81.117614
 20
57.550059
 42
0.000000
 10
-80.728939
 20
57.050059
 42
0.000000
 10
-79.596289
 20
57.050059
 42
0.000000
 10
-79.307614
 20
57.550059
 42
0.000000
 10
-78.918939
 20
57.050059
 42
0.000000
 10
-77.786289
 20
57.050059
 42
0.000000
 10
-77.497614
 20
57.550059
 42
0.000000
 10
-77.108939
 20
57.050059
 42
0.000000
 10
-75.976289
 20
57.050059
 42
0.000000
 10
-75.687614
 20
57.550059
 42
0.000000
 10
-75.298939
 20
57.050059
 42
0.000000
 10
-74.166289
 20
57.050059
 42
0.000000
 10
-73.877614
 20
57.550059
 42
0.000000
 10
-73.488939
 20
57.050059
 42
0.000000
 10
-72.356289
 20
57.050059
 42
0.000000
 10
-72.067614
 20
57.550059
 42
0.000000
 10
-71.678939
 20
57.050059
 42
0.000000
 10
-71.000018
 20
57.050059
 42
0.000000
 10
-70.826813
 20
57.150059
 42
0.000000
 10
-27.000018
 20
59.250059
 42
0.000000
 10
-27.000018
 20
50.250059
 42
0.000000
 10
-70.826813
 20
52.350059
 42
0.000000
 10
-71.000018
 20
52.450059
 42
0.000000
 10
-71.162614
 20
51.950059
 42
0.000000
 10
-71.451289
 20
52.450059
 42
0.000000
 10
-72.583939
 20
52.450059
 42
0.000000
 10
-72.972614
 20
51.950059
 42
0.000000
 10
-73.261289
 20
52.450059
 42
0.000000
 10
-74.393939
 20
52.450059
 42
0.000000
 10
-74.782614
 20
51.950059
 42
0.000000
 10
-75.071289
 20
52.450059
 42
0.000000
 10
-76.203939
 20
52.450059
 42
0.000000
 10
-76.592614
 20
51.950059
 42
0.000000
 10
-76.881289
 20
52.450059
 42
0.000000
 10
-78.013939
 20
52.450059
 42
0.000000
 10
-78.402614
 20
51.950059
 42
0.000000
 10
-78.691289
 20
52.450059
 42
0.000000
 10
-79.823939
 20
52.450059
 42
0.000000
 10
-80.212614
 20
51.950059
 42
0.000000
 10
-80.501289
 20
52.450059
 42
0.000000
 10
-81.633939
 20
52.450059
 42
0.000000
 10
-82.022614
 20
51.950059
 42
0.000000
 10
-82.311289
 20
52.450059
 42
0.000000
 10
-83.443939
 20
52.450059
 42
0.000000
 10
-83.832614
 20
51.950059
 42
0.000000
 10
-84.121289
 20
52.450059
 42
0.000000
 10
-85.253939
 20
52.450059
 42
0.000000
 10
-85.642614
 20
51.950059
 42
0.000000
 10
-85.931289
 20
52.450059
 42
0.000000
 10
-87.063939
 20
52.450059
 42
0.000000
 10
-87.452614
 20
51.950059
 42
0.000000
 10
-87.741289
 20
52.450059
 42
0.000000
 10
-88.873939
 20
52.450059
 42
0.000000
 10
-89.262614
 20
51.950059
 42
0.000000
 10
-89.551289
 20
52.450059
 42
0.000000
 10
-90.683939
 20
52.450059
 42
0.000000
 10
-91.072614
 20
51.950059
 42
0.000000
 10
-91.361289
 20
52.450059
 42
0.000000
 10
-92.493939
 20
52.450059
 42
0.000000
 10
-92.882614
 20
51.950059
 42
0.000000
 10
-93.171289
 20
52.450059
 42
0.000000
 10
-94.303939
 20
52.450059
 42
0.000000
 10
-94.692614
 20
51.950059
 42
0.000000
 10
-94.981289
 20
52.450059
 42
0.000000
 10
-96.113939
 20
52.450059
 42
0.000000
 10
-96.502614
 20
51.950059
 42
0.000000
 10
-96.791289
 20
52.450059
 42
0.000000
 10
-97.923939
 20
52.450059
 42
0.000000
 10
-98.312614
 20
51.950059
 42
0.000000
 10
-98.601289
 20
52.450059
 42
0.000000
 10
-99.733939
 20
52.450059
 42
0.000000
 10
-100.122614
 20
51.950059
 42
0.000000
 10
-100.411289
 20
52.450059
 42
0.000000
 10
-101.543939
 20
52.450059
 42
0.000000
 10
-101.932614
 20
51.950059
 42
0.000000
 10
-102.221289
 20
52.450059
 42
0.000000
 10
-103.353939
 20
52.450059
 42
0.000000
 10
-103.742614
 20
51.950059
 42
0.000000
 10
-104.031289
 20
52.450059
 42
0.000000
 10
-105.163939
 20
52.450059
 42
0.000000
 10
-105.552614
 20
51.950059
 42
0.000000
 10
-105.841289
 20
52.450059
 42
0.000000
 10
-106.973939
 20
52.450059
 42
0.000000
 10
-107.362614
 20
51.950059
 42
0.000000
 10
-107.651289
 20
52.450059
 42
0.000000
 10
-108.783939
 20
52.450059
 42
0.000000
 10
-109.172614
 20
51.950059
 42
0.000000
 10
-109.461289
 20
52.450059
 42
0.000000
 10
-110.593939
 20
52.450059
 42
0.000000
 10
-110.982614
 20
51.950059
 42
0.000000
 10
-111.271289
 20
52.450059
 42
0.000000
 10
-112.403939
 20
52.450059
 42
0.000000
 10
-112.792614
 20
51.950059
 42
0.000000
 10
-113.081289
 20
52.450059
 42
0.000000
 10
-114.213939
 20
52.450059
 42
0.000000
 10
-114.602614
 20
51.950059
 42
0.000000
 10
-114.891289
 20
52.450059
 42
0.000000
 10
-116.023939
 20
52.450059
 42
0.000000
 10
-116.412614
 20
51.950059
 42
0.000000
 10
-116.701289
 20
52.450059
 42
0.000000
 10
-117.833939
 20
52.450059
 42
0.000000
 10
-118.222614
 20
51.950059
 42
0.000000
 10
-118.511289
 20
52.450059
 42
0.000000
 10
-119.643939
 20
52.450059
 42
0.000000
 10
-120.032614
 20
51.950059
 42
0.000000
 10
-120.321289
 20
52.450059
 42
0.000000
 10
-121.453939
 20
52.450059
 42
0.000000
 10
-121.842614
 20
51.950059
 42
0.000000
 10
-122.131289
 20
52.450059
 42
0.000000
 10
-123.263939
 20
52.450059
 42
0.000000
 10
-123.652614
 20
51.950059
 42
0.000000
 10
-123.941289
 20
52.450059
 42
0.000000
 10
-125.073939
 20
52.450059
 42
0.000000
 10
-125.462614
 20
51.950059
 42
0.000000
 10
-125.846829
 20
52.615538
 42
0.000000
 10
-126.775689
 20
53.000285
 42
0.000000
 10
-127.164364
 20
52.500285
 42
0.000000
 10
-127.665938
 20
53.369038
 42
0.000000
 10
-128.449302
 20
53.693518
 42
0.000000
 10
-128.837977
 20
53.193518
 42
0.000000
 10
-129.339552
 20
54.062272
 42
0.000000
 10
-131.000018
 20
54.750059
 42
0.000000
  0
ENDBLK
  5
5CA
100
AcDbEntity
  8
0
100
AcDbBlockEnd
  0
BLOCK
  5
5CB
100
AcDbEntity
  8
Detail
100
AcDbBlockBegin
  2
B-66
 70
    66
 10
0.000000
 20
0.000000
 30
0.000000
  0
MTEXT
  5
5CC
100
AcDbEntity
  8
Detail
 62
     7
100
AcDbMText
 10
-85.625025
 20
-332.500016
 30
0.000000
 40
4.999980
 41
72.134711
 71
     7
 72
     5
  1
Telefon 043 399 42 22
  7
Arial
 50
0.000000
  0
MTEXT
  5
5CD
100
AcDbEntity
  8
Detail
 62
     7
100
AcDbMText
 10
-85.625025
 20
-339.999986
 30
0.000000
 40
4.999980
 41
71.767213
 71
     7
 72
     5
  1
Telefax 043 399 42 23
  7
Arial
 50
0.000000
  0
ENDBLK
  5
5CE
100
AcDbEntity
  8
0
100
AcDbBlockEnd
  0
BLOCK
  5
5CF
100
AcDbEntity
  8
Detail
100
AcDbBlockBegin
  2
B-67
 70
    66
 10
0.000000
 20
0.000000
 30
0.000000
  0
MTEXT
  5
5D0
100
AcDbEntity
  8
Detail
 62
     7
100
AcDbMText
 10
-210.625009
 20
-332.500016
 30
0.000000
 40
4.999980
 41
58.117268
 71
     7
 72
     5
  1
DAW Schweiz AG
  7
Arial
 50
0.000000
  0
MTEXT
  5
5D1
100
AcDbEntity
  8
Detail
 62
     7
100
AcDbMText
 10
-210.625009
 20
-339.999986
 30
0.000000
 40
4.999980
 41
108.149567
 71
     7
 72
     5
  1
Gewerbestrasse 6, 8606 Nänikon
  7
Arial
 50
0.000000
  0
ENDBLK
  5
5D2
100
AcDbEntity
  8
0
100
AcDbBlockEnd
  0
BLOCK
  5
5D3
100
AcDbEntity
  8
Detail
100
AcDbBlockBegin
  2
B-68
 70
    66
 10
0.000000
 20
0.000000
 30
0.000000
  0
MTEXT
  5
5D4
100
AcDbEntity
  8
Detail
 62
     7
100
AcDbMText
 10
39.374975
 20
-332.500019
 30
0.000000
 40
4.999982
 41
51.922313
 71
     7
 72
     5
  1
info@daw.swiss
  7
Arial
 50
0.000000
  0
MTEXT
  5
5D5
100
AcDbEntity
  8
Detail
 62
     7
100
AcDbMText
 10
39.374975
 20
-339.999993
 30
0.000000
 40
4.999982
 41
54.599803
 71
     7
 72
     5
  1
www.capatect.ch
  7
Arial
 50
0.000000
  0
ENDBLK
  5
5D6
100
AcDbEntity
  8
0
100
AcDbBlockEnd
  0
BLOCK
  5
5D7
100
AcDbEntity
  8
SCHRAFF
100
AcDbBlockBegin
  2
B-69
 70
    66
 10
0.000000
 20
0.000000
 30
0.000000
  0
HATCH
  5
5D8
100
AcDbEntity
  8
SCHRAFF
 62
     7
440
     0
100
AcDbHatch
 10
0.000000
 20
0.000000
 30
0.000000
210
0.000000
220
0.000000
230
1.000000
  2
SOLID
 70
     1
 71
     1
 91
     1
 92
    18
 72
     1
 73
     0
 93
     3
 10
17.999982
 20
129.750059
 42
1.000000
 10
16.999982
 20
129.750059
 42
1.000000
 10
17.999982
 20
129.750059
 42
0.000000
 97
     0
 75
     0
 76
     1
 98
     0
  0
CIRCLE
  5
5D9
100
AcDbEntity
  8
Detail
  6
CONTINUOUS
 62
     7
100
AcDbCircle
 10
17.499982
 20
129.750059
 40
0.500000
  0
LWPOLYLINE
  5
5DA
100
AcDbEntity
  8
Detail
  6
CONTINUOUS
 62
     7
100
AcDbPolyline
 90
     2
 10
77.500023
 20
129.750059
 42
0.000000
 10
17.412323
 20
129.750059
 42
0.000000
  0
ENDBLK
  5
5DD
100
AcDbEntity
  8
0
100
AcDbBlockEnd
  0
BLOCK
  5
5DE
100
AcDbEntity
  8
Detail
100
AcDbBlockBegin
  2
B-70
 70
    66
 10
0.000000
 20
0.000000
 30
0.000000
  0
MTEXT
  5
5DF
100
AcDbEntity
  8
Detail
 62
     7
100
AcDbMText
 10
79.375023
 20
132.250059
 30
0.000000
 40
5.000000
 41
40.897500
 71
     1
 72
     5
  1
Fugenmörtel
  7
Arial
 50
0.000000
  0
ENDBLK
  5
5E0
100
AcDbEntity
  8
0
100
AcDbBlockEnd
  0
BLOCK
  5
5E1
100
AcDbEntity
  8
Detail
100
AcDbBlockBegin
  2
B-71
 70
    66
 10
0.000000
 20
0.000000
 30
0.000000
  0
LWPOLYLINE
  5
5E2
100
AcDbEntity
  8
Detail
  6
CONTINUOUS
 62
     6
100
AcDbPolyline
 90
     2
 10
-132.500034
 20
-128.812642
 42
0.000000
 10
-132.500034
 20
-192.988534
 42
0.000000
  0
LWPOLYLINE
  5
5E5
100
AcDbEntity
  8
Detail
  6
CONTINUOUS
 62
     6
100
AcDbPolyline
 90
     2
 10
-209.492255
 20
-161.820661
 42
0.000000
 10
-209.492255
 20
-192.988534
 42
0.000000
  0
LWPOLYLINE
  5
5E8
100
AcDbEntity
  8
Detail
  6
CONTINUOUS
 62
     6
100
AcDbPolyline
 90
     2
 10
-142.500071
 20
-161.718311
 42
0.000000
 10
-142.500071
 20
-192.988534
 42
0.000000
  0
ENDBLK
  5
5EB
100
AcDbEntity
  8
0
100
AcDbBlockEnd
  0
BLOCK
  5
5EC
100
AcDbEntity
  8
Detail
100
AcDbBlockBegin
  2
B-72
 70
    66
 10
0.000000
 20
0.000000
 30
0.000000
  0
LWPOLYLINE
  5
5ED
100
AcDbEntity
  8
Detail
  6
CONTINUOUS
 62
     4
100
AcDbPolyline
 90
     2
 10
22.499982
 20
124.750059
 42
-0.400000
 10
22.499982
 20
134.750059
 42
0.000000
  0
ENDBLK
  5
5F0
100
AcDbEntity
  8
0
100
AcDbBlockEnd
  0
BLOCK
  5
5F1
100
AcDbEntity
  8
Detail
100
AcDbBlockBegin
  2
B-73
 70
    66
 10
0.000000
 20
0.000000
 30
0.000000
  0
LWPOLYLINE
  5
5F2
100
AcDbEntity
  8
Detail
  6
CONTINUOUS
 62
     4
100
AcDbPolyline
 90
     2
 10
4.499982
 20
-80.249941
 42
-0.400000
 10
14.499982
 20
-80.249941
 42
0.000000
  0
ENDBLK
  5
5F5
100
AcDbEntity
  8
0
100
AcDbBlockEnd
  0
BLOCK
  5
5F6
100
AcDbEntity
  8
Detail
100
AcDbBlockBegin
  2
B-74
 70
    66
 10
0.000000
 20
0.000000
 30
0.000000
  0
LWPOLYLINE
  5
5F7
100
AcDbEntity
  8
Detail
  6
CONTINUOUS
 62
     4
100
AcDbPolyline
 90
     2
 10
-132.500018
 20
-80.249941
 42
-0.400000
 10
-122.500018
 20
-80.249941
 42
0.000000
  0
ENDBLK
  5
5FA
100
AcDbEntity
  8
0
100
AcDbBlockEnd
  0
BLOCK
  5
5FB
100
AcDbEntity
  8
SCHRAFF
100
AcDbBlockBegin
  2
B-75
 70
    66
 10
0.000000
 20
0.000000
 30
0.000000
  0
HATCH
  5
5FC
100
AcDbEntity
  8
SCHRAFF
 62
     8
440
     0
100
AcDbHatch
 10
0.000000
 20
0.000000
 30
0.000000
210
0.000000
220
0.000000
230
1.000000
  2
SOLID
 70
     1
 71
     1
 91
     1
 92
    18
 72
     1
 73
     0
 93
     5
 10
-127.500018
 20
-60.249941
 42
0.000000
 10
-127.500018
 20
-50.249941
 42
0.000000
 10
-132.500018
 20
-50.249941
 42
0.000000
 10
-132.500018
 20
-60.249941
 42
0.000000
 10
-127.500018
 20
-60.249941
 42
0.000000
 97
     0
 75
     0
 76
     1
 98
     0
  0
LWPOLYLINE
  5
5FD
100
AcDbEntity
  8
Detail
  6
CONTINUOUS
 62
     4
100
AcDbPolyline
 90
     5
 10
-127.500018
 20
-50.249941
 42
0.000000
 10
-132.500018
 20
-50.249941
 42
0.000000
 10
-132.500018
 20
-60.249941
 42
0.000000
 10
-127.500018
 20
-60.249941
 42
0.000000
 10
-127.500018
 20
-50.249941
 42
0.000000
  0
ENDBLK
  5
603
100
AcDbEntity
  8
0
100
AcDbBlockEnd
  0
BLOCK
  5
604
100
AcDbEntity
  8
Detail
100
AcDbBlockBegin
  2
B-76
 70
    66
 10
0.000000
 20
0.000000
 30
0.000000
  0
MTEXT
  5
605
100
AcDbEntity
  8
Detail
 62
     7
100
AcDbMText
 10
79.375023
 20
-142.749941
 30
0.000000
 40
5.000000
 41
134.977500
 71
     1
 72
     5
  1
PE-Rundschnur und elastischer Dichtstoff
  7
Arial
 50
0.000000
  0
ENDBLK
  5
606
100
AcDbEntity
  8
0
100
AcDbBlockEnd
  0
BLOCK
  5
607
100
AcDbEntity
  8
Detail
100
AcDbBlockBegin
  2
B-77
 70
    66
 10
0.000000
 20
0.000000
 30
0.000000
  0
LWPOLYLINE
  5
608
100
AcDbEntity
  8
Detail
  6
CONTINUOUS
 62
     7
100
AcDbPolyline
 90
     3
 10
77.500023
 20
-145.249941
 42
0.000000
 10
-127.500018
 20
-145.249941
 42
0.000000
 10
-127.500018
 20
-67.249941
 42
0.000000
  0
ENDBLK
  5
60C
100
AcDbEntity
  8
0
100
AcDbBlockEnd
  0
BLOCK
  5
60D
100
AcDbEntity
  8
SCHRAFF
100
AcDbBlockBegin
  2
B-78
 70
    66
 10
0.000000
 20
0.000000
 30
0.000000
  0
HATCH
  5
60E
100
AcDbEntity
  8
SCHRAFF
 62
     7
440
     0
100
AcDbHatch
 10
0.000000
 20
0.000000
 30
0.000000
210
0.000000
220
0.000000
230
1.000000
  2
SOLID
 70
     1
 71
     1
 91
     1
 92
    18
 72
     1
 73
     0
 93
     3
 10
-129.500018
 20
-55.249941
 42
1.000000
 10
-130.500018
 20
-55.249941
 42
1.000000
 10
-129.500018
 20
-55.249941
 42
0.000000
 97
     0
 75
     0
 76
     1
 98
     0
  0
CIRCLE
  5
60F
100
AcDbEntity
  8
Detail
  6
CONTINUOUS
 62
     7
100
AcDbCircle
 10
-130.000018
 20
-55.249941
 40
0.500000
  0
ENDBLK
  5
610
100
AcDbEntity
  8
0
100
AcDbBlockEnd
  0
BLOCK
  5
611
100
AcDbEntity
  8
Detail
100
AcDbBlockBegin
  2
B-79
 70
    66
 10
0.000000
 20
0.000000
 30
0.000000
  0
LWPOLYLINE
  5
612
100
AcDbEntity
  8
Detail
  6
CONTINUOUS
 62
     7
100
AcDbPolyline
 90
     4
 10
77.500023
 20
-120.249941
 42
0.000000
 10
-102.500018
 20
-120.249941
 42
0.000000
 10
-102.500018
 20
-55.249941
 42
0.000000
 10
-130.000018
 20
-55.249941
 42
0.000000
  0
ENDBLK
  5
617
100
AcDbEntity
  8
0
100
AcDbBlockEnd
  0
ENDSEC
  0
SECTION
  2
ENTITIES
  0
INSERT
  5
618
100
AcDbEntity
  8
0
100
AcDbBlockReference
  2
B
 10
0.000000
 20
0.000000
 30
0.000000
 41
1.000000
 42
1.000000
 43
1.000000
 50
0.000000
  0
INSERT
  5
619
100
AcDbEntity
  8
0
100
AcDbBlockReference
  2
B-2
 10
0.000000
 20
0.000000
 30
0.000000
 41
1.000000
 42
1.000000
 43
1.000000
 50
0.000000
  0
INSERT
  5
61A
100
AcDbEntity
  8
0
100
AcDbBlockReference
  2
B-3
 10
0.000000
 20
0.000000
 30
0.000000
 41
1.000000
 42
1.000000
 43
1.000000
 50
0.000000
  0
INSERT
  5
61B
100
AcDbEntity
  8
0
100
AcDbBlockReference
  2
B-4
 10
0.000000
 20
0.000000
 30
0.000000
 41
1.000000
 42
1.000000
 43
1.000000
 50
0.000000
  0
INSERT
  5
61C
100
AcDbEntity
  8
0
100
AcDbBlockReference
  2
B-5
 10
0.000000
 20
0.000000
 30
0.000000
 41
1.000000
 42
1.000000
 43
1.000000
 50
0.000000
  0
INSERT
  5
61D
100
AcDbEntity
  8
0
100
AcDbBlockReference
  2
B-6
 10
0.000000
 20
0.000000
 30
0.000000
 41
1.000000
 42
1.000000
 43
1.000000
 50
0.000000
  0
INSERT
  5
61E
100
AcDbEntity
  8
0
100
AcDbBlockReference
  2
B-7
 10
0.000000
 20
0.000000
 30
0.000000
 41
1.000000
 42
1.000000
 43
1.000000
 50
0.000000
  0
INSERT
  5
61F
100
AcDbEntity
  8
0
100
AcDbBlockReference
  2
B-8
 10
0.000000
 20
0.000000
 30
0.000000
 41
1.000000
 42
1.000000
 43
1.000000
 50
0.000000
  0
INSERT
  5
620
100
AcDbEntity
  8
0
100
AcDbBlockReference
  2
B-9
 10
0.000000
 20
0.000000
 30
0.000000
 41
1.000000
 42
1.000000
 43
1.000000
 50
0.000000
  0
INSERT
  5
621
100
AcDbEntity
  8
0
100
AcDbBlockReference
  2
B-10
 10
0.000000
 20
0.000000
 30
0.000000
 41
1.000000
 42
1.000000
 43
1.000000
 50
0.000000
  0
INSERT
  5
622
100
AcDbEntity
  8
0
100
AcDbBlockReference
  2
B-11
 10
0.000000
 20
0.000000
 30
0.000000
 41
1.000000
 42
1.000000
 43
1.000000
 50
0.000000
  0
INSERT
  5
623
100
AcDbEntity
  8
Detail
100
AcDbBlockReference
  2
B-12
 10
0.000000
 20
0.000000
 30
0.000000
 41
1.000000
 42
1.000000
 43
1.000000
 50
0.000000
  0
INSERT
  5
624
100
AcDbEntity
  8
Detail
100
AcDbBlockReference
  2
B-13
 10
0.000000
 20
0.000000
 30
0.000000
 41
1.000000
 42
1.000000
 43
1.000000
 50
0.000000
  0
INSERT
  5
625
100
AcDbEntity
  8
Detail
100
AcDbBlockReference
  2
B-14
 10
0.000000
 20
0.000000
 30
0.000000
 41
1.000000
 42
1.000000
 43
1.000000
 50
0.000000
  0
INSERT
  5
626
100
AcDbEntity
  8
Detail
100
AcDbBlockReference
  2
B-15
 10
0.000000
 20
0.000000
 30
0.000000
 41
1.000000
 42
1.000000
 43
1.000000
 50
0.000000
  0
INSERT
  5
627
100
AcDbEntity
  8
0
100
AcDbBlockReference
  2
B-16
 10
0.000000
 20
0.000000
 30
0.000000
 41
1.000000
 42
1.000000
 43
1.000000
 50
0.000000
  0
INSERT
  5
628
100
AcDbEntity
  8
0
100
AcDbBlockReference
  2
B-17
 10
0.000000
 20
0.000000
 30
0.000000
 41
1.000000
 42
1.000000
 43
1.000000
 50
0.000000
  0
INSERT
  5
629
100
AcDbEntity
  8
Detail
100
AcDbBlockReference
  2
B-18
 10
0.000000
 20
0.000000
 30
0.000000
 41
1.000000
 42
1.000000
 43
1.000000
 50
0.000000
  0
INSERT
  5
62A
100
AcDbEntity
  8
Detail
100
AcDbBlockReference
  2
B-19
 10
0.000000
 20
0.000000
 30
0.000000
 41
1.000000
 42
1.000000
 43
1.000000
 50
0.000000
  0
INSERT
  5
62B
100
AcDbEntity
  8
0
100
AcDbBlockReference
  2
B-20
 10
0.000000
 20
0.000000
 30
0.000000
 41
1.000000
 42
1.000000
 43
1.000000
 50
0.000000
  0
INSERT
  5
62C
100
AcDbEntity
  8
0
100
AcDbBlockReference
  2
B-21
 10
0.000000
 20
0.000000
 30
0.000000
 41
1.000000
 42
1.000000
 43
1.000000
 50
0.000000
  0
INSERT
  5
62D
100
AcDbEntity
  8
Detail
100
AcDbBlockReference
  2
B-22
 10
0.000000
 20
0.000000
 30
0.000000
 41
1.000000
 42
1.000000
 43
1.000000
 50
0.000000
  0
INSERT
  5
62E
100
AcDbEntity
  8
Detail
100
AcDbBlockReference
  2
B-23
 10
0.000000
 20
0.000000
 30
0.000000
 41
1.000000
 42
1.000000
 43
1.000000
 50
0.000000
  0
INSERT
  5
62F
100
AcDbEntity
  8
Detail
100
AcDbBlockReference
  2
B-24
 10
0.000000
 20
0.000000
 30
0.000000
 41
1.000000
 42
1.000000
 43
1.000000
 50
0.000000
  0
INSERT
  5
630
100
AcDbEntity
  8
0
100
AcDbBlockReference
  2
B-25
 10
0.000000
 20
0.000000
 30
0.000000
 41
1.000000
 42
1.000000
 43
1.000000
 50
0.000000
  0
INSERT
  5
631
100
AcDbEntity
  8
0
100
AcDbBlockReference
  2
B-26
 10
0.000000
 20
0.000000
 30
0.000000
 41
1.000000
 42
1.000000
 43
1.000000
 50
0.000000
  0
INSERT
  5
632
100
AcDbEntity
  8
Detail
100
AcDbBlockReference
  2
B-27
 10
0.000000
 20
0.000000
 30
0.000000
 41
1.000000
 42
1.000000
 43
1.000000
 50
0.000000
  0
INSERT
  5
633
100
AcDbEntity
  8
0
100
AcDbBlockReference
  2
B-28
 10
0.000000
 20
0.000000
 30
0.000000
 41
1.000000
 42
1.000000
 43
1.000000
 50
0.000000
  0
INSERT
  5
634
100
AcDbEntity
  8
Detail
100
AcDbBlockReference
  2
B-29
 10
0.000000
 20
0.000000
 30
0.000000
 41
1.000000
 42
1.000000
 43
1.000000
 50
0.000000
  0
INSERT
  5
635
100
AcDbEntity
  8
Detail
100
AcDbBlockReference
  2
B-30
 10
0.000000
 20
0.000000
 30
0.000000
 41
1.000000
 42
1.000000
 43
1.000000
 50
0.000000
  0
INSERT
  5
636
100
AcDbEntity
  8
0
100
AcDbBlockReference
  2
B-31
 10
0.000000
 20
0.000000
 30
0.000000
 41
1.000000
 42
1.000000
 43
1.000000
 50
0.000000
  0
INSERT
  5
637
100
AcDbEntity
  8
Detail
100
AcDbBlockReference
  2
B-32
 10
0.000000
 20
0.000000
 30
0.000000
 41
1.000000
 42
1.000000
 43
1.000000
 50
0.000000
  0
INSERT
  5
638
100
AcDbEntity
  8
0
100
AcDbBlockReference
  2
B-33
 10
0.000000
 20
0.000000
 30
0.000000
 41
1.000000
 42
1.000000
 43
1.000000
 50
0.000000
  0
INSERT
  5
639
100
AcDbEntity
  8
Detail
100
AcDbBlockReference
  2
B-34
 10
0.000000
 20
0.000000
 30
0.000000
 41
1.000000
 42
1.000000
 43
1.000000
 50
0.000000
  0
INSERT
  5
63A
100
AcDbEntity
  8
0
100
AcDbBlockReference
  2
B-35
 10
0.000000
 20
0.000000
 30
0.000000
 41
1.000000
 42
1.000000
 43
1.000000
 50
0.000000
  0
INSERT
  5
63B
100
AcDbEntity
  8
0
100
AcDbBlockReference
  2
B-36
 10
0.000000
 20
0.000000
 30
0.000000
 41
1.000000
 42
1.000000
 43
1.000000
 50
0.000000
  0
INSERT
  5
63C
100
AcDbEntity
  8
Detail
100
AcDbBlockReference
  2
B-37
 10
0.000000
 20
0.000000
 30
0.000000
 41
1.000000
 42
1.000000
 43
1.000000
 50
0.000000
  0
INSERT
  5
63D
100
AcDbEntity
  8
0
100
AcDbBlockReference
  2
B-38
 10
0.000000
 20
0.000000
 30
0.000000
 41
1.000000
 42
1.000000
 43
1.000000
 50
0.000000
  0
INSERT
  5
63E
100
AcDbEntity
  8
Detail
100
AcDbBlockReference
  2
B-39
 10
0.000000
 20
0.000000
 30
0.000000
 41
1.000000
 42
1.000000
 43
1.000000
 50
0.000000
  0
INSERT
  5
63F
100
AcDbEntity
  8
Detail
100
AcDbBlockReference
  2
B-40
 10
0.000000
 20
0.000000
 30
0.000000
 41
1.000000
 42
1.000000
 43
1.000000
 50
0.000000
  0
INSERT
  5
640
100
AcDbEntity
  8
Detail
100
AcDbBlockReference
  2
B-41
 10
0.000000
 20
0.000000
 30
0.000000
 41
1.000000
 42
1.000000
 43
1.000000
 50
0.000000
  0
INSERT
  5
641
100
AcDbEntity
  8
0
100
AcDbBlockReference
  2
B-42
 10
0.000000
 20
0.000000
 30
0.000000
 41
1.000000
 42
1.000000
 43
1.000000
 50
0.000000
  0
INSERT
  5
642
100
AcDbEntity
  8
Detail
100
AcDbBlockReference
  2
B-43
 10
0.000000
 20
0.000000
 30
0.000000
 41
1.000000
 42
1.000000
 43
1.000000
 50
0.000000
  0
INSERT
  5
643
100
AcDbEntity
  8
0
100
AcDbBlockReference
  2
B-44
 10
0.000000
 20
0.000000
 30
0.000000
 41
1.000000
 42
1.000000
 43
1.000000
 50
0.000000
  0
INSERT
  5
644
100
AcDbEntity
  8
Detail
100
AcDbBlockReference
  2
B-45
 10
0.000000
 20
0.000000
 30
0.000000
 41
1.000000
 42
1.000000
 43
1.000000
 50
0.000000
  0
INSERT
  5
645
100
AcDbEntity
  8
Detail
100
AcDbBlockReference
  2
B-46
 10
0.000000
 20
0.000000
 30
0.000000
 41
1.000000
 42
1.000000
 43
1.000000
 50
0.000000
  0
INSERT
  5
646
100
AcDbEntity
  8
Detail
100
AcDbBlockReference
  2
B-47
 10
0.000000
 20
0.000000
 30
0.000000
 41
1.000000
 42
1.000000
 43
1.000000
 50
0.000000
  0
INSERT
  5
647
100
AcDbEntity
  8
Detail
100
AcDbBlockReference
  2
B-48
 10
0.000000
 20
0.000000
 30
0.000000
 41
1.000000
 42
1.000000
 43
1.000000
 50
0.000000
  0
INSERT
  5
648
100
AcDbEntity
  8
Detail
100
AcDbBlockReference
  2
B-49
 10
0.000000
 20
0.000000
 30
0.000000
 41
1.000000
 42
1.000000
 43
1.000000
 50
0.000000
  0
INSERT
  5
649
100
AcDbEntity
  8
Detail
100
AcDbBlockReference
  2
B-50
 10
0.000000
 20
0.000000
 30
0.000000
 41
1.000000
 42
1.000000
 43
1.000000
 50
0.000000
  0
INSERT
  5
64A
100
AcDbEntity
  8
Detail
100
AcDbBlockReference
  2
B-51
 10
0.000000
 20
0.000000
 30
0.000000
 41
1.000000
 42
1.000000
 43
1.000000
 50
0.000000
  0
INSERT
  5
64B
100
AcDbEntity
  8
Detail
100
AcDbBlockReference
  2
B-52
 10
0.000000
 20
0.000000
 30
0.000000
 41
1.000000
 42
1.000000
 43
1.000000
 50
0.000000
  0
INSERT
  5
64C
100
AcDbEntity
  8
0
100
AcDbBlockReference
  2
glasleiste
 10
0.000000
 20
0.000000
 30
0.000000
 41
1.000000
 42
1.000000
 43
1.000000
 50
0.000000
  0
INSERT
  5
64D
100
AcDbEntity
  8
Detail
100
AcDbBlockReference
  2
glas
 10
0.000000
 20
0.000000
 30
0.000000
 41
1.000000
 42
1.000000
 43
1.000000
 50
0.000000
  0
INSERT
  5
64E
100
AcDbEntity
  8
0
100
AcDbBlockReference
  2
rahmen
 10
0.000000
 20
0.000000
 30
0.000000
 41
1.000000
 42
1.000000
 43
1.000000
 50
0.000000
  0
INSERT
  5
64F
100
AcDbEntity
  8
0
100
AcDbBlockReference
  2
fluegel
 10
0.000000
 20
0.000000
 30
0.000000
 41
1.000000
 42
1.000000
 43
1.000000
 50
0.000000
  0
INSERT
  5
650
100
AcDbEntity
  8
Detail
100
AcDbBlockReference
  2
B-53
 10
0.000000
 20
0.000000
 30
0.000000
 41
1.000000
 42
1.000000
 43
1.000000
 50
0.000000
  0
INSERT
  5
651
100
AcDbEntity
  8
Detail
100
AcDbBlockReference
  2
B-54
 10
0.000000
 20
0.000000
 30
0.000000
 41
1.000000
 42
1.000000
 43
1.000000
 50
0.000000
  0
INSERT
  5
652
100
AcDbEntity
  8
Detail
100
AcDbBlockReference
  2
B-55
 10
0.000000
 20
0.000000
 30
0.000000
 41
1.000000
 42
1.000000
 43
1.000000
 50
0.000000
  0
INSERT
  5
653
100
AcDbEntity
  8
Detail
100
AcDbBlockReference
  2
B-56
 10
0.000000
 20
0.000000
 30
0.000000
 41
1.000000
 42
1.000000
 43
1.000000
 50
0.000000
  0
INSERT
  5
654
100
AcDbEntity
  8
Detail
100
AcDbBlockReference
  2
B-57
 10
0.000000
 20
0.000000
 30
0.000000
 41
1.000000
 42
1.000000
 43
1.000000
 50
0.000000
  0
INSERT
  5
655
100
AcDbEntity
  8
Detail
100
AcDbBlockReference
  2
B-58
 10
0.000000
 20
0.000000
 30
0.000000
 41
1.000000
 42
1.000000
 43
1.000000
 50
0.000000
  0
INSERT
  5
656
100
AcDbEntity
  8
Detail
100
AcDbBlockReference
  2
B-59
 10
0.000000
 20
0.000000
 30
0.000000
 41
1.000000
 42
1.000000
 43
1.000000
 50
0.000000
  0
INSERT
  5
657
100
AcDbEntity
  8
Detail
100
AcDbBlockReference
  2
B-60
 10
0.000000
 20
0.000000
 30
0.000000
 41
1.000000
 42
1.000000
 43
1.000000
 50
0.000000
  0
INSERT
  5
658
100
AcDbEntity
  8
Detail
100
AcDbBlockReference
  2
B-61
 10
0.000000
 20
0.000000
 30
0.000000
 41
1.000000
 42
1.000000
 43
1.000000
 50
0.000000
  0
INSERT
  5
659
100
AcDbEntity
  8
Detail
100
AcDbBlockReference
  2
B-62
 10
0.000000
 20
0.000000
 30
0.000000
 41
1.000000
 42
1.000000
 43
1.000000
 50
0.000000
  0
INSERT
  5
65A
100
AcDbEntity
  8
Detail
100
AcDbBlockReference
  2
B-63
 10
0.000000
 20
0.000000
 30
0.000000
 41
1.000000
 42
1.000000
 43
1.000000
 50
0.000000
  0
INSERT
  5
65B
100
AcDbEntity
  8
Detail
100
AcDbBlockReference
  2
B-64
 10
0.000000
 20
0.000000
 30
0.000000
 41
1.000000
 42
1.000000
 43
1.000000
 50
0.000000
  0
INSERT
  5
65C
100
AcDbEntity
  8
Detail
100
AcDbBlockReference
  2
B-66
 10
0.000000
 20
0.000000
 30
0.000000
 41
1.000000
 42
1.000000
 43
1.000000
 50
0.000000
  0
INSERT
  5
65D
100
AcDbEntity
  8
Detail
100
AcDbBlockReference
  2
B-67
 10
0.000000
 20
0.000000
 30
0.000000
 41
1.000000
 42
1.000000
 43
1.000000
 50
0.000000
  0
INSERT
  5
65E
100
AcDbEntity
  8
Detail
100
AcDbBlockReference
  2
B-68
 10
0.000000
 20
0.000000
 30
0.000000
 41
1.000000
 42
1.000000
 43
1.000000
 50
0.000000
  0
INSERT
  5
65F
100
AcDbEntity
  8
0
100
AcDbBlockReference
  2
B-69
 10
0.000000
 20
0.000000
 30
0.000000
 41
1.000000
 42
1.000000
 43
1.000000
 50
0.000000
  0
INSERT
  5
660
100
AcDbEntity
  8
Detail
100
AcDbBlockReference
  2
B-70
 10
0.000000
 20
0.000000
 30
0.000000
 41
1.000000
 42
1.000000
 43
1.000000
 50
0.000000
  0
INSERT
  5
661
100
AcDbEntity
  8
Detail
100
AcDbBlockReference
  2
B-71
 10
0.000000
 20
0.000000
 30
0.000000
 41
1.000000
 42
1.000000
 43
1.000000
 50
0.000000
  0
INSERT
  5
662
100
AcDbEntity
  8
Detail
100
AcDbBlockReference
  2
B-72
 10
0.000000
 20
0.000000
 30
0.000000
 41
1.000000
 42
1.000000
 43
1.000000
 50
0.000000
  0
INSERT
  5
663
100
AcDbEntity
  8
Detail
100
AcDbBlockReference
  2
B-73
 10
0.000000
 20
0.000000
 30
0.000000
 41
1.000000
 42
1.000000
 43
1.000000
 50
0.000000
  0
INSERT
  5
664
100
AcDbEntity
  8
Detail
100
AcDbBlockReference
  2
B-74
 10
0.000000
 20
0.000000
 30
0.000000
 41
1.000000
 42
1.000000
 43
1.000000
 50
0.000000
  0
INSERT
  5
665
100
AcDbEntity
  8
0
100
AcDbBlockReference
  2
B-75
 10
0.000000
 20
0.000000
 30
0.000000
 41
1.000000
 42
1.000000
 43
1.000000
 50
0.000000
  0
INSERT
  5
666
100
AcDbEntity
  8
Detail
100
AcDbBlockReference
  2
B-76
 10
0.000000
 20
0.000000
 30
0.000000
 41
1.000000
 42
1.000000
 43
1.000000
 50
0.000000
  0
INSERT
  5
667
100
AcDbEntity
  8
Detail
100
AcDbBlockReference
  2
B-77
 10
0.000000
 20
0.000000
 30
0.000000
 41
1.000000
 42
1.000000
 43
1.000000
 50
0.000000
  0
INSERT
  5
668
100
AcDbEntity
  8
0
100
AcDbBlockReference
  2
B-78
 10
0.000000
 20
0.000000
 30
0.000000
 41
1.000000
 42
1.000000
 43
1.000000
 50
0.000000
  0
INSERT
  5
669
100
AcDbEntity
  8
Detail
100
AcDbBlockReference
  2
B-79
 10
0.000000
 20
0.000000
 30
0.000000
 41
1.000000
 42
1.000000
 43
1.000000
 50
0.000000
  0
ENDSEC
  0
SECTION
  2
OBJECTS
  0
DICTIONARY
  5
C
330
0
100
AcDbDictionary
281
     1
  3
ACAD_COLOR
350
6B
  3
ACAD_GROUP
350
D
  3
ACAD_IMAGE_DICT
350
1E2
  3
ACAD_IMAGE_VARS
350
1E3
  3
ACAD_MATERIAL
350
6A
  3
ACAD_MLINESTYLE
350
17
  3
ACAD_PLOTSETTINGS
350
19
  3
ACAD_PLOTSTYLENAME
350
E
  3
ACAD_SCALELIST
350
10C
  3
ACAD_TABLESTYLE
350
7E
  3
ACAD_VISUALSTYLE
350
EF
  3
ACDB_RECOMPOSE_DATA
350
15D
  3
AcDbVariableDictionary
350
5E
  0
DICTIONARY
  5
13C
330
10
100
AcDbDictionary
280
     1
281
     1
  0
DICTIONARY
  5
203
330
202
100
AcDbDictionary
280
     1
281
     1
  0
DICTIONARY
  5
6B
102
{ACAD_REACTORS
330
C
102
}
330
C
100
AcDbDictionary
281
     1
  0
DICTIONARY
  5
D
102
{ACAD_REACTORS
330
C
102
}
330
C
100
AcDbDictionary
281
     1
  0
DICTIONARY
  5
1E2
102
{ACAD_REACTORS
330
C
102
}
330
C
100
AcDbDictionary
281
     1
  3
WDVS mit Hartbekleidung_Vollsturz-Leibung_6_1.tif
350
215
  0
RASTERVARIABLES
  5
1E3
102
{ACAD_REACTORS
330
C
102
}
330
C
100
AcDbRasterVariables
 90
        0
 70
     1
 71
     1
 72
     1
  0
DICTIONARY
  5
6A
102
{ACAD_REACTORS
330
C
102
}
330
C
100
AcDbDictionary
281
     1
  3
ByBlock
350
ED
  3
ByLayer
350
EC
  3
Global
350
EE
  0
DICTIONARY
  5
12D
102
{ACAD_REACTORS
330
C
102
}
330
C
100
AcDbDictionary
281
     1
  3
Annotative
350
13B
  3
Standard
350
12E
  0
DICTIONARY
  5
17
102
{ACAD_REACTORS
330
C
102
}
330
C
100
AcDbDictionary
281
     1
  3
Standard
350
18
  0
DICTIONARY
  5
19
102
{ACAD_REACTORS
330
C
102
}
330
C
100
AcDbDictionary
281
     1
  0
ACDBDICTIONARYWDFLT
  5
E
102
{ACAD_REACTORS
330
C
102
}
330
C
100
AcDbDictionary
281
     1
  3
Normal
350
F
100
AcDbDictionaryWithDefault
340
F
  0
DICTIONARY
  5
10C
102
{ACAD_REACTORS
330
C
102
}
330
C
100
AcDbDictionary
281
     1
  3
A0
350
10D
  3
A1
350
1BE
  3
A2
350
1BF
  3
A3
350
1C0
  3
A4
350
1C1
  3
A5
350
1C2
  3
A6
350
1C3
  3
A7
350
1C4
  3
A8
350
1C5
  3
A9
350
1C6
  3
B0
350
1C7
  3
B1
350
1C8
  3
B2
350
1C9
  3
B3
350
1CA
  3
B4
350
1CB
  3
B5
350
1CC
  3
B6
350
1CD
  0
DICTIONARY
  5
7E
102
{ACAD_REACTORS
330
C
102
}
330
C
100
AcDbDictionary
281
     1
  3
Standard
350
7F
  0
DICTIONARY
  5
EF
102
{ACAD_REACTORS
330
C
102
}
330
C
100
AcDbDictionary
281
     1
  3
2dWireframe
350
F5
  3
3D Hidden
350
F7
  3
3dWireframe
350
F6
  3
Basic
350
F4
  3
Brighten
350
FB
  3
ColorChange
350
FF
  3
Conceptual
350
F8
  3
Dim
350
FA
  3
Facepattern
350
FE
  3
Flat
350
F0
  3
FlatWithEdges
350
F1
  3
Gouraud
350
F2
  3
GouraudWithEdges
350
F3
  3
Linepattern
350
FD
  3
Realistic
350
F9
  3
Thicken
350
FC
  0
XRECORD
  5
15D
102
{ACAD_REACTORS
330
C
102
}
330
C
100
AcDbXrecord
280
     1
 90
        1
330
7F
  0
DICTIONARY
  5
5E
102
{ACAD_REACTORS
330
C
102
}
330
C
100
AcDbDictionary
281
     1
  3
CANNOSCALE
350
146
  3
CMLEADERSTYLE
350
145
  3
CTABLESTYLE
350
84
  3
DIMASSOC
350
5F
  3
HIDETEXT
350
63
  3
LAYEREVAL
350
1AE
  3
LAYERNOTIFY
350
1AF
  0
MATERIAL
  5
ED
102
{ACAD_REACTORS
330
6A
102
}
330
6A
100
AcDbMaterial
  1
ByBlock
 94
       63
  0
MATERIAL
  5
EC
102
{ACAD_REACTORS
330
6A
102
}
330
6A
100
AcDbMaterial
  1
ByLayer
 94
       63
  0
MATERIAL
  5
EE
102
{ACAD_XDICTIONARY
360
173
102
}
102
{ACAD_REACTORS
330
6A
102
}
330
6A
100
AcDbMaterial
  1
Global
 43
0.0007999999797903
 43
0.0
 43
0.0
 43
0.0
 43
0.0
 43
0.0007999999797903
 43
0.0
 43
0.0
 43
0.0
 43
0.0
 43
1.0
 43
0.0
 43
0.0
 43
0.0
 43
0.0
 43
1.0
 49
0.0007999999797903
 49
0.0
 49
0.0
 49
0.0
 49
0.0
 49
0.0007999999797903
 49
0.0
 49
0.0
 49
0.0
 49
0.0
 49
1.0
 49
0.0
 49
0.0
 49
0.0
 49
0.0
 49
1.0
142
0.0007999999797903
142
0.0
142
0.0
142
0.0
142
0.0
142
0.0007999999797903
142
0.0
142
0.0
142
0.0
142
0.0
142
1.0
142
0.0
142
0.0
142
0.0
142
0.0
142
1.0
144
0.0007999999797903
144
0.0
144
0.0
144
0.0
144
0.0
144
0.0007999999797903
144
0.0
144
0.0
144
0.0
144
0.0
144
1.0
144
0.0
144
0.0
144
0.0
144
0.0
144
1.0
 94
       63
1001
ACAD
1070
    -1
1070
     3
1070
     0
1000

1071
        0
1070
     0
  0
MLINESTYLE
  5
18
102
{ACAD_REACTORS
330
17
102
}
330
17
100
AcDbMlineStyle
  2
STANDARD
 70
     0
  3

 62
   256
 51
90.0
 52
90.0
 71
     2
 49
0.5
 62
   256
  6
BYLAYER
 49
-0.5
 62
   256
  6
BYLAYER
  0
ACDBPLACEHOLDER
  5
F
102
{ACAD_REACTORS
330
E
102
}
330
E
  0
SCALE
  5
10D
102
{ACAD_REACTORS
330
10C
102
}
330
10C
100
AcDbScale
 70
     0
300
1:1
140
1.0
141
1.0
290
     1
  0
SCALE
  5
1BE
102
{ACAD_REACTORS
330
10C
102
}
330
10C
100
AcDbScale
 70
     0
300
1:2
140
1.0
141
2.0
290
     0
  0
SCALE
  5
1BF
102
{ACAD_REACTORS
330
10C
102
}
330
10C
100
AcDbScale
 70
     0
300
1:4
140
1.0
141
4.0
290
     0
  0
SCALE
  5
1C0
102
{ACAD_REACTORS
330
10C
102
}
330
10C
100
AcDbScale
 70
     0
300
1:5
140
1.0
141
5.0
290
     0
  0
SCALE
  5
1C1
102
{ACAD_REACTORS
330
10C
102
}
330
10C
100
AcDbScale
 70
     0
300
1:8
140
1.0
141
8.0
290
     0
  0
SCALE
  5
1C2
102
{ACAD_REACTORS
330
10C
102
}
330
10C
100
AcDbScale
 70
     0
300
1:10
140
1.0
141
10.0
290
     0
  0
SCALE
  5
1C3
102
{ACAD_REACTORS
330
10C
102
}
330
10C
100
AcDbScale
 70
     0
300
1:16
140
1.0
141
16.0
290
     0
  0
SCALE
  5
1C4
102
{ACAD_REACTORS
330
10C
102
}
330
10C
100
AcDbScale
 70
     0
300
1:20
140
1.0
141
20.0
290
     0
  0
SCALE
  5
1C5
102
{ACAD_REACTORS
330
10C
102
}
330
10C
100
AcDbScale
 70
     0
300
1:30
140
1.0
141
30.0
290
     0
  0
SCALE
  5
1C6
102
{ACAD_REACTORS
330
10C
102
}
330
10C
100
AcDbScale
 70
     0
300
1:40
140
1.0
141
40.0
290
     0
  0
SCALE
  5
1C7
102
{ACAD_REACTORS
330
10C
102
}
330
10C
100
AcDbScale
 70
     0
300
1:50
140
1.0
141
50.0
290
     0
  0
SCALE
  5
1C8
102
{ACAD_REACTORS
330
10C
102
}
330
10C
100
AcDbScale
 70
     0
300
1:100
140
1.0
141
100.0
290
     0
  0
SCALE
  5
1C9
102
{ACAD_REACTORS
330
10C
102
}
330
10C
100
AcDbScale
 70
     0
300
2:1
140
2.0
141
1.0
290
     0
  0
SCALE
  5
1CA
102
{ACAD_REACTORS
330
10C
102
}
330
10C
100
AcDbScale
 70
     0
300
4:1
140
4.0
141
1.0
290
     0
  0
SCALE
  5
1CB
102
{ACAD_REACTORS
330
10C
102
}
330
10C
100
AcDbScale
 70
     0
300
8:1
140
8.0
141
1.0
290
     0
  0
SCALE
  5
1CC
102
{ACAD_REACTORS
330
10C
102
}
330
10C
100
AcDbScale
 70
     0
300
10:1
140
10.0
141
1.0
290
     0
  0
SCALE
  5
1CD
102
{ACAD_REACTORS
330
10C
102
}
330
10C
100
AcDbScale
 70
     0
300
100:1
140
100.0
141
1.0
290
     0
  0
TABLESTYLE
  5
7F
102
{ACAD_XDICTIONARY
360
162
102
}
102
{ACAD_REACTORS
330
7E
102
}
330
7E
100
AcDbTableStyle
  3
Standard
 70
     0
 71
     0
 40
1.5
 41
1.5
280
     0
281
     0
  7
Standard
140
4.5
170
     2
 62
     0
 63
     7
283
     0
 90
      512
 91
        0
  1

274
    -2
284
     1
 64
     0
275
    -2
285
     1
 65
     0
276
    -2
286
     1
 66
     0
277
    -2
287
     1
 67
     0
278
    -2
288
     1
 68
     0
279
    -2
289
     1
 69
     0
  7
Standard
140
6.0
170
     5
 62
     0
 63
     7
283
     0
 90
      512
 91
        0
  1

274
    -2
284
     1
 64
     0
275
    -2
285
     1
 65
     0
276
    -2
286
     1
 66
     0
277
    -2
287
     1
 67
     0
278
    -2
288
     1
 68
     0
279
    -2
289
     1
 69
     0
  7
Standard
140
4.5
170
     5
 62
     0
 63
     7
283
     0
 90
      512
 91
        0
  1

274
    -2
284
     1
 64
     0
275
    -2
285
     1
 65
     0
276
    -2
286
     1
 66
     0
277
    -2
287
     1
 67
     0
278
    -2
288
     1
 68
     0
279
    -2
289
     1
 69
     0
  0
VISUALSTYLE
  5
F5
102
{ACAD_REACTORS
330
EF
102
}
330
EF
100
AcDbVisualStyle
  2
2dWireframe
 70
     4
 71
     0
 72
     2
 73
     1
 90
        0
 40
-0.6
 41
-30.0
 62
     5
 63
     7
421
 16777215
 74
     1
 91
        4
 64
     7
 65
   257
 75
     1
175
     1
 42
1.0
 92
        0
 66
   257
 43
1.0
 76
     1
 77
     6
 78
     2
 67
     7
 79
     5
170
     0
171
     0
290
     0
174
     0
 93
        1
 44
0.0
173
     0
291
     0
 45
0.0
  0
VISUALSTYLE
  5
F7
102
{ACAD_REACTORS
330
EF
102
}
330
EF
100
AcDbVisualStyle
  2
3D Hidden
 70
     6
 71
     1
 72
     2
 73
     2
 90
        0
 40
-0.6
 41
-30.0
 62
     5
 63
     7
421
 16777215
 74
     2
 91
        2
 64
     7
 65
   257
 75
     2
175
     1
 42
40.0
 92
        0
 66
   257
 43
1.0
 76
     1
 77
     6
 78
     2
 67
     7
 79
     3
170
     0
171
     0
290
     0
174
     0
 93
        1
 44
0.0
173
     0
291
     0
 45
0.0
  0
VISUALSTYLE
  5
F6
102
{ACAD_REACTORS
330
EF
102
}
330
EF
100
AcDbVisualStyle
  2
3dWireframe
 70
     5
 71
     0
 72
     2
 73
     1
 90
        0
 40
-0.6
 41
-30.0
 62
     5
 63
     7
421
 16777215
 74
     1
 91
        4
 64
     7
 65
   257
 75
     1
175
     1
 42
1.0
 92
        0
 66
   257
 43
1.0
 76
     1
 77
     6
 78
     2
 67
     7
 79
     5
170
     0
171
     0
290
     0
174
     0
 93
        1
 44
0.0
173
     0
291
     0
 45
0.0
  0
VISUALSTYLE
  5
F4
102
{ACAD_REACTORS
330
EF
102
}
330
EF
100
AcDbVisualStyle
  2
Basic
 70
     7
 71
     1
 72
     0
 73
     1
 90
        0
 40
-0.6
 41
-30.0
 62
     5
 63
     7
421
 16777215
 74
     0
 91
        4
 64
     7
 65
   257
 75
     1
175
     1
 42
1.0
 92
        8
 66
     7
 43
1.0
 76
     1
 77
     6
 78
     2
 67
     7
 79
     5
170
     0
171
     0
290
     0
174
     0
 93
        1
 44
0.0
173
     0
291
     1
 45
0.0
  0
VISUALSTYLE
  5
FB
102
{ACAD_REACTORS
330
EF
102
}
330
EF
100
AcDbVisualStyle
  2
Brighten
 70
    12
 71
     2
 72
     2
 73
     1
 90
        0
 40
-0.6
 41
-30.0
 62
     5
 63
     7
421
 16777215
 74
     1
 91
        4
 64
     7
 65
   257
 75
     1
175
     1
 42
1.0
 92
        8
 66
     7
 43
1.0
 76
     1
 77
     6
 78
     2
 67
     7
 79
     5
170
     0
171
     0
290
     0
174
     0
 93
        1
 44
50.0
173
     0
291
     1
 45
0.0
  0
VISUALSTYLE
  5
FF
102
{ACAD_REACTORS
330
EF
102
}
330
EF
100
AcDbVisualStyle
  2
ColorChange
 70
    16
 71
     2
 72
     2
 73
     3
 90
        0
 40
-0.6
 41
-30.0
 62
     5
 63
     8
421
  8421504
 74
     1
 91
        4
 64
     7
 65
   257
 75
     1
175
     1
 42
1.0
 92
        8
 66
     8
424
  8421504
 43
1.0
 76
     1
 77
     6
 78
     2
 67
     7
 79
     5
170
     0
171
     0
290
     0
174
     0
 93
        1
 44
0.0
173
     0
291
     1
 45
0.0
  0
VISUALSTYLE
  5
F8
102
{ACAD_REACTORS
330
EF
102
}
330
EF
100
AcDbVisualStyle
  2
Conceptual
 70
     9
 71
     3
 72
     2
 73
     1
 90
        0
 40
-0.6
 41
-30.0
 62
     5
 63
     7
421
 16777215
 74
     2
 91
        2
 64
     7
 65
   257
 75
     1
175
     1
 42
40.0
 92
        8
 66
     7
 43
1.0
 76
     1
 77
     6
 78
     2
 67
     7
 79
     3
170
     0
171
     0
290
     0
174
     0
 93
        1
 44
0.0
173
     0
291
     0
 45
0.0
  0
VISUALSTYLE
  5
FA
102
{ACAD_REACTORS
330
EF
102
}
330
EF
100
AcDbVisualStyle
  2
Dim
 70
    11
 71
     2
 72
     2
 73
     1
 90
        0
 40
-0.6
 41
-30.0
 62
     5
 63
     7
421
 16777215
 74
     1
 91
        4
 64
     7
 65
   257
 75
     1
175
     1
 42
1.0
 92
        8
 66
     7
 43
1.0
 76
     1
 77
     6
 78
     2
 67
     7
 79
     5
170
     0
171
     0
290
     0
174
     0
 93
        1
 44
-50.0
173
     0
291
     1
 45
0.0
  0
VISUALSTYLE
  5
FE
102
{ACAD_REACTORS
330
EF
102
}
330
EF
100
AcDbVisualStyle
  2
Facepattern
 70
    15
 71
     2
 72
     2
 73
     1
 90
        0
 40
-0.6
 41
-30.0
 62
     5
 63
     7
421
 16777215
 74
     1
 91
        4
 64
     7
 65
   257
 75
     1
175
     1
 42
1.0
 92
        8
 66
     7
 43
1.0
 76
     1
 77
     6
 78
     2
 67
     7
 79
     5
170
     0
171
     0
290
     0
174
     0
 93
        1
 44
0.0
173
     0
291
     1
 45
0.0
  0
VISUALSTYLE
  5
F0
102
{ACAD_REACTORS
330
EF
102
}
330
EF
100
AcDbVisualStyle
  2
Flat
 70
     0
 71
     2
 72
     1
 73
     1
 90
        2
 40
-0.6
 41
30.0
 62
     5
 63
     7
421
 16777215
 74
     0
 91
        4
 64
     7
 65
   257
 75
     1
175
     1
 42
1.0
 92
        8
 66
     7
 43
1.0
 76
     1
 77
     6
 78
     2
 67
     7
 79
     5
170
     0
171
     0
290
     0
174
     0
 93
        1
 44
0.0
173
     0
291
     1
 45
0.0
  0
VISUALSTYLE
  5
F1
102
{ACAD_REACTORS
330
EF
102
}
330
EF
100
AcDbVisualStyle
  2
FlatWithEdges
 70
     1
 71
     2
 72
     1
 73
     1
 90
        2
 40
-0.6
 41
30.0
 62
     5
 63
     7
421
 16777215
 74
     1
 91
        4
 64
     7
 65
   257
 75
     1
175
     1
 42
1.0
 92
        0
 66
   257
 43
1.0
 76
     1
 77
     6
 78
     2
 67
     7
 79
     5
170
     0
171
     0
290
     0
174
     0
 93
        1
 44
0.0
173
     0
291
     1
 45
0.0
  0
VISUALSTYLE
  5
F2
102
{ACAD_REACTORS
330
EF
102
}
330
EF
100
AcDbVisualStyle
  2
Gouraud
 70
     2
 71
     2
 72
     2
 73
     1
 90
        2
 40
-0.6
 41
30.0
 62
     5
 63
     7
421
 16777215
 74
     0
 91
        4
 64
     7
 65
   257
 75
     1
175
     1
 42
1.0
 92
        0
 66
     7
 43
1.0
 76
     1
 77
     6
 78
     2
 67
     7
 79
     5
170
     0
171
     0
290
     0
174
     0
 93
        1
 44
0.0
173
     0
291
     1
 45
0.0
  0
VISUALSTYLE
  5
F3
102
{ACAD_REACTORS
330
EF
102
}
330
EF
100
AcDbVisualStyle
  2
GouraudWithEdges
 70
     3
 71
     2
 72
     2
 73
     1
 90
        2
 40
-0.6
 41
30.0
 62
     5
 63
     7
421
 16777215
 74
     1
 91
        4
 64
     7
 65
   257
 75
     1
175
     1
 42
1.0
 92
        0
 66
   257
 43
1.0
 76
     1
 77
     6
 78
     2
 67
     7
 79
     5
170
     0
171
     0
290
     0
174
     0
 93
        1
 44
0.0
173
     0
291
     1
 45
0.0
  0
VISUALSTYLE
  5
FD
102
{ACAD_REACTORS
330
EF
102
}
330
EF
100
AcDbVisualStyle
  2
Linepattern
 70
    14
 71
     2
 72
     2
 73
     1
 90
        0
 40
-0.6
 41
-30.0
 62
     5
 63
     7
421
 16777215
 74
     1
 91
        4
 64
     7
 65
   257
 75
     7
175
     7
 42
1.0
 92
        8
 66
     7
 43
1.0
 76
     1
 77
     6
 78
     2
 67
     7
 79
     5
170
     0
171
     0
290
     0
174
     0
 93
        1
 44
0.0
173
     0
291
     1
 45
0.0
  0
VISUALSTYLE
  5
F9
102
{ACAD_REACTORS
330
EF
102
}
330
EF
100
AcDbVisualStyle
  2
Realistic
 70
     8
 71
     2
 72
     2
 73
     1
 90
        0
 40
-0.6
 41
-30.0
 62
     5
 63
     7
421
 16777215
 74
     1
 91
        0
 64
     7
 65
   257
 75
     1
175
     1
 42
1.0
 92
        8
 66
     8
424
  7895160
 43
1.0
 76
     1
 77
     6
 78
     2
 67
     7
 79
     5
170
     0
171
     0
290
     0
174
     0
 93
       13
 44
0.0
173
     0
291
     0
 45
0.0
  0
VISUALSTYLE
  5
FC
102
{ACAD_REACTORS
330
EF
102
}
330
EF
100
AcDbVisualStyle
  2
Thicken
 70
    13
 71
     2
 72
     2
 73
     1
 90
        0
 40
-0.6
 41
-30.0
 62
     5
 63
     7
421
 16777215
 74
     1
 91
        4
 64
     7
 65
   257
 75
     1
175
     1
 42
1.0
 92
       12
 66
     7
 43
1.0
 76
     1
 77
     6
 78
     2
 67
     7
 79
     5
170
     0
171
     0
290
     0
174
     0
 93
        1
 44
0.0
173
     0
291
     1
 45
0.0
  0
DICTIONARYVAR
  5
146
102
{ACAD_REACTORS
330
5E
102
}
330
5E
100
DictionaryVariables
280
     0
  1
1:1
  0
DICTIONARYVAR
  5
145
102
{ACAD_REACTORS
330
5E
102
}
330
5E
100
DictionaryVariables
280
     0
  1
STANDARD
  0
DICTIONARYVAR
  5
84
102
{ACAD_REACTORS
330
5E
102
}
330
5E
100
DictionaryVariables
280
     0
  1
STANDARD
  0
DICTIONARYVAR
  5
5F
102
{ACAD_REACTORS
330
5E
102
}
330
5E
100
DictionaryVariables
280
     0
  1
2
  0
DICTIONARYVAR
  5
63
102
{ACAD_REACTORS
330
5E
102
}
330
5E
100
DictionaryVariables
280
     0
  1
1
  0
DICTIONARYVAR
  5
1AE
102
{ACAD_REACTORS
330
5E
102
}
330
5E
100
DictionaryVariables
280
     0
  1
0
  0
DICTIONARYVAR
  5
1AF
102
{ACAD_REACTORS
330
5E
102
}
330
5E
100
DictionaryVariables
280
     0
  1
0
  0
DICTIONARY
  5
173
330
EE
100
AcDbDictionary
280
     1
281
     1
  3
BUMPTILE
360
175
  3
DIFFUSETILE
360
174
  3
OPACITYTILE
360
176
  3
REFLECTIONTILE
360
177
  0
DICTIONARY
  5
162
330
7F
100
AcDbDictionary
280
     1
281
     1
  3
ACAD_ROUNDTRIP_2008_TABLESTYLE_CELLSTYLEMAP
360
1E7
  0
XRECORD
  5
175
102
{ACAD_REACTORS
330
173
102
}
330
173
100
AcDbXrecord
280
     1
270
     1
271
     1
  0
XRECORD
  5
174
102
{ACAD_REACTORS
330
173
102
}
330
173
100
AcDbXrecord
280
     1
270
     1
271
     1
  0
XRECORD
  5
176
102
{ACAD_REACTORS
330
173
102
}
330
173
100
AcDbXrecord
280
     1
270
     1
271
     1
  0
XRECORD
  5
177
102
{ACAD_REACTORS
330
173
102
}
330
173
100
AcDbXrecord
280
     1
270
     1
271
     1
  0
CELLSTYLEMAP
  5
1E7
102
{ACAD_REACTORS
330
162
102
}
330
162
100
AcDbCellStyleMap
 90
        3
300
CELLSTYLE
  1
TABLEFORMAT_BEGIN
 90
        5
170
     1
 91
        0
 92
    32768
 62
   257
 93
        1
300
CONTENTFORMAT
  1
CONTENTFORMAT_BEGIN
 90
        0
 91
        0
 92
      512
 93
        0
300

 40
0.0
140
1.0
 94
        5
 62
     0
340
11
144
6.0
309
CONTENTFORMAT_END
171
     1
301
MARGIN
  1
CELLMARGIN_BEGIN
 40
1.5
 40
1.5
 40
1.5
 40
1.5
 40
4.5
 40
4.5
309
CELLMARGIN_END
 94
        6
 95
        1
302
GRIDFORMAT
  1
GRIDFORMAT_BEGIN
 90
        0
 91
        1
 62
     0
 92
       -2
340
76C
 93
        0
 40
1.125
309
GRIDFORMAT_END
 95
        2
302
GRIDFORMAT
  1
GRIDFORMAT_BEGIN
 90
        0
 91
        1
 62
     0
 92
       -2
340
76C
 93
        0
 40
1.125
309
GRIDFORMAT_END
 95
        4
302
GRIDFORMAT
  1
GRIDFORMAT_BEGIN
 90
        0
 91
        1
 62
     0
 92
       -2
340
76C
 93
        0
 40
1.125
309
GRIDFORMAT_END
 95
        8
302
GRIDFORMAT
  1
GRIDFORMAT_BEGIN
 90
        0
 91
        1
 62
     0
 92
       -2
340
76C
 93
        0
 40
1.125
309
GRIDFORMAT_END
 95
       16
302
GRIDFORMAT
  1
GRIDFORMAT_BEGIN
 90
        0
 91
        1
 62
     0
 92
       -2
340
76C
 93
        0
 40
1.125
309
GRIDFORMAT_END
 95
       32
302
GRIDFORMAT
  1
GRIDFORMAT_BEGIN
 90
        0
 91
        1
 62
     0
 92
       -2
340
76C
 93
        0
 40
1.125
309
GRIDFORMAT_END
309
TABLEFORMAT_END
  1
CELLSTYLE_BEGIN
 90
        1
 91
        1
300
_TITLE
309
CELLSTYLE_END
300
CELLSTYLE
  1
TABLEFORMAT_BEGIN
 90
        5
170
     1
 91
        0
 92
        0
 62
   257
 93
        1
300
CONTENTFORMAT
  1
CONTENTFORMAT_BEGIN
 90
        0
 91
        0
 92
      512
 93
        0
300

 40
0.0
140
1.0
 94
        5
 62
     0
340
11
144
4.5
309
CONTENTFORMAT_END
171
     1
301
MARGIN
  1
CELLMARGIN_BEGIN
 40
1.5
 40
1.5
 40
1.5
 40
1.5
 40
4.5
 40
4.5
309
CELLMARGIN_END
 94
        6
 95
        1
302
GRIDFORMAT
  1
GRIDFORMAT_BEGIN
 90
        0
 91
        1
 62
     0
 92
       -2
340
76C
 93
        0
 40
1.125
309
GRIDFORMAT_END
 95
        2
302
GRIDFORMAT
  1
GRIDFORMAT_BEGIN
 90
        0
 91
        1
 62
     0
 92
       -2
340
76C
 93
        0
 40
1.125
309
GRIDFORMAT_END
 95
        4
302
GRIDFORMAT
  1
GRIDFORMAT_BEGIN
 90
        0
 91
        1
 62
     0
 92
       -2
340
76C
 93
        0
 40
1.125
309
GRIDFORMAT_END
 95
        8
302
GRIDFORMAT
  1
GRIDFORMAT_BEGIN
 90
        0
 91
        1
 62
     0
 92
       -2
340
76C
 93
        0
 40
1.125
309
GRIDFORMAT_END
 95
       16
302
GRIDFORMAT
  1
GRIDFORMAT_BEGIN
 90
        0
 91
        1
 62
     0
 92
       -2
340
76C
 93
        0
 40
1.125
309
GRIDFORMAT_END
 95
       32
302
GRIDFORMAT
  1
GRIDFORMAT_BEGIN
 90
        0
 91
        1
 62
     0
 92
       -2
340
76C
 93
        0
 40
1.125
309
GRIDFORMAT_END
309
TABLEFORMAT_END
  1
CELLSTYLE_BEGIN
 90
        2
 91
        1
300
_HEADER
309
CELLSTYLE_END
300
CELLSTYLE
  1
TABLEFORMAT_BEGIN
 90
        5
170
     1
 91
        0
 92
        0
 62
   257
 93
        1
300
CONTENTFORMAT
  1
CONTENTFORMAT_BEGIN
 90
        0
 91
        0
 92
      512
 93
        0
300

 40
0.0
140
1.0
 94
        2
 62
     0
340
11
144
4.5
309
CONTENTFORMAT_END
171
     1
301
MARGIN
  1
CELLMARGIN_BEGIN
 40
1.5
 40
1.5
 40
1.5
 40
1.5
 40
4.5
 40
4.5
309
CELLMARGIN_END
 94
        6
 95
        1
302
GRIDFORMAT
  1
GRIDFORMAT_BEGIN
 90
        0
 91
        1
 62
     0
 92
       -2
340
76C
 93
        0
 40
1.125
309
GRIDFORMAT_END
 95
        2
302
GRIDFORMAT
  1
GRIDFORMAT_BEGIN
 90
        0
 91
        1
 62
     0
 92
       -2
340
76C
 93
        0
 40
1.125
309
GRIDFORMAT_END
 95
        4
302
GRIDFORMAT
  1
GRIDFORMAT_BEGIN
 90
        0
 91
        1
 62
     0
 92
       -2
340
76C
 93
        0
 40
1.125
309
GRIDFORMAT_END
 95
        8
302
GRIDFORMAT
  1
GRIDFORMAT_BEGIN
 90
        0
 91
        1
 62
     0
 92
       -2
340
76C
 93
        0
 40
1.125
309
GRIDFORMAT_END
 95
       16
302
GRIDFORMAT
  1
GRIDFORMAT_BEGIN
 90
        0
 91
        1
 62
     0
 92
       -2
340
76C
 93
        0
 40
1.125
309
GRIDFORMAT_END
 95
       32
302
GRIDFORMAT
  1
GRIDFORMAT_BEGIN
 90
        0
 91
        1
 62
     0
 92
       -2
340
76C
 93
        0
 40
1.125
309
GRIDFORMAT_END
309
TABLEFORMAT_END
  1
CELLSTYLE_BEGIN
 90
        3
 91
        2
300
_DATA
309
CELLSTYLE_END
  0
IMAGEDEF_REACTOR
  5
216
330
214
100
AcDbRasterImageDefReactor
 90
     2
330
214
  0
IMAGEDEF
  5
215
102
{ACAD_REACTORS
330
5E
330
216
102
}
330
5E
100
AcDbRasterImageDef
 90
     0
  1
WDVS mit Hartbekleidung_Vollsturz-Leibung_6_1.tif
 10
395.000000
 20
405.000000
 11
0.002532
 21
0.002469
280
     1
281
     0
  0
ENDSEC
  0
EOF
