  0
SECTION
  2
HEADER
  9
$ACADVER
  1
AC1024
  9
$ACADMAINTVER
 70
     6
  9
$DWGCODEPAGE
  3
ANSI_1252
  9
$INSBASE
 10
0.0
 20
0.0
 30
0.0
  9
$EXTMIN
 10
-262.500018
 20
-371.249941
 30
0.000000
  9
$EXTMAX
 10
237.500023
 20
346.250078
 30
0.000000
  9
$LIMMIN
 10
0.0
 20
0.0
  9
$LIMMAX
 10
420.0
 20
297.0
  9
$ORTHOMODE
 70
     0
  9
$REGENMODE
 70
     1
  9
$FILLMODE
 70
     1
  9
$QTEXTMODE
 70
     0
  9
$MIRRTEXT
 70
     0
  9
$LTSCALE
 40
25.000000
  9
$ATTMODE
 70
     1
  9
$TEXTSIZE
 40
2.5
  9
$TRACEWID
 40
1.0
  9
$TEXTSTYLE
  7
Standard
  9
$CLAYER
  8
0
  9
$CELTYPE
  6
ByLayer
  9
$CECOLOR
 62
   256
  9
$CELTSCALE
 40
1.0
  9
$DISPSILH
 70
     0
  9
$DIMSCALE
 40
1.0
  9
$DIMASZ
 40
2.5
  9
$DIMEXO
 40
0.625
  9
$DIMDLI
 40
3.75
  9
$DIMRND
 40
0.0
  9
$DIMDLE
 40
0.0
  9
$DIMEXE
 40
1.25
  9
$DIMTP
 40
0.0
  9
$DIMTM
 40
0.0
  9
$DIMTXT
 40
2.5
  9
$DIMCEN
 40
2.5
  9
$DIMTSZ
 40
0.0
  9
$DIMTOL
 70
     0
  9
$DIMLIM
 70
     0
  9
$DIMTIH
 70
     0
  9
$DIMTOH
 70
     0
  9
$DIMSE1
 70
     0
  9
$DIMSE2
 70
     0
  9
$DIMTAD
 70
     1
  9
$DIMZIN
 70
     8
  9
$DIMBLK
  1

  9
$DIMASO
 70
     1
  9
$DIMSHO
 70
     1
  9
$DIMPOST
  1

  9
$DIMAPOST
  1

  9
$DIMALT
 70
     0
  9
$DIMALTD
 70
     3
  9
$DIMALTF
 40
0.03937007874016
  9
$DIMLFAC
 40
1.0
  9
$DIMTOFL
 70
     1
  9
$DIMTVP
 40
0.0
  9
$DIMTIX
 70
     0
  9
$DIMSOXD
 70
     0
  9
$DIMSAH
 70
     0
  9
$DIMBLK1
  1

  9
$DIMBLK2
  1

  9
$DIMSTYLE
  2
ISO-25
  9
$DIMCLRD
 70
     0
  9
$DIMCLRE
 70
     0
  9
$DIMCLRT
 70
     0
  9
$DIMTFAC
 40
1.0
  9
$DIMGAP
 40
0.625
  9
$DIMJUST
 70
     0
  9
$DIMSD1
 70
     0
  9
$DIMSD2
 70
     0
  9
$DIMTOLJ
 70
     0
  9
$DIMTZIN
 70
     8
  9
$DIMALTZ
 70
     0
  9
$DIMALTTZ
 70
     0
  9
$DIMUPT
 70
     0
  9
$DIMDEC
 70
     2
  9
$DIMTDEC
 70
     2
  9
$DIMALTU
 70
     2
  9
$DIMALTTD
 70
     3
  9
$DIMTXSTY
  7
Standard
  9
$DIMAUNIT
 70
     0
  9
$DIMADEC
 70
     0
  9
$DIMALTRND
 40
0.0
  9
$DIMAZIN
 70
     0
  9
$DIMDSEP
 70
    44
  9
$DIMATFIT
 70
     3
  9
$DIMFRAC
 70
     0
  9
$DIMLDRBLK
  1

  9
$DIMLUNIT
 70
     2
  9
$DIMLWD
 70
    -2
  9
$DIMLWE
 70
    -2
  9
$DIMTMOVE
 70
     0
  9
$DIMFXL
 40
1.0
  9
$DIMFXLON
 70
     0
  9
$DIMJOGANG
 40
0.7853981633974483
  9
$DIMTFILL
 70
     0
  9
$DIMTFILLCLR
 70
     0
  9
$DIMARCSYM
 70
     0
  9
$DIMLTYPE
  6

  9
$DIMLTEX1
  6

  9
$DIMLTEX2
  6

  9
$DIMTXTDIRECTION
 70
     0
  9
$LUNITS
 70
     2
  9
$LUPREC
 70
     4
  9
$SKETCHINC
 40
1.0
  9
$FILLETRAD
 40
10.0
  9
$AUNITS
 70
     0
  9
$AUPREC
 70
     0
  9
$MENU
  1
.
  9
$ELEVATION
 40
0.0
  9
$PELEVATION
 40
0.0
  9
$THICKNESS
 40
0.0
  9
$LIMCHECK
 70
     0
  9
$CHAMFERA
 40
10.0
  9
$CHAMFERB
 40
10.0
  9
$CHAMFERC
 40
20.0
  9
$CHAMFERD
 40
0.0
  9
$SKPOLY
 70
     0
  9
$TDCREATE
 40
2452006.439837951
  9
$TDUCREATE
 40
2452006.356504618
  9
$TDUPDATE
 40
2452006.439963946
  9
$TDUUPDATE
 40
2452006.356630613
  9
$TDINDWG
 40
0.0001273843
  9
$TDUSRTIMER
 40
0.0001272685
  9
$USRTIMER
 70
     1
  9
$ANGBASE
 50
0.0
  9
$ANGDIR
 70
     0
  9
$PDMODE
 70
     0
  9
$PDSIZE
 40
0.0
  9
$PLINEWID
 40
0.0
  9
$SPLFRAME
 70
     0
  9
$SPLINETYPE
 70
     6
  9
$SPLINESEGS
 70
     8
  9
$HANDSEED
  5
9FD
  9
$SURFTAB1
 70
     6
  9
$SURFTAB2
 70
     6
  9
$SURFTYPE
 70
     6
  9
$SURFU
 70
     6
  9
$SURFV
 70
     6
  9
$UCSBASE
  2

  9
$UCSNAME
  2

  9
$UCSORG
 10
0.0
 20
0.0
 30
0.0
  9
$UCSXDIR
 10
1.0
 20
0.0
 30
0.0
  9
$UCSYDIR
 10
0.0
 20
1.0
 30
0.0
  9
$UCSORTHOREF
  2

  9
$UCSORTHOVIEW
 70
     0
  9
$UCSORGTOP
 10
0.0
 20
0.0
 30
0.0
  9
$UCSORGBOTTOM
 10
0.0
 20
0.0
 30
0.0
  9
$UCSORGLEFT
 10
0.0
 20
0.0
 30
0.0
  9
$UCSORGRIGHT
 10
0.0
 20
0.0
 30
0.0
  9
$UCSORGFRONT
 10
0.0
 20
0.0
 30
0.0
  9
$UCSORGBACK
 10
0.0
 20
0.0
 30
0.0
  9
$PUCSBASE
  2

  9
$PUCSNAME
  2

  9
$PUCSORG
 10
0.0
 20
0.0
 30
0.0
  9
$PUCSXDIR
 10
1.0
 20
0.0
 30
0.0
  9
$PUCSYDIR
 10
0.0
 20
1.0
 30
0.0
  9
$PUCSORTHOREF
  2

  9
$PUCSORTHOVIEW
 70
     0
  9
$PUCSORGTOP
 10
0.0
 20
0.0
 30
0.0
  9
$PUCSORGBOTTOM
 10
0.0
 20
0.0
 30
0.0
  9
$PUCSORGLEFT
 10
0.0
 20
0.0
 30
0.0
  9
$PUCSORGRIGHT
 10
0.0
 20
0.0
 30
0.0
  9
$PUCSORGFRONT
 10
0.0
 20
0.0
 30
0.0
  9
$PUCSORGBACK
 10
0.0
 20
0.0
 30
0.0
  9
$USERI1
 70
     0
  9
$USERI2
 70
     0
  9
$USERI3
 70
     0
  9
$USERI4
 70
     0
  9
$USERI5
 70
     0
  9
$USERR1
 40
0.0
  9
$USERR2
 40
0.0
  9
$USERR3
 40
0.0
  9
$USERR4
 40
0.0
  9
$USERR5
 40
0.0
  9
$WORLDVIEW
 70
     1
  9
$SHADEDGE
 70
     3
  9
$SHADEDIF
 70
    70
  9
$TILEMODE
 70
     1
  9
$MAXACTVP
 70
    64
  9
$PINSBASE
 10
0.0
 20
0.0
 30
0.0
  9
$PLIMCHECK
 70
     0
  9
$PEXTMIN
 10
1.000000000000000E+20
 20
1.000000000000000E+20
 30
1.000000000000000E+20
  9
$PEXTMAX
 10
-1.000000000000000E+20
 20
-1.000000000000000E+20
 30
-1.000000000000000E+20
  9
$PLIMMIN
 10
0.0
 20
0.0
  9
$PLIMMAX
 10
420.0
 20
297.0
  9
$UNITMODE
 70
     0
  9
$VISRETAIN
 70
     1
  9
$PLINEGEN
 70
     0
  9
$PSLTSCALE
 70
     1
  9
$TREEDEPTH
 70
  3020
  9
$CMLSTYLE
  2
Standard
  9
$CMLJUST
 70
     0
  9
$CMLSCALE
 40
20.0
  9
$PROXYGRAPHICS
 70
     1
  9
$MEASUREMENT
 70
     1
  9
$CELWEIGHT
370
    -1
  9
$ENDCAPS
280
     0
  9
$JOINSTYLE
280
     0
  9
$LWDISPLAY
290
     0
  9
$INSUNITS
 70
     4
  9
$HYPERLINKBASE
  1

  9
$STYLESHEET
  1

  9
$XEDIT
290
     1
  9
$CEPSNTYPE
380
     0
  9
$PSTYLEMODE
290
     1
  9
$FINGERPRINTGUID
  2

  9
$VERSIONGUID
  2

  9
$EXTNAMES
290
     1
  9
$PSVPSCALE
 40
0.0
  9
$OLESTARTUP
290
     0
  9
$SORTENTS
280
   127
  9
$INDEXCTL
280
     0
  9
$HIDETEXT
280
     1
  9
$XCLIPFRAME
280
     2
  9
$HALOGAP
280
     0
  9
$OBSCOLOR
 70
   257
  9
$OBSLTYPE
280
     0
  9
$INTERSECTIONDISPLAY
280
     0
  9
$INTERSECTIONCOLOR
 70
   257
  9
$DIMASSOC
280
     2
  9
$PROJECTNAME
  1

  9
$CAMERADISPLAY
290
     0
  9
$LENSLENGTH
 40
50.0
  9
$CAMERAHEIGHT
 40
0.0
  9
$STEPSPERSEC
 40
2.0
  9
$STEPSIZE
 40
6.0
  9
$3DDWFPREC
 40
2.0
  9
$PSOLWIDTH
 40
5.0
  9
$PSOLHEIGHT
 40
80.0
  9
$LOFTANG1
 40
1.570796326794896
  9
$LOFTANG2
 40
1.570796326794896
  9
$LOFTMAG1
 40
0.0
  9
$LOFTMAG2
 40
0.0
  9
$LOFTPARAM
 70
     7
  9
$LOFTNORMALS
280
     1
  9
$LATITUDE
 40
37.795
  9
$LONGITUDE
 40
-122.394
  9
$NORTHDIRECTION
 40
0.0
  9
$TIMEZONE
 70
 -8000
  9
$LIGHTGLYPHDISPLAY
280
     1
  9
$TILEMODELIGHTSYNCH
280
     1
  9
$CMATERIAL
347
EC
  9
$SOLIDHIST
280
     1
  9
$SHOWHIST
280
     1
  9
$DWFFRAME
280
     2
  9
$DGNFRAME
280
     0
  9
$REALWORLDSCALE
290
     1
  9
$INTERFERECOLOR
 62
     1
  9
$INTERFEREOBJVS
345
F9
  9
$INTERFEREVPVS
346
F6
  9
$CSHADOW
280
     0
  9
$SHADOWPLANELOCATION
 40
0.0
  0
ENDSEC
  0
SECTION
  2
CLASSES
  0
CLASS
  1
ACDBDICTIONARYWDFLT
  2
AcDbDictionaryWithDefault
  3
ObjectDBX Classes
 90
        0
 91
        1
280
     0
281
     0
  0
CLASS
  1
ACDBPLACEHOLDER
  2
AcDbPlaceHolder
  3
ObjectDBX Classes
 90
        0
 91
        1
280
     0
281
     0
  0
CLASS
  1
LAYOUT
  2
AcDbLayout
  3
ObjectDBX Classes
 90
        0
 91
        2
280
     0
281
     0
  0
CLASS
  1
DICTIONARYVAR
  2
AcDbDictionaryVar
  3
ObjectDBX Classes
 90
        0
 91
        7
280
     0
281
     0
  0
CLASS
  1
TABLESTYLE
  2
AcDbTableStyle
  3
ObjectDBX Classes
 90
     4095
 91
        1
280
     0
281
     0
  0
CLASS
  1
MATERIAL
  2
AcDbMaterial
  3
ObjectDBX Classes
 90
     1153
 91
        3
280
     0
281
     0
  0
CLASS
  1
VISUALSTYLE
  2
AcDbVisualStyle
  3
ObjectDBX Classes
 90
     4095
 91
       16
280
     0
281
     0
  0
CLASS
  1
SCALE
  2
AcDbScale
  3
ObjectDBX Classes
 90
     1153
 91
       17
280
     0
281
     0
  0
CLASS
  1
MLEADERSTYLE
  2
AcDbMLeaderStyle
  3
ACDB_MLEADERSTYLE_CLASS
 90
     4095
 91
        1
280
     0
281
     0
  0
CLASS
  1
CELLSTYLEMAP
  2
AcDbCellStyleMap
  3
ObjectDBX Classes
 90
     1152
 91
        2
280
     0
281
     0
  0
CLASS
  1
EXACXREFPANELOBJECT
  2
ExAcXREFPanelObject
  3
EXAC_ESW
 90
    33793
 91
        0
280
     0
281
     0
  0
CLASS
  1
NPOCOLLECTION
  2
AcDbImpNonPersistentObjectsCollection
  3
ObjectDBX Classes
 90
     1153
 91
        0
280
     0
281
     0
  0
CLASS
  1
LAYER_INDEX
  2
AcDbLayerIndex
  3
ObjectDBX Classes
 90
        0
 91
        0
280
     0
281
     0
  0
CLASS
  1
SPATIAL_INDEX
  2
AcDbSpatialIndex
  3
ObjectDBX Classes
 90
        0
 91
        0
280
     0
281
     0
  0
CLASS
  1
IDBUFFER
  2
AcDbIdBuffer
  3
ObjectDBX Classes
 90
        0
 91
        0
280
     0
281
     0
  0
CLASS
  1
RASTERVARIABLES
  2
AcDbRasterVariables
  3
ISM
 90
        0
 91
        2
280
     0
281
     0
  0
CLASS
  1
IMAGEDEF
  2
AcDbRasterImageDef
  3
ISM
 90
        0
 91
        5
280
     0
281
     0
  0
CLASS
  1
IMAGEDEF_REACTOR
  2
AcDbRasterImageDefReactor
  3
ISM
 90
        1
 91
        5
280
     0
281
     0
  0
CLASS
  1
IMAGE
  2
AcDbRasterImage
  3
ISM
 90
     2175
 91
        5
280
     0
281
     1
  0
CLASS
  1
LWPOLYLINE
  2
AcDbPolyline
  3
ObjectDBX Classes
 90
        0
 91
        0
280
     0
281
     1
  0
CLASS
  1
OLE2FRAME
  2
AcDbOle2Frame
  3
ObjectDBX Classes
 90
        0
 91
        0
280
     0
281
     1
  0
CLASS
  1
HATCH
  2
AcDbHatch
  3
ObjectDBX Classes
 90
        0
 91
        0
280
     0
281
     1
  0
CLASS
  1
XRECORD
  2
AcDbXrecord
  3
ObjectDBX Classes
 90
        0
 91
        9
280
     0
281
     0
  0
CLASS
  1
SORTENTSTABLE
  2
AcDbSortentsTable
  3
ObjectDBX Classes
 90
        0
 91
        0
280
     0
281
     0
  0
CLASS
  1
OBJECT_PTR
  2
CAseDLPNTableRecord
  3
"ASE-LPNTableRecord"
 90
    32769
 91
        0
280
     0
281
     0
  0
CLASS
  1
PLOTSETTINGS
  2
AcDbPlotSettings
  3
ObjectDBX Classes
 90
        0
 91
        0
280
     0
281
     0
  0
CLASS
  1
VBA_PROJECT
  2
AcDbVbaProject
  3
acad
 90
        0
 91
        0
280
     0
281
     0
  0
CLASS
  1
WIPEOUT
  2
AcDbWipeout
  3
WipeOut|AutoCAD Express Tool|expresstools@autodesk.com
 90
    32895
 91
        0
280
     0
281
     1
  0
CLASS
  1
WIPEOUTVARIABLES
  2
AcDbWipeoutVariables
  3
WipeOut|AutoCAD Express Tool|expresstools@autodesk.com
 90
    32768
 91
        0
280
     0
281
     0
  0
CLASS
  1
RTEXT
  2
RText
  3
RText|AutoCAD Express Tool|expresstools@autodesk.com
 90
    32768
 91
        0
280
     0
281
     1
  0
CLASS
  1
ARCALIGNEDTEXT
  2
AcDbArcAlignedText
  3
ATEXT|AutoCAD Express Tool|expresstools@autodesk.com
 90
    32768
 91
        0
280
     0
281
     1
  0
ENDSEC
  0
SECTION
  2
TABLES
  0
TABLE
  2
VPORT
  5
992
100
AcDbSymbolTable
 70
     1
  0
VPORT
  5
993
100
AcDbSymbolTableRecord
100
AcDbViewportTableRecord
  2
*ACTIVE
 70
     0
 10
0.000000
 20
0.000000
 11
1.000000
 21
1.000000
 12
50.000000
 22
50.000000
 13
0.000000
 23
0.000000
 14
1.000000
 24
1.000000
 15
10.000000
 25
10.000000
 16
0.000000
 26
0.000000
 36
1.000000
 17
0.000000
 27
0.000000
 37
0.000000
 40
100.000000
 41
1.387409
 42
50.000000
 43
0.000000
 44
0.000000
 50
0.000000
 51
0.000000
 71
     0
 72
   100
 73
     1
 74
     1
 75
     0
 76
     0
 77
     0
 78
     0
  0
ENDTAB
  0
TABLE
  2
LTYPE
  5
994
330
0
100
AcDbSymbolTable
 70
     9
  0
LTYPE
  5
995
330
994
100
AcDbSymbolTableRecord
100
AcDbLinetypeTableRecord
  2
ByBlock
 70
     0
  3

 72
    65
 73
     0
 40
0.000000
  0
LTYPE
  5
996
330
994
100
AcDbSymbolTableRecord
100
AcDbLinetypeTableRecord
  2
ByLayer
 70
     0
  3

 72
    65
 73
     0
 40
0.000000
  0
LTYPE
  5
997
330
994
100
AcDbSymbolTableRecord
100
AcDbLinetypeTableRecord
  2
CONTINUOUS
 70
     0
  3
Solid line
 72
    65
 73
     0
 40
0.000000
  0
LTYPE
  5
998
330
994
100
AcDbSymbolTableRecord
100
AcDbLinetypeTableRecord
  2
HIDDEN
 70
     0
  3
_ _ _ _ _ _ _ _ _ _ _ _ _ _ _ _ _ _ _ _ _ _ _
 72
    65
 73
     2
 40
0.375000
 49
0.250000
 74
     0
 49
-0.125000
 74
     0
  0
LTYPE
  5
999
330
994
100
AcDbSymbolTableRecord
100
AcDbLinetypeTableRecord
  2
DOT
 70
     0
  3
...............................................
 72
    65
 73
     2
 40
0.250000
 49
0.000000
 74
     0
 49
-0.250000
 74
     0
  0
LTYPE
  5
99A
330
994
100
AcDbSymbolTableRecord
100
AcDbLinetypeTableRecord
  2
DASHED
 70
     0
  3
__ __ __ __ __ __ __ __ __ __ __ __ __ __ __ 
 72
    65
 73
     2
 40
0.750000
 49
0.500000
 74
     0
 49
-0.250000
 74
     0
  0
LTYPE
  5
99B
330
994
100
AcDbSymbolTableRecord
100
AcDbLinetypeTableRecord
  2
DIVIDE
 70
     0
  3
__ . . __ . . __ . . __ . . __ . . __ . . __
 72
    65
 73
     6
 40
1.250000
 49
0.500000
 74
     0
 49
-0.250000
 74
     0
 49
0.000000
 74
     0
 49
-0.250000
 74
     0
 49
0.000000
 74
     0
 49
-0.250000
 74
     0
  0
LTYPE
  5
99C
330
994
100
AcDbSymbolTableRecord
100
AcDbLinetypeTableRecord
  2
DASHDOT
 70
     0
  3
__ . __ . __ . __ . __ . __ . __ . __ . __ . __
 72
    65
 73
     4
 40
1.000000
 49
0.500000
 74
     0
 49
-0.250000
 74
     0
 49
0.000000
 74
     0
 49
-0.250000
 74
     0
  0
LTYPE
  5
99D
330
994
100
AcDbSymbolTableRecord
100
AcDbLinetypeTableRecord
  2
BORDER
 70
     0
  3
__ __ . __ __ . __ __ . __ __ . __ __ . __ __
 72
    65
 73
     6
 40
1.750000
 49
0.500000
 74
     0
 49
-0.250000
 74
     0
 49
0.500000
 74
     0
 49
-0.250000
 74
     0
 49
0.000000
 74
     0
 49
-0.250000
 74
     0
  0
LTYPE
  5
99E
330
994
100
AcDbSymbolTableRecord
100
AcDbLinetypeTableRecord
  2
CENTER
 70
     0
  3
____ _ ____ _ ____ _ ____ _ ____ _ ____ _ ____
 72
    65
 73
     4
 40
2.000000
 49
1.250000
 74
     0
 49
-0.250000
 74
     0
 49
0.250000
 74
     0
 49
-0.250000
 74
     0
  0
LTYPE
  5
99F
330
994
100
AcDbSymbolTableRecord
100
AcDbLinetypeTableRecord
  2
PHANTOM
 70
     0
  3
_____ _ _ _____ _ _ _____ _ _ _____ _ _ ____
 72
    65
 73
     6
 40
2.500000
 49
1.250000
 74
     0
 49
-0.250000
 74
     0
 49
0.250000
 74
     0
 49
-0.250000
 74
     0
 49
0.250000
 74
     0
 49
-0.250000
 74
     0
  0
ENDTAB
  0
TABLE
  2
LAYER
  5
9A0
100
AcDbSymbolTable
 70
     4
  0
LAYER
  5
9A1
100
AcDbSymbolTableRecord
100
AcDbLayerTableRecord
  2
0
 70
     0
 62
     7
  6
CONTINUOUS
370
    -3
390
     0
  0
LAYER
  5
9A2
100
AcDbSymbolTableRecord
100
AcDbLayerTableRecord
  2
Detail
 70
     0
 62
     7
  6
CONTINUOUS
370
    -3
390
     0
  0
LAYER
  5
9A3
100
AcDbSymbolTableRecord
100
AcDbLayerTableRecord
  2
SCHRAFF
 70
     0
 62
     7
  6
CONTINUOUS
370
    -3
390
     0
  0
LAYER
  5
9A4
100
AcDbSymbolTableRecord
100
AcDbLayerTableRecord
  2
L
 70
     0
 62
     7
  6
CONTINUOUS
370
    -3
390
     0
  0
ENDTAB
  0
TABLE
  2
STYLE
  5
9A5
100
AcDbSymbolTable
 70
     2
  0
STYLE
  5
201
100
AcDbSymbolTableRecord
100
AcDbTextStyleTableRecord
  2
STANDARD
 70
     0
 40
0.000000
 41
1.000000
 50
0.000000
 71
     0
 42
3.500000
  3
txt
  4

  0
STYLE
  5
32E
100
AcDbSymbolTableRecord
100
AcDbTextStyleTableRecord
  2
Arial
 70
     0
 40
0.000000
 41
1.000000
 50
0.000000
 71
     0
 42
3.500000
  3
Arial.ttf
  4

1001
ACAD
1000
Arial
1071
     0
  0
ENDTAB
  0
TABLE
  2
DIMSTYLE
  5
9A6
100
AcDbSymbolTable
 70
     0
100
AcDbDimStyleTable
  0
ENDTAB
  0
TABLE
  2
VIEW
  5
9A7
100
AcDbSymbolTable
 70
     0
  0
ENDTAB
  0
TABLE
  2
UCS
  5
9A8
100
AcDbSymbolTable
 70
     0
  0
ENDTAB
  0
TABLE
  2
APPID
  5
9A9
100
AcDbSymbolTable
 70
     1
  0
APPID
  5
9AA
100
AcDbSymbolTableRecord
100
AcDbRegAppTableRecord
  2
ACAD
 70
     0
  0
ENDTAB
  0
TABLE
  2
BLOCK_RECORD
  5
9AB
100
AcDbSymbolTable
 70
    82
  0
BLOCK_RECORD
  5
202
102
{ACAD_XDICTIONARY
360
203
102
}
100
AcDbSymbolTableRecord
100
AcDbBlockTableRecord
  2
*Model_Space
  0
BLOCK_RECORD
  5
9AC
100
AcDbSymbolTableRecord
100
AcDbBlockTableRecord
  2
*Paper_Space
  0
BLOCK_RECORD
  5
9AD
100
AcDbSymbolTableRecord
100
AcDbBlockTableRecord
  2
*Paper_Space0
  0
BLOCK_RECORD
  5
9AE
100
AcDbSymbolTableRecord
100
AcDbBlockTableRecord
  2
B
  0
BLOCK_RECORD
  5
9AF
100
AcDbSymbolTableRecord
100
AcDbBlockTableRecord
  2
B-2
  0
BLOCK_RECORD
  5
9B0
100
AcDbSymbolTableRecord
100
AcDbBlockTableRecord
  2
B-3
  0
BLOCK_RECORD
  5
9B1
100
AcDbSymbolTableRecord
100
AcDbBlockTableRecord
  2
B-4
  0
BLOCK_RECORD
  5
9B2
100
AcDbSymbolTableRecord
100
AcDbBlockTableRecord
  2
B-5
  0
BLOCK_RECORD
  5
9B3
100
AcDbSymbolTableRecord
100
AcDbBlockTableRecord
  2
B-6
  0
BLOCK_RECORD
  5
9B4
100
AcDbSymbolTableRecord
100
AcDbBlockTableRecord
  2
B-7
  0
BLOCK_RECORD
  5
9B5
100
AcDbSymbolTableRecord
100
AcDbBlockTableRecord
  2
B-8
  0
BLOCK_RECORD
  5
9B6
100
AcDbSymbolTableRecord
100
AcDbBlockTableRecord
  2
B-9
  0
BLOCK_RECORD
  5
9B7
100
AcDbSymbolTableRecord
100
AcDbBlockTableRecord
  2
B-10
  0
BLOCK_RECORD
  5
9B8
100
AcDbSymbolTableRecord
100
AcDbBlockTableRecord
  2
B-11
  0
BLOCK_RECORD
  5
9B9
100
AcDbSymbolTableRecord
100
AcDbBlockTableRecord
  2
B-12
  0
BLOCK_RECORD
  5
9BA
100
AcDbSymbolTableRecord
100
AcDbBlockTableRecord
  2
B-13
  0
BLOCK_RECORD
  5
9BB
100
AcDbSymbolTableRecord
100
AcDbBlockTableRecord
  2
B-14
  0
BLOCK_RECORD
  5
9BC
100
AcDbSymbolTableRecord
100
AcDbBlockTableRecord
  2
B-15
  0
BLOCK_RECORD
  5
9BD
100
AcDbSymbolTableRecord
100
AcDbBlockTableRecord
  2
B-16
  0
BLOCK_RECORD
  5
9BE
100
AcDbSymbolTableRecord
100
AcDbBlockTableRecord
  2
B-17
  0
BLOCK_RECORD
  5
9BF
100
AcDbSymbolTableRecord
100
AcDbBlockTableRecord
  2
B-18
  0
BLOCK_RECORD
  5
9C0
100
AcDbSymbolTableRecord
100
AcDbBlockTableRecord
  2
B-19
  0
BLOCK_RECORD
  5
9C1
100
AcDbSymbolTableRecord
100
AcDbBlockTableRecord
  2
B-20
  0
BLOCK_RECORD
  5
9C2
100
AcDbSymbolTableRecord
100
AcDbBlockTableRecord
  2
B-21
  0
BLOCK_RECORD
  5
9C3
100
AcDbSymbolTableRecord
100
AcDbBlockTableRecord
  2
B-22
  0
BLOCK_RECORD
  5
9C4
100
AcDbSymbolTableRecord
100
AcDbBlockTableRecord
  2
B-23
  0
BLOCK_RECORD
  5
9C5
100
AcDbSymbolTableRecord
100
AcDbBlockTableRecord
  2
B-24
  0
BLOCK_RECORD
  5
9C6
100
AcDbSymbolTableRecord
100
AcDbBlockTableRecord
  2
B-25
  0
BLOCK_RECORD
  5
9C7
100
AcDbSymbolTableRecord
100
AcDbBlockTableRecord
  2
B-26
  0
BLOCK_RECORD
  5
9C8
100
AcDbSymbolTableRecord
100
AcDbBlockTableRecord
  2
B-27
  0
BLOCK_RECORD
  5
9C9
100
AcDbSymbolTableRecord
100
AcDbBlockTableRecord
  2
B-28
  0
BLOCK_RECORD
  5
9CA
100
AcDbSymbolTableRecord
100
AcDbBlockTableRecord
  2
B-29
  0
BLOCK_RECORD
  5
9CB
100
AcDbSymbolTableRecord
100
AcDbBlockTableRecord
  2
B-30
  0
BLOCK_RECORD
  5
9CC
100
AcDbSymbolTableRecord
100
AcDbBlockTableRecord
  2
B-31
  0
BLOCK_RECORD
  5
9CD
100
AcDbSymbolTableRecord
100
AcDbBlockTableRecord
  2
B-32
  0
BLOCK_RECORD
  5
9CE
100
AcDbSymbolTableRecord
100
AcDbBlockTableRecord
  2
B-33
  0
BLOCK_RECORD
  5
9CF
100
AcDbSymbolTableRecord
100
AcDbBlockTableRecord
  2
B-34
  0
BLOCK_RECORD
  5
9D0
100
AcDbSymbolTableRecord
100
AcDbBlockTableRecord
  2
B-35
  0
BLOCK_RECORD
  5
9D1
100
AcDbSymbolTableRecord
100
AcDbBlockTableRecord
  2
B-36
  0
BLOCK_RECORD
  5
9D2
100
AcDbSymbolTableRecord
100
AcDbBlockTableRecord
  2
B-37
  0
BLOCK_RECORD
  5
9D3
100
AcDbSymbolTableRecord
100
AcDbBlockTableRecord
  2
B-38
  0
BLOCK_RECORD
  5
9D4
100
AcDbSymbolTableRecord
100
AcDbBlockTableRecord
  2
B-39
  0
BLOCK_RECORD
  5
9D5
100
AcDbSymbolTableRecord
100
AcDbBlockTableRecord
  2
B-40
  0
BLOCK_RECORD
  5
9D6
100
AcDbSymbolTableRecord
100
AcDbBlockTableRecord
  2
B-41
  0
BLOCK_RECORD
  5
9D7
100
AcDbSymbolTableRecord
100
AcDbBlockTableRecord
  2
B-42
  0
BLOCK_RECORD
  5
9D8
100
AcDbSymbolTableRecord
100
AcDbBlockTableRecord
  2
B-43
  0
BLOCK_RECORD
  5
9D9
100
AcDbSymbolTableRecord
100
AcDbBlockTableRecord
  2
B-44
  0
BLOCK_RECORD
  5
9DA
100
AcDbSymbolTableRecord
100
AcDbBlockTableRecord
  2
B-45
  0
BLOCK_RECORD
  5
9DB
100
AcDbSymbolTableRecord
100
AcDbBlockTableRecord
  2
B-46
  0
BLOCK_RECORD
  5
9DC
100
AcDbSymbolTableRecord
100
AcDbBlockTableRecord
  2
B-47
  0
BLOCK_RECORD
  5
9DD
100
AcDbSymbolTableRecord
100
AcDbBlockTableRecord
  2
B-48
  0
BLOCK_RECORD
  5
9DE
100
AcDbSymbolTableRecord
100
AcDbBlockTableRecord
  2
B-49
  0
BLOCK_RECORD
  5
9DF
100
AcDbSymbolTableRecord
100
AcDbBlockTableRecord
  2
B-50
  0
BLOCK_RECORD
  5
9E0
100
AcDbSymbolTableRecord
100
AcDbBlockTableRecord
  2
B-51
  0
BLOCK_RECORD
  5
9E1
100
AcDbSymbolTableRecord
100
AcDbBlockTableRecord
  2
B-52
  0
BLOCK_RECORD
  5
9E2
100
AcDbSymbolTableRecord
100
AcDbBlockTableRecord
  2
B-53
  0
BLOCK_RECORD
  5
9E3
100
AcDbSymbolTableRecord
100
AcDbBlockTableRecord
  2
B-54
  0
BLOCK_RECORD
  5
9E4
100
AcDbSymbolTableRecord
100
AcDbBlockTableRecord
  2
B-55
  0
BLOCK_RECORD
  5
9E5
100
AcDbSymbolTableRecord
100
AcDbBlockTableRecord
  2
B-56
  0
BLOCK_RECORD
  5
9E6
100
AcDbSymbolTableRecord
100
AcDbBlockTableRecord
  2
B-57
  0
BLOCK_RECORD
  5
9E7
100
AcDbSymbolTableRecord
100
AcDbBlockTableRecord
  2
B-59
  0
BLOCK_RECORD
  5
9E8
100
AcDbSymbolTableRecord
100
AcDbBlockTableRecord
  2
B-60
  0
BLOCK_RECORD
  5
9E9
100
AcDbSymbolTableRecord
100
AcDbBlockTableRecord
  2
B-61
  0
BLOCK_RECORD
  5
9EA
100
AcDbSymbolTableRecord
100
AcDbBlockTableRecord
  2
B-62
  0
BLOCK_RECORD
  5
9EB
100
AcDbSymbolTableRecord
100
AcDbBlockTableRecord
  2
B-64
  0
BLOCK_RECORD
  5
9EC
100
AcDbSymbolTableRecord
100
AcDbBlockTableRecord
  2
B-65
  0
BLOCK_RECORD
  5
9ED
100
AcDbSymbolTableRecord
100
AcDbBlockTableRecord
  2
B-66
  0
BLOCK_RECORD
  5
9EE
100
AcDbSymbolTableRecord
100
AcDbBlockTableRecord
  2
B-67
  0
BLOCK_RECORD
  5
9EF
100
AcDbSymbolTableRecord
100
AcDbBlockTableRecord
  2
B-68
  0
BLOCK_RECORD
  5
9F0
100
AcDbSymbolTableRecord
100
AcDbBlockTableRecord
  2
B-69
  0
BLOCK_RECORD
  5
9F1
100
AcDbSymbolTableRecord
100
AcDbBlockTableRecord
  2
B-70
  0
BLOCK_RECORD
  5
9F2
100
AcDbSymbolTableRecord
100
AcDbBlockTableRecord
  2
B-71
  0
BLOCK_RECORD
  5
9F3
100
AcDbSymbolTableRecord
100
AcDbBlockTableRecord
  2
B-72
  0
BLOCK_RECORD
  5
9F4
100
AcDbSymbolTableRecord
100
AcDbBlockTableRecord
  2
B-73
  0
BLOCK_RECORD
  5
9F5
100
AcDbSymbolTableRecord
100
AcDbBlockTableRecord
  2
B-74
  0
BLOCK_RECORD
  5
9F6
100
AcDbSymbolTableRecord
100
AcDbBlockTableRecord
  2
B-75
  0
BLOCK_RECORD
  5
9F7
100
AcDbSymbolTableRecord
100
AcDbBlockTableRecord
  2
B-76
  0
BLOCK_RECORD
  5
9F8
100
AcDbSymbolTableRecord
100
AcDbBlockTableRecord
  2
B-77
  0
BLOCK_RECORD
  5
9F9
100
AcDbSymbolTableRecord
100
AcDbBlockTableRecord
  2
B-78
  0
BLOCK_RECORD
  5
9FA
100
AcDbSymbolTableRecord
100
AcDbBlockTableRecord
  2
B-79
  0
BLOCK_RECORD
  5
9FB
100
AcDbSymbolTableRecord
100
AcDbBlockTableRecord
  2
B-80
  0
BLOCK_RECORD
  5
9FC
100
AcDbSymbolTableRecord
100
AcDbBlockTableRecord
  2
B-81
  0
ENDTAB
  0
ENDSEC
  0
SECTION
  2
BLOCKS
  0
BLOCK
  5
204
100
AcDbEntity
  8
0
100
AcDbBlockBegin
  2
*Model_Space
 70
     0
 10
0.000000
 20
0.000000
 30
0.000000
  3
*Model_Space
  1

  0
ENDBLK
  5
205
100
AcDbEntity
  8
0
100
AcDbBlockEnd
  0
BLOCK
  5
206
100
AcDbEntity
 67
     1
  8
0
100
AcDbBlockBegin
  2
*Paper_Space
 70
     0
 10
0.000000
 20
0.000000
 30
0.000000
  3
*Paper_Space
  1

  0
ENDBLK
  5
207
100
AcDbEntity
 67
     1
  8
0
100
AcDbBlockEnd
  0
BLOCK
  5
208
100
AcDbEntity
 67
     1
  8
0
100
AcDbBlockBegin
  2
*Paper_Space0
 70
     0
 10
0.000000
 20
0.000000
 30
0.000000
  3
*Paper_Space0
  1

  0
ENDBLK
  5
209
100
AcDbEntity
 67
     1
  8
0
100
AcDbBlockEnd
  0
BLOCK
  5
20A
100
AcDbEntity
  8
SCHRAFF
100
AcDbBlockBegin
  2
B
 70
    66
 10
0.000000
 20
0.000000
 30
0.000000
  0
HATCH
  5
20B
100
AcDbEntity
  8
SCHRAFF
 62
   254
440
     0
100
AcDbHatch
 10
0.000000
 20
0.000000
 30
0.000000
210
0.000000
220
0.000000
230
1.000000
  2
SOLID
 70
     1
 71
     1
 91
     1
 92
    18
 72
     1
 73
     0
 93
     5
 10
-152.500018
 20
59.500069
 42
0.000000
 10
-152.500018
 20
40.500069
 42
0.000000
 10
-150.500018
 20
40.500069
 42
0.000000
 10
-150.500018
 20
59.500069
 42
0.000000
 10
-152.500018
 20
59.500069
 42
0.000000
 97
     0
 75
     0
 76
     1
 98
     0
  0
HATCH
  5
20C
100
AcDbEntity
  8
SCHRAFF
 62
   254
440
     0
100
AcDbHatch
 10
0.000000
 20
0.000000
 30
0.000000
210
0.000000
220
0.000000
230
1.000000
  2
SOLID
 70
     1
 71
     1
 91
     1
 92
    18
 72
     1
 73
     0
 93
     5
 10
-150.500018
 20
57.500069
 42
0.000000
 10
-67.500018
 20
57.500069
 42
0.000000
 10
-67.500018
 20
59.500069
 42
0.000000
 10
-150.500018
 20
59.500069
 42
0.000000
 10
-150.500018
 20
57.500069
 42
0.000000
 97
     0
 75
     0
 76
     1
 98
     0
  0
HATCH
  5
20D
100
AcDbEntity
  8
SCHRAFF
 62
   254
440
     0
100
AcDbHatch
 10
0.000000
 20
0.000000
 30
0.000000
210
0.000000
220
0.000000
230
1.000000
  2
SOLID
 70
     1
 71
     1
 91
     1
 92
    18
 72
     1
 73
     0
 93
     5
 10
-150.500018
 20
40.500069
 42
0.000000
 10
-67.500018
 20
40.500069
 42
0.000000
 10
-67.500018
 20
42.500069
 42
0.000000
 10
-150.500018
 20
42.500069
 42
0.000000
 10
-150.500018
 20
40.500069
 42
0.000000
 97
     0
 75
     0
 76
     1
 98
     0
  0
ENDBLK
  5
20E
100
AcDbEntity
  8
0
100
AcDbBlockEnd
  0
BLOCK
  5
20F
100
AcDbEntity
  8
SCHRAFF
100
AcDbBlockBegin
  2
B-2
 70
    66
 10
0.000000
 20
0.000000
 30
0.000000
  0
HATCH
  5
210
100
AcDbEntity
  8
SCHRAFF
 62
    21
440
     0
100
AcDbHatch
 10
0.000000
 20
0.000000
 30
0.000000
210
0.000000
220
0.000000
230
1.000000
  2
SOLID
 70
     1
 71
     1
 91
     1
 92
    18
 72
     1
 73
     0
 93
   243
 10
-47.492939
 20
105.500069
 42
0.000000
 10
-47.492939
 20
106.500069
 42
0.000000
 10
-46.992939
 20
107.500069
 42
0.000000
 10
-47.492939
 20
108.500069
 42
0.000000
 10
-47.492939
 20
109.500069
 42
0.000000
 10
-47.992939
 20
110.500069
 42
0.000000
 10
-47.492939
 20
111.500069
 42
0.000000
 10
-47.492939
 20
112.500069
 42
0.000000
 10
-46.992939
 20
113.500069
 42
0.000000
 10
-47.492939
 20
114.500069
 42
0.000000
 10
-47.492939
 20
115.500069
 42
0.000000
 10
-47.992939
 20
116.500069
 42
0.000000
 10
-47.492939
 20
117.500069
 42
0.000000
 10
-47.492939
 20
118.500069
 42
0.000000
 10
-46.992939
 20
119.500069
 42
0.000000
 10
-47.492939
 20
120.500069
 42
0.000000
 10
-47.492939
 20
121.500069
 42
0.000000
 10
-47.992939
 20
122.500069
 42
0.000000
 10
-47.492939
 20
123.500069
 42
0.000000
 10
-47.492939
 20
124.500069
 42
0.000000
 10
-46.992939
 20
125.500069
 42
0.000000
 10
-47.492939
 20
126.500069
 42
0.000000
 10
-47.492939
 20
127.500069
 42
0.000000
 10
-47.992939
 20
128.500069
 42
0.000000
 10
-47.492939
 20
129.500069
 42
0.000000
 10
-47.492939
 20
130.500069
 42
0.000000
 10
-46.992939
 20
131.500069
 42
0.000000
 10
-47.492939
 20
132.500069
 42
0.000000
 10
-47.492939
 20
133.500069
 42
0.000000
 10
-47.992939
 20
134.500069
 42
0.000000
 10
-47.492939
 20
135.500069
 42
0.000000
 10
-47.492939
 20
136.500069
 42
0.000000
 10
-46.992939
 20
137.500069
 42
0.000000
 10
-47.492939
 20
138.500069
 42
0.000000
 10
-47.492939
 20
139.500069
 42
0.000000
 10
-47.992939
 20
140.500069
 42
0.000000
 10
-47.492939
 20
141.500069
 42
0.000000
 10
-47.492939
 20
142.500069
 42
0.000000
 10
-46.992939
 20
143.500069
 42
0.000000
 10
-47.492939
 20
144.500069
 42
0.000000
 10
-47.492939
 20
145.500069
 42
0.000000
 10
-47.992939
 20
146.500069
 42
0.000000
 10
-47.492939
 20
147.500069
 42
0.000000
 10
-47.492939
 20
148.500069
 42
0.000000
 10
-46.992939
 20
149.500069
 42
0.000000
 10
-47.492939
 20
150.500069
 42
0.000000
 10
-47.492939
 20
151.500069
 42
0.000000
 10
-47.992939
 20
152.500069
 42
0.000000
 10
-47.492939
 20
153.500069
 42
0.000000
 10
-47.492939
 20
154.500069
 42
0.000000
 10
-46.992939
 20
155.500069
 42
0.000000
 10
-47.492939
 20
156.500069
 42
0.000000
 10
-47.492939
 20
157.500069
 42
0.000000
 10
-47.992939
 20
158.500069
 42
0.000000
 10
-47.492939
 20
159.500069
 42
0.000000
 10
-47.492939
 20
160.500069
 42
0.000000
 10
-46.992939
 20
161.500069
 42
0.000000
 10
-47.492939
 20
162.500069
 42
0.000000
 10
-47.492939
 20
163.500069
 42
0.000000
 10
-47.992939
 20
164.500069
 42
0.000000
 10
-47.492939
 20
165.500069
 42
0.000000
 10
-47.492939
 20
166.500069
 42
0.000000
 10
-46.992939
 20
167.500069
 42
0.000000
 10
-47.492939
 20
168.500069
 42
0.000000
 10
-47.492939
 20
169.500069
 42
0.000000
 10
-47.992939
 20
170.500069
 42
0.000000
 10
-47.492939
 20
171.500069
 42
0.000000
 10
-47.492939
 20
172.500069
 42
0.000000
 10
-46.992939
 20
173.500069
 42
0.000000
 10
-47.492939
 20
174.500069
 42
0.000000
 10
-47.492939
 20
175.500069
 42
0.000000
 10
-47.992939
 20
176.500069
 42
0.000000
 10
-47.492939
 20
177.500069
 42
0.000000
 10
-47.492939
 20
178.500069
 42
0.000000
 10
-46.992939
 20
179.500069
 42
0.000000
 10
-47.492939
 20
180.500069
 42
0.000000
 10
-47.492939
 20
181.500069
 42
0.000000
 10
-47.992939
 20
182.500069
 42
0.000000
 10
-47.492939
 20
183.500069
 42
0.000000
 10
-47.492939
 20
184.500069
 42
0.000000
 10
-46.992939
 20
185.500069
 42
0.000000
 10
-47.492939
 20
186.500069
 42
0.000000
 10
-47.492939
 20
187.500069
 42
0.000000
 10
-47.992939
 20
188.500069
 42
0.000000
 10
-47.492939
 20
189.500069
 42
0.000000
 10
-47.492939
 20
190.500069
 42
0.000000
 10
-46.992939
 20
191.500069
 42
0.000000
 10
-47.492939
 20
192.500069
 42
0.000000
 10
-47.492939
 20
193.500069
 42
0.000000
 10
-47.992939
 20
194.500069
 42
0.000000
 10
-47.492939
 20
195.500069
 42
0.000000
 10
-47.492939
 20
196.500069
 42
0.000000
 10
-46.992939
 20
197.500069
 42
0.000000
 10
-47.492939
 20
198.500069
 42
0.000000
 10
-47.492939
 20
199.500069
 42
0.000000
 10
-47.992939
 20
200.500069
 42
0.000000
 10
-47.492939
 20
201.500069
 42
0.000000
 10
-47.492939
 20
202.500069
 42
0.000000
 10
-46.992939
 20
203.500069
 42
0.000000
 10
-47.492939
 20
204.500069
 42
0.000000
 10
-47.492939
 20
205.500069
 42
0.000000
 10
-47.992939
 20
206.500069
 42
0.000000
 10
-47.492939
 20
207.500069
 42
0.000000
 10
-47.492939
 20
208.500069
 42
0.000000
 10
-46.992939
 20
209.500069
 42
0.000000
 10
-47.492939
 20
210.500069
 42
0.000000
 10
-47.492939
 20
211.500069
 42
0.000000
 10
-47.992939
 20
212.500069
 42
0.000000
 10
-47.492939
 20
213.500069
 42
0.000000
 10
-47.492939
 20
214.500069
 42
0.000000
 10
-46.992939
 20
215.500069
 42
0.000000
 10
-47.492939
 20
216.500069
 42
0.000000
 10
-47.492939
 20
217.500069
 42
0.000000
 10
-47.992939
 20
218.500069
 42
0.000000
 10
-47.492939
 20
219.500069
 42
0.000000
 10
-47.492939
 20
220.500069
 42
0.000000
 10
-46.992939
 20
221.500069
 42
0.000000
 10
-47.492939
 20
222.500069
 42
0.000000
 10
-47.492939
 20
223.500069
 42
0.000000
 10
-47.992939
 20
224.500069
 42
0.000000
 10
-47.492939
 20
225.500069
 42
0.000000
 10
-47.492939
 20
226.492402
 42
0.000000
 10
-46.992939
 20
227.500069
 42
0.000000
 10
-47.492939
 20
228.500069
 42
0.000000
 10
-47.492939
 20
229.500069
 42
0.000000
 10
-47.992939
 20
230.500069
 42
0.000000
 10
-47.492939
 20
231.500069
 42
0.000000
 10
-47.492939
 20
232.500069
 42
0.000000
 10
-46.992939
 20
233.500069
 42
0.000000
 10
-47.492939
 20
234.500069
 42
0.000000
 10
-47.492939
 20
235.500069
 42
0.000000
 10
-47.992939
 20
236.500069
 42
0.000000
 10
-47.492939
 20
237.500069
 42
0.000000
 10
-47.492939
 20
238.500069
 42
0.000000
 10
-46.992939
 20
239.500069
 42
0.000000
 10
-47.492939
 20
240.500069
 42
0.000000
 10
-47.492939
 20
241.500069
 42
0.000000
 10
-47.992939
 20
242.500069
 42
0.000000
 10
-47.492939
 20
243.500069
 42
0.000000
 10
-47.492939
 20
244.500069
 42
0.000000
 10
-46.992939
 20
245.500069
 42
0.000000
 10
-47.492939
 20
246.500069
 42
0.000000
 10
-47.492939
 20
247.500069
 42
0.000000
 10
-47.992939
 20
248.500069
 42
0.000000
 10
-47.492939
 20
249.500069
 42
0.000000
 10
-47.492939
 20
250.500069
 42
0.000000
 10
-46.992939
 20
251.500069
 42
0.000000
 10
-47.492939
 20
252.500069
 42
0.000000
 10
-47.492939
 20
253.500069
 42
0.000000
 10
-47.992939
 20
254.500069
 42
0.000000
 10
-47.492939
 20
255.500069
 42
0.000000
 10
-47.492939
 20
256.500069
 42
0.000000
 10
-46.992939
 20
257.500069
 42
0.000000
 10
-47.488541
 20
258.491272
 42
0.000000
 10
-47.492939
 20
259.500069
 42
0.000000
 10
-47.992939
 20
260.500069
 42
0.000000
 10
-47.492939
 20
261.500069
 42
0.000000
 10
-47.492939
 20
262.500069
 42
0.000000
 10
-46.992939
 20
263.500069
 42
0.000000
 10
-47.492939
 20
264.500069
 42
0.000000
 10
-47.492939
 20
265.500069
 42
0.000000
 10
-47.992939
 20
266.500069
 42
0.000000
 10
-47.492939
 20
267.500069
 42
0.000000
 10
-47.492939
 20
268.500069
 42
0.000000
 10
-46.992939
 20
269.500069
 42
0.000000
 10
-47.492939
 20
270.500069
 42
0.000000
 10
-47.492939
 20
271.500069
 42
0.000000
 10
-47.992939
 20
272.500069
 42
0.000000
 10
-47.492939
 20
273.500069
 42
0.000000
 10
-47.492939
 20
274.500069
 42
0.000000
 10
-46.992939
 20
275.500069
 42
0.000000
 10
-47.492939
 20
276.500069
 42
0.000000
 10
-47.492939
 20
277.500069
 42
0.000000
 10
-47.992939
 20
278.500069
 42
0.000000
 10
-47.492939
 20
279.500069
 42
0.000000
 10
-47.492939
 20
280.500069
 42
0.000000
 10
-46.992939
 20
281.500069
 42
0.000000
 10
-47.492939
 20
282.500069
 42
0.000000
 10
-47.492939
 20
283.500069
 42
0.000000
 10
-47.992939
 20
284.500069
 42
0.000000
 10
-47.492939
 20
285.500069
 42
0.000000
 10
-47.492939
 20
286.500069
 42
0.000000
 10
-46.992939
 20
287.500069
 42
0.000000
 10
-47.492939
 20
288.500069
 42
0.000000
 10
-47.492939
 20
289.500069
 42
0.000000
 10
-47.992939
 20
290.500069
 42
0.000000
 10
-47.492939
 20
291.500069
 42
0.000000
 10
-47.492939
 20
292.500069
 42
0.000000
 10
-46.992939
 20
293.500069
 42
0.000000
 10
-47.492939
 20
294.500069
 42
0.000000
 10
-47.492939
 20
295.500069
 42
0.000000
 10
-47.867944
 20
296.250078
 42
0.000000
 10
-57.500018
 20
296.250078
 42
0.000000
 10
-57.500018
 20
57.500069
 42
0.000000
 10
-47.492939
 20
57.500069
 42
0.000000
 10
-47.492939
 20
58.500069
 42
0.000000
 10
-46.992939
 20
59.500069
 42
0.000000
 10
-47.492939
 20
60.500069
 42
0.000000
 10
-47.492939
 20
61.500069
 42
0.000000
 10
-47.992939
 20
62.500069
 42
0.000000
 10
-47.492939
 20
63.500069
 42
0.000000
 10
-47.492939
 20
64.500069
 42
0.000000
 10
-47.000018
 20
65.485912
 42
0.000000
 10
-47.492939
 20
66.500069
 42
0.000000
 10
-47.492939
 20
67.500069
 42
0.000000
 10
-47.992939
 20
68.500069
 42
0.000000
 10
-47.492939
 20
69.500069
 42
0.000000
 10
-47.492939
 20
70.500069
 42
0.000000
 10
-46.992939
 20
71.500069
 42
0.000000
 10
-47.492939
 20
72.500069
 42
0.000000
 10
-47.492939
 20
73.500069
 42
0.000000
 10
-47.992939
 20
74.500069
 42
0.000000
 10
-47.492939
 20
75.500069
 42
0.000000
 10
-47.492939
 20
76.500069
 42
0.000000
 10
-46.992939
 20
77.500069
 42
0.000000
 10
-47.492939
 20
78.500069
 42
0.000000
 10
-47.492939
 20
79.500069
 42
0.000000
 10
-47.992939
 20
80.500069
 42
0.000000
 10
-47.492939
 20
81.500069
 42
0.000000
 10
-47.492939
 20
82.500069
 42
0.000000
 10
-46.992939
 20
83.500069
 42
0.000000
 10
-47.492939
 20
84.500069
 42
0.000000
 10
-47.492939
 20
85.500069
 42
0.000000
 10
-47.992939
 20
86.500069
 42
0.000000
 10
-47.492939
 20
87.500069
 42
0.000000
 10
-47.492939
 20
88.492402
 42
0.000000
 10
-46.992939
 20
89.500069
 42
0.000000
 10
-47.492939
 20
90.500069
 42
0.000000
 10
-47.492939
 20
91.500069
 42
0.000000
 10
-47.992939
 20
92.500069
 42
0.000000
 10
-47.492939
 20
93.500069
 42
0.000000
 10
-47.492939
 20
94.500069
 42
0.000000
 10
-46.992939
 20
95.500069
 42
0.000000
 10
-47.492939
 20
96.500069
 42
0.000000
 10
-47.492939
 20
97.500069
 42
0.000000
 10
-47.992939
 20
98.500069
 42
0.000000
 10
-47.492939
 20
99.500069
 42
0.000000
 10
-47.492939
 20
100.500069
 42
0.000000
 10
-46.992939
 20
101.500069
 42
0.000000
 10
-47.492939
 20
102.500069
 42
0.000000
 10
-47.492939
 20
103.500069
 42
0.000000
 10
-47.992939
 20
104.500069
 42
0.000000
 10
-47.492939
 20
105.500069
 42
0.000000
 97
     0
 75
     0
 76
     1
 98
     0
  0
ENDBLK
  5
211
100
AcDbEntity
  8
0
100
AcDbBlockEnd
  0
BLOCK
  5
212
100
AcDbEntity
  8
SCHRAFF
100
AcDbBlockBegin
  2
B-3
 70
    66
 10
0.000000
 20
0.000000
 30
0.000000
  0
HATCH
  5
213
100
AcDbEntity
  8
SCHRAFF
 62
    21
440
     0
100
AcDbHatch
 10
0.000000
 20
0.000000
 30
0.000000
210
0.000000
220
0.000000
230
1.000000
  2
SOLID
 70
     1
 71
     1
 91
     1
 92
    18
 72
     1
 73
     0
 93
   243
 10
-47.492939
 20
-5.499932
 42
0.000000
 10
-47.492939
 20
-6.499932
 42
0.000000
 10
-46.992939
 20
-7.499932
 42
0.000000
 10
-47.492939
 20
-8.499932
 42
0.000000
 10
-47.492939
 20
-9.499932
 42
0.000000
 10
-47.992939
 20
-10.499932
 42
0.000000
 10
-47.492939
 20
-11.499932
 42
0.000000
 10
-47.492939
 20
-12.499932
 42
0.000000
 10
-46.992939
 20
-13.499932
 42
0.000000
 10
-47.492939
 20
-14.499932
 42
0.000000
 10
-47.492939
 20
-15.499932
 42
0.000000
 10
-47.992939
 20
-16.499932
 42
0.000000
 10
-47.492939
 20
-17.499932
 42
0.000000
 10
-47.492939
 20
-18.499932
 42
0.000000
 10
-46.992939
 20
-19.499932
 42
0.000000
 10
-47.492939
 20
-20.499932
 42
0.000000
 10
-47.492939
 20
-21.499932
 42
0.000000
 10
-47.992939
 20
-22.499932
 42
0.000000
 10
-47.492939
 20
-23.499932
 42
0.000000
 10
-47.492939
 20
-24.499932
 42
0.000000
 10
-46.992939
 20
-25.499932
 42
0.000000
 10
-47.492939
 20
-26.499932
 42
0.000000
 10
-47.492939
 20
-27.499932
 42
0.000000
 10
-47.992939
 20
-28.499932
 42
0.000000
 10
-47.492939
 20
-29.499932
 42
0.000000
 10
-47.492939
 20
-30.499932
 42
0.000000
 10
-46.992939
 20
-31.499932
 42
0.000000
 10
-47.492939
 20
-32.499932
 42
0.000000
 10
-47.492939
 20
-33.499932
 42
0.000000
 10
-47.992939
 20
-34.499932
 42
0.000000
 10
-47.492939
 20
-35.499932
 42
0.000000
 10
-47.492939
 20
-36.499932
 42
0.000000
 10
-46.992939
 20
-37.499932
 42
0.000000
 10
-47.492939
 20
-38.499932
 42
0.000000
 10
-47.492939
 20
-39.499932
 42
0.000000
 10
-47.992939
 20
-40.499932
 42
0.000000
 10
-47.492939
 20
-41.499932
 42
0.000000
 10
-47.492939
 20
-42.499932
 42
0.000000
 10
-46.992939
 20
-43.499932
 42
0.000000
 10
-47.492939
 20
-44.499932
 42
0.000000
 10
-47.492939
 20
-45.499932
 42
0.000000
 10
-47.992939
 20
-46.499932
 42
0.000000
 10
-47.492939
 20
-47.499932
 42
0.000000
 10
-47.492939
 20
-48.499932
 42
0.000000
 10
-46.992939
 20
-49.499932
 42
0.000000
 10
-47.492939
 20
-50.499932
 42
0.000000
 10
-47.492939
 20
-51.499932
 42
0.000000
 10
-47.992939
 20
-52.499932
 42
0.000000
 10
-47.492939
 20
-53.499932
 42
0.000000
 10
-47.492939
 20
-54.499932
 42
0.000000
 10
-46.992939
 20
-55.499932
 42
0.000000
 10
-47.492939
 20
-56.499932
 42
0.000000
 10
-47.492939
 20
-57.499932
 42
0.000000
 10
-47.992939
 20
-58.499932
 42
0.000000
 10
-47.492939
 20
-59.499932
 42
0.000000
 10
-47.492939
 20
-60.499932
 42
0.000000
 10
-46.992939
 20
-61.499932
 42
0.000000
 10
-47.492939
 20
-62.499932
 42
0.000000
 10
-47.492939
 20
-63.499932
 42
0.000000
 10
-47.992939
 20
-64.499932
 42
0.000000
 10
-47.492939
 20
-65.499932
 42
0.000000
 10
-47.492939
 20
-66.499932
 42
0.000000
 10
-46.992939
 20
-67.499932
 42
0.000000
 10
-47.492939
 20
-68.499932
 42
0.000000
 10
-47.492939
 20
-69.499932
 42
0.000000
 10
-47.992939
 20
-70.499932
 42
0.000000
 10
-47.492939
 20
-71.499932
 42
0.000000
 10
-47.492939
 20
-72.499932
 42
0.000000
 10
-46.992939
 20
-73.499932
 42
0.000000
 10
-47.492939
 20
-74.499932
 42
0.000000
 10
-47.492939
 20
-75.499932
 42
0.000000
 10
-47.992939
 20
-76.499932
 42
0.000000
 10
-47.492939
 20
-77.499932
 42
0.000000
 10
-47.492939
 20
-78.499932
 42
0.000000
 10
-46.992939
 20
-79.499932
 42
0.000000
 10
-47.492939
 20
-80.499932
 42
0.000000
 10
-47.492939
 20
-81.499932
 42
0.000000
 10
-47.992939
 20
-82.499932
 42
0.000000
 10
-47.492939
 20
-83.499932
 42
0.000000
 10
-47.492939
 20
-84.499932
 42
0.000000
 10
-46.992939
 20
-85.499932
 42
0.000000
 10
-47.492939
 20
-86.499932
 42
0.000000
 10
-47.492939
 20
-87.499932
 42
0.000000
 10
-47.992939
 20
-88.499932
 42
0.000000
 10
-47.492939
 20
-89.499932
 42
0.000000
 10
-47.492939
 20
-90.499932
 42
0.000000
 10
-46.992939
 20
-91.499932
 42
0.000000
 10
-47.492939
 20
-92.499932
 42
0.000000
 10
-47.492939
 20
-93.499932
 42
0.000000
 10
-47.992939
 20
-94.499932
 42
0.000000
 10
-47.492939
 20
-95.499932
 42
0.000000
 10
-47.492939
 20
-96.499932
 42
0.000000
 10
-46.992939
 20
-97.499932
 42
0.000000
 10
-47.492939
 20
-98.499932
 42
0.000000
 10
-47.492939
 20
-99.499932
 42
0.000000
 10
-47.992939
 20
-100.499932
 42
0.000000
 10
-47.492939
 20
-101.499932
 42
0.000000
 10
-47.492939
 20
-102.499932
 42
0.000000
 10
-46.992939
 20
-103.499932
 42
0.000000
 10
-47.492939
 20
-104.499932
 42
0.000000
 10
-47.492939
 20
-105.499932
 42
0.000000
 10
-47.992939
 20
-106.499932
 42
0.000000
 10
-47.492939
 20
-107.499932
 42
0.000000
 10
-47.492939
 20
-108.499932
 42
0.000000
 10
-46.992939
 20
-109.499932
 42
0.000000
 10
-47.492939
 20
-110.499932
 42
0.000000
 10
-47.492939
 20
-111.499932
 42
0.000000
 10
-47.992939
 20
-112.499932
 42
0.000000
 10
-47.492939
 20
-113.499932
 42
0.000000
 10
-47.492939
 20
-114.499932
 42
0.000000
 10
-46.992939
 20
-115.499932
 42
0.000000
 10
-47.492939
 20
-116.499932
 42
0.000000
 10
-47.492939
 20
-117.499932
 42
0.000000
 10
-47.992939
 20
-118.499932
 42
0.000000
 10
-47.492939
 20
-119.499932
 42
0.000000
 10
-47.492939
 20
-120.499932
 42
0.000000
 10
-46.992939
 20
-121.499932
 42
0.000000
 10
-47.492939
 20
-122.499932
 42
0.000000
 10
-47.492939
 20
-123.499932
 42
0.000000
 10
-47.992939
 20
-124.499932
 42
0.000000
 10
-47.492939
 20
-125.499932
 42
0.000000
 10
-47.492939
 20
-126.492265
 42
0.000000
 10
-46.992939
 20
-127.499932
 42
0.000000
 10
-47.492939
 20
-128.499932
 42
0.000000
 10
-47.492939
 20
-129.499932
 42
0.000000
 10
-47.992939
 20
-130.499932
 42
0.000000
 10
-47.492939
 20
-131.499932
 42
0.000000
 10
-47.492939
 20
-132.499932
 42
0.000000
 10
-46.992939
 20
-133.499932
 42
0.000000
 10
-47.492939
 20
-134.499932
 42
0.000000
 10
-47.492939
 20
-135.499932
 42
0.000000
 10
-47.992939
 20
-136.499932
 42
0.000000
 10
-47.492939
 20
-137.499932
 42
0.000000
 10
-47.492939
 20
-138.499932
 42
0.000000
 10
-46.992939
 20
-139.499932
 42
0.000000
 10
-47.492939
 20
-140.499932
 42
0.000000
 10
-47.492939
 20
-141.499932
 42
0.000000
 10
-47.992939
 20
-142.499932
 42
0.000000
 10
-47.492939
 20
-143.499932
 42
0.000000
 10
-47.492939
 20
-144.499932
 42
0.000000
 10
-46.992939
 20
-145.499932
 42
0.000000
 10
-47.492939
 20
-146.499932
 42
0.000000
 10
-47.492939
 20
-147.499932
 42
0.000000
 10
-47.992939
 20
-148.499932
 42
0.000000
 10
-47.492939
 20
-149.499932
 42
0.000000
 10
-47.492939
 20
-150.499932
 42
0.000000
 10
-46.992939
 20
-151.499932
 42
0.000000
 10
-47.492939
 20
-152.499932
 42
0.000000
 10
-47.492939
 20
-153.499932
 42
0.000000
 10
-47.992939
 20
-154.499932
 42
0.000000
 10
-47.492939
 20
-155.499932
 42
0.000000
 10
-47.492939
 20
-156.499932
 42
0.000000
 10
-46.992939
 20
-157.499932
 42
0.000000
 10
-47.488541
 20
-158.491135
 42
0.000000
 10
-47.492939
 20
-159.499932
 42
0.000000
 10
-47.992939
 20
-160.499932
 42
0.000000
 10
-47.492939
 20
-161.499932
 42
0.000000
 10
-47.492939
 20
-162.499932
 42
0.000000
 10
-46.992939
 20
-163.499932
 42
0.000000
 10
-47.492939
 20
-164.499932
 42
0.000000
 10
-47.492939
 20
-165.499932
 42
0.000000
 10
-47.992939
 20
-166.499932
 42
0.000000
 10
-47.492939
 20
-167.499932
 42
0.000000
 10
-47.492939
 20
-168.499932
 42
0.000000
 10
-46.992939
 20
-169.499932
 42
0.000000
 10
-47.492939
 20
-170.499932
 42
0.000000
 10
-47.492939
 20
-171.499932
 42
0.000000
 10
-47.992939
 20
-172.499932
 42
0.000000
 10
-47.492939
 20
-173.499932
 42
0.000000
 10
-47.492939
 20
-174.499932
 42
0.000000
 10
-46.992939
 20
-175.499932
 42
0.000000
 10
-47.492939
 20
-176.499932
 42
0.000000
 10
-47.492939
 20
-177.499932
 42
0.000000
 10
-47.992939
 20
-178.499932
 42
0.000000
 10
-47.492939
 20
-179.499932
 42
0.000000
 10
-47.492939
 20
-180.499932
 42
0.000000
 10
-46.992939
 20
-181.499932
 42
0.000000
 10
-47.492939
 20
-182.499932
 42
0.000000
 10
-47.492939
 20
-183.499932
 42
0.000000
 10
-47.992939
 20
-184.499932
 42
0.000000
 10
-47.492939
 20
-185.499932
 42
0.000000
 10
-47.492939
 20
-186.499932
 42
0.000000
 10
-46.992939
 20
-187.499932
 42
0.000000
 10
-47.492939
 20
-188.499932
 42
0.000000
 10
-47.492939
 20
-189.499932
 42
0.000000
 10
-47.992939
 20
-190.499932
 42
0.000000
 10
-47.492939
 20
-191.499932
 42
0.000000
 10
-47.492939
 20
-192.499932
 42
0.000000
 10
-46.992939
 20
-193.499932
 42
0.000000
 10
-47.492939
 20
-194.499932
 42
0.000000
 10
-47.492939
 20
-195.499932
 42
0.000000
 10
-47.867944
 20
-196.249941
 42
0.000000
 10
-57.500018
 20
-196.249941
 42
0.000000
 10
-57.500018
 20
42.500068
 42
0.000000
 10
-47.492939
 20
42.500068
 42
0.000000
 10
-47.492939
 20
41.500068
 42
0.000000
 10
-46.992939
 20
40.500068
 42
0.000000
 10
-47.492939
 20
39.500068
 42
0.000000
 10
-47.492939
 20
38.500068
 42
0.000000
 10
-47.992939
 20
37.500068
 42
0.000000
 10
-47.492939
 20
36.500068
 42
0.000000
 10
-47.492939
 20
35.500068
 42
0.000000
 10
-47.000018
 20
34.514225
 42
0.000000
 10
-47.492939
 20
33.500068
 42
0.000000
 10
-47.492939
 20
32.500068
 42
0.000000
 10
-47.992939
 20
31.500068
 42
0.000000
 10
-47.492939
 20
30.500068
 42
0.000000
 10
-47.492939
 20
29.500068
 42
0.000000
 10
-46.992939
 20
28.500068
 42
0.000000
 10
-47.492939
 20
27.500068
 42
0.000000
 10
-47.492939
 20
26.500068
 42
0.000000
 10
-47.992939
 20
25.500068
 42
0.000000
 10
-47.492939
 20
24.500068
 42
0.000000
 10
-47.492939
 20
23.500068
 42
0.000000
 10
-46.992939
 20
22.500068
 42
0.000000
 10
-47.492939
 20
21.500068
 42
0.000000
 10
-47.492939
 20
20.500068
 42
0.000000
 10
-47.992939
 20
19.500068
 42
0.000000
 10
-47.492939
 20
18.500068
 42
0.000000
 10
-47.492939
 20
17.500068
 42
0.000000
 10
-46.992939
 20
16.500068
 42
0.000000
 10
-47.492939
 20
15.500068
 42
0.000000
 10
-47.492939
 20
14.500068
 42
0.000000
 10
-47.992939
 20
13.500068
 42
0.000000
 10
-47.492939
 20
12.500068
 42
0.000000
 10
-47.492939
 20
11.507735
 42
0.000000
 10
-46.992939
 20
10.500068
 42
0.000000
 10
-47.492939
 20
9.500068
 42
0.000000
 10
-47.492939
 20
8.500068
 42
0.000000
 10
-47.992939
 20
7.500068
 42
0.000000
 10
-47.492939
 20
6.500068
 42
0.000000
 10
-47.492939
 20
5.500068
 42
0.000000
 10
-46.992939
 20
4.500068
 42
0.000000
 10
-47.492939
 20
3.500068
 42
0.000000
 10
-47.492939
 20
2.500068
 42
0.000000
 10
-47.992939
 20
1.500068
 42
0.000000
 10
-47.492939
 20
0.500068
 42
0.000000
 10
-47.492939
 20
-0.499932
 42
0.000000
 10
-46.992939
 20
-1.499932
 42
0.000000
 10
-47.492939
 20
-2.499932
 42
0.000000
 10
-47.492939
 20
-3.499932
 42
0.000000
 10
-47.992939
 20
-4.499932
 42
0.000000
 10
-47.492939
 20
-5.499932
 42
0.000000
 97
     0
 75
     0
 76
     1
 98
     0
  0
ENDBLK
  5
214
100
AcDbEntity
  8
0
100
AcDbBlockEnd
  0
BLOCK
  5
215
100
AcDbEntity
  8
SCHRAFF
100
AcDbBlockBegin
  2
B-4
 70
    66
 10
0.000000
 20
0.000000
 30
0.000000
  0
HATCH
  5
216
100
AcDbEntity
  8
SCHRAFF
 62
     9
440
     0
100
AcDbHatch
 10
0.000000
 20
0.000000
 30
0.000000
210
0.000000
220
0.000000
230
1.000000
  2
SOLID
 70
     1
 71
     1
 91
     1
 92
    18
 72
     1
 73
     0
 93
     5
 10
-57.500018
 20
-196.249941
 42
0.000000
 10
-57.500018
 20
42.500068
 42
0.000000
 10
-67.500018
 20
42.500068
 42
0.000000
 10
-67.500018
 20
-196.249941
 42
0.000000
 10
-57.500018
 20
-196.249941
 42
0.000000
 97
     0
 75
     0
 76
     1
 98
     0
  0
HATCH
  5
217
100
AcDbEntity
  8
SCHRAFF
 62
     9
440
     0
100
AcDbHatch
 10
0.000000
 20
0.000000
 30
0.000000
210
0.000000
220
0.000000
230
1.000000
  2
SOLID
 70
     1
 71
     1
 91
     1
 92
    18
 72
     1
 73
     0
 93
     6
 10
-57.500018
 20
57.500069
 42
0.000000
 10
-57.500018
 20
296.250078
 42
0.000000
 10
-67.500018
 20
296.250078
 42
0.000000
 10
-67.500018
 20
57.231675
 42
0.000000
 10
-67.500018
 20
57.500069
 42
0.000000
 10
-57.500018
 20
57.500069
 42
0.000000
 97
     0
 75
     0
 76
     1
 98
     0
  0
ENDBLK
  5
218
100
AcDbEntity
  8
0
100
AcDbBlockEnd
  0
BLOCK
  5
219
100
AcDbEntity
  8
SCHRAFF
100
AcDbBlockBegin
  2
B-5
 70
    66
 10
0.000000
 20
0.000000
 30
0.000000
  0
HATCH
  5
21A
100
AcDbEntity
  8
SCHRAFF
 62
     8
440
     0
100
AcDbHatch
 10
0.000000
 20
0.000000
 30
0.000000
210
0.000000
220
0.000000
230
1.000000
  2
SOLID
 70
     1
 71
     1
 91
     1
 92
    18
 72
     1
 73
     0
 93
     5
 10
-47.492939
 20
57.500069
 42
0.000000
 10
-77.500018
 20
57.500069
 42
0.000000
 10
-77.500018
 20
42.500069
 42
0.000000
 10
-47.492939
 20
42.500069
 42
0.000000
 10
-47.492939
 20
57.500069
 42
0.000000
 97
     0
 75
     0
 76
     1
 98
     0
  0
ENDBLK
  5
21B
100
AcDbEntity
  8
0
100
AcDbBlockEnd
  0
BLOCK
  5
21C
100
AcDbEntity
  8
Detail
100
AcDbBlockBegin
  2
B-6
 70
    66
 10
0.000000
 20
0.000000
 30
0.000000
  0
LWPOLYLINE
  5
21D
100
AcDbEntity
  8
Detail
  6
CONTINUOUS
 62
     6
100
AcDbPolyline
 90
     4
 10
-67.500018
 20
-196.249841
 42
0.000000
 10
-67.500018
 20
42.500068
 42
0.000000
 10
-57.500018
 20
42.500068
 42
0.000000
 10
-57.500018
 20
-196.249841
 42
0.000000
  0
LWPOLYLINE
  5
222
100
AcDbEntity
  8
Detail
  6
CONTINUOUS
 62
     6
100
AcDbPolyline
 90
     4
 10
-67.500018
 20
296.250078
 42
0.000000
 10
-67.500018
 20
57.500069
 42
0.000000
 10
-57.500018
 20
57.500069
 42
0.000000
 10
-57.500018
 20
296.250078
 42
0.000000
  0
ENDBLK
  5
227
100
AcDbEntity
  8
0
100
AcDbBlockEnd
  0
BLOCK
  5
228
100
AcDbEntity
  8
SCHRAFF
100
AcDbBlockBegin
  2
B-7
 70
    66
 10
0.000000
 20
0.000000
 30
0.000000
  0
HATCH
  5
229
100
AcDbEntity
  8
SCHRAFF
 62
    51
440
     0
100
AcDbHatch
 10
0.000000
 20
0.000000
 30
0.000000
210
0.000000
220
0.000000
230
1.000000
  2
SOLID
 70
     1
 71
     1
 91
     1
 92
    18
 72
     1
 73
     0
 93
     5
 10
-87.500018
 20
-129.999882
 42
0.000000
 10
-67.500018
 20
-129.999882
 42
0.000000
 10
-67.500018
 20
-69.999882
 42
0.000000
 10
-87.500018
 20
-69.999882
 42
0.000000
 10
-87.500018
 20
-129.999882
 42
0.000000
 97
     0
 75
     0
 76
     1
 98
     0
  0
HATCH
  5
22A
100
AcDbEntity
  8
SCHRAFF
  6
CONTINUOUS
 62
     9
100
AcDbHatch
 10
0.000000
 20
0.000000
 30
0.000000
210
0.000000
220
0.000000
230
1.000000
  2
_U
 70
     0
 71
     1
 91
     1
 92
    18
 72
     1
 73
     0
 93
     5
 10
-67.500018
 20
-129.999882
 42
0.000000
 10
-67.500018
 20
-69.999882
 42
0.000000
 10
-87.500018
 20
-69.999882
 42
0.000000
 10
-87.500018
 20
-129.999882
 42
0.000000
 10
-67.500018
 20
-129.999882
 42
0.000000
 97
     0
 75
     0
 76
     0
 52
0.000000
 41
1.000000
 77
     0
 78
     1
 53
90.000000
 43
-0.000000
 44
0.000000
 45
-6.875000
 46
0.000000
 79
     0
 98
     0
  0
ENDBLK
  5
22B
100
AcDbEntity
  8
0
100
AcDbBlockEnd
  0
BLOCK
  5
22C
100
AcDbEntity
  8
SCHRAFF
100
AcDbBlockBegin
  2
B-8
 70
    66
 10
0.000000
 20
0.000000
 30
0.000000
  0
HATCH
  5
22D
100
AcDbEntity
  8
SCHRAFF
 62
    51
440
     0
100
AcDbHatch
 10
0.000000
 20
0.000000
 30
0.000000
210
0.000000
220
0.000000
230
1.000000
  2
SOLID
 70
     1
 71
     1
 91
     1
 92
    18
 72
     1
 73
     0
 93
     9
 10
-67.500018
 20
-196.249941
 42
0.000000
 10
-67.500018
 20
-129.999882
 42
0.000000
 10
-87.500018
 20
-129.999882
 42
0.000000
 10
-87.500018
 20
-69.999882
 42
0.000000
 10
-67.500018
 20
-69.999882
 42
0.000000
 10
-67.500018
 20
40.500069
 42
0.000000
 10
-147.500018
 20
40.500069
 42
0.000000
 10
-147.500018
 20
-196.249941
 42
0.000000
 10
-67.500018
 20
-196.249941
 42
0.000000
 97
     0
 75
     0
 76
     1
 98
     0
  0
HATCH
  5
22E
100
AcDbEntity
  8
SCHRAFF
  6
CONTINUOUS
 62
     9
100
AcDbHatch
 10
0.000000
 20
0.000000
 30
0.000000
210
0.000000
220
0.000000
230
1.000000
  2
_U
 70
     0
 71
     1
 91
     1
 92
    18
 72
     1
 73
     0
 93
     9
 10
-147.500018
 20
40.500069
 42
0.000000
 10
-147.500018
 20
-196.249941
 42
0.000000
 10
-67.500018
 20
-196.249941
 42
0.000000
 10
-67.500018
 20
-129.999882
 42
0.000000
 10
-87.500018
 20
-129.999882
 42
0.000000
 10
-87.500018
 20
-69.999882
 42
0.000000
 10
-67.500018
 20
-69.999882
 42
0.000000
 10
-67.500018
 20
40.500069
 42
0.000000
 10
-147.500018
 20
40.500069
 42
0.000000
 97
     0
 75
     0
 76
     0
 52
0.000000
 41
1.000000
 77
     0
 78
     1
 53
90.000000
 43
-0.000000
 44
0.000000
 45
-13.750000
 46
0.000000
 79
     0
 98
     0
  0
ENDBLK
  5
22F
100
AcDbEntity
  8
0
100
AcDbBlockEnd
  0
BLOCK
  5
230
100
AcDbEntity
  8
SCHRAFF
100
AcDbBlockBegin
  2
B-9
 70
    66
 10
0.000000
 20
0.000000
 30
0.000000
  0
IMAGE
  5
231
100
AcDbEntity
  8
SCHRAFF
100
AcDbRasterImage
 10
140.969928
 20
-349.249941
 30
0.000000
 11
0.204938
 21
-0.000000
 31
0.000000
 12
-0.000000
 22
0.204938
 32
-0.000000
 13
395.000000
 23
405.000000
340
232
 70
     7
280
     0
281
    50
282
    50
283
     0
360
233
 71
     1
 91
     2
 14
-0.500000
 24
-0.500000
 14
394.500000
 24
404.500000
  0
ENDBLK
  5
234
100
AcDbEntity
  8
0
100
AcDbBlockEnd
  0
BLOCK
  5
235
100
AcDbEntity
  8
SCHRAFF
100
AcDbBlockBegin
  2
B-10
 70
    66
 10
0.000000
 20
0.000000
 30
0.000000
  0
LWPOLYLINE
  5
236
100
AcDbEntity
  8
SCHRAFF
  6
CONTINUOUS
 62
     9
100
AcDbPolyline
 90
    15
 10
-152.500018
 20
45.000069
 42
-0.203241
 10
-154.131803
 20
45.653847
 42
-0.194592
 10
-154.807711
 20
47.232213
 42
-0.098414
 10
-154.621667
 20
48.110267
 42
0.000000
 10
-152.741605
 20
51.773640
 42
0.112603
 10
-152.500018
 20
52.767925
 42
0.194592
 10
-153.175926
 20
54.346290
 42
0.203241
 10
-154.807712
 20
55.000069
 42
0.203240
 10
-156.439496
 20
54.346288
 42
0.194591
 10
-157.115402
 20
52.767925
 42
0.112603
 10
-156.873815
 20
51.773640
 42
0.000000
 10
-155.049298
 20
48.226494
 42
-0.112603
 10
-154.807712
 20
47.232213
 42
-0.194591
 10
-155.483620
 20
45.653849
 42
-0.203240
 10
-157.115403
 20
45.000070
 42
0.000000
  0
LWPOLYLINE
  5
246
100
AcDbEntity
  8
SCHRAFF
  6
CONTINUOUS
 62
     9
100
AcDbPolyline
 90
    15
 10
-157.115403
 20
45.000069
 42
-0.203241
 10
-158.747188
 20
45.653847
 42
-0.194592
 10
-159.423096
 20
47.232213
 42
-0.098414
 10
-159.237052
 20
48.110267
 42
0.000000
 10
-157.356990
 20
51.773640
 42
0.112603
 10
-157.115403
 20
52.767925
 42
0.194592
 10
-157.791311
 20
54.346290
 42
0.203241
 10
-159.423097
 20
55.000069
 42
0.203240
 10
-161.054881
 20
54.346288
 42
0.194591
 10
-161.730787
 20
52.767925
 42
0.112603
 10
-161.489200
 20
51.773640
 42
0.000000
 10
-159.664682
 20
48.226494
 42
-0.112603
 10
-159.423097
 20
47.232213
 42
-0.194591
 10
-160.099004
 20
45.653849
 42
-0.203240
 10
-161.730787
 20
45.000070
 42
0.000000
  0
LWPOLYLINE
  5
256
100
AcDbEntity
  8
SCHRAFF
  6
CONTINUOUS
 62
     9
100
AcDbPolyline
 90
    15
 10
-161.730787
 20
45.000069
 42
-0.203241
 10
-163.362573
 20
45.653847
 42
-0.194592
 10
-164.038481
 20
47.232213
 42
-0.098414
 10
-163.852436
 20
48.110267
 42
0.000000
 10
-161.972374
 20
51.773640
 42
0.112603
 10
-161.730787
 20
52.767925
 42
0.194592
 10
-162.406696
 20
54.346290
 42
0.203241
 10
-164.038482
 20
55.000069
 42
0.203240
 10
-165.670265
 20
54.346288
 42
0.194591
 10
-166.346171
 20
52.767925
 42
0.112603
 10
-166.104584
 20
51.773640
 42
0.000000
 10
-164.280067
 20
48.226494
 42
-0.112603
 10
-164.038482
 20
47.232213
 42
-0.194591
 10
-164.714389
 20
45.653849
 42
-0.203240
 10
-166.346172
 20
45.000070
 42
0.000000
  0
LWPOLYLINE
  5
266
100
AcDbEntity
  8
SCHRAFF
  6
CONTINUOUS
 62
     9
100
AcDbPolyline
 90
    15
 10
-166.346172
 20
45.000069
 42
-0.203241
 10
-167.977957
 20
45.653847
 42
-0.194592
 10
-168.653865
 20
47.232213
 42
-0.098414
 10
-168.467821
 20
48.110267
 42
0.000000
 10
-166.587759
 20
51.773640
 42
0.112603
 10
-166.346172
 20
52.767925
 42
0.194592
 10
-167.022080
 20
54.346290
 42
0.203241
 10
-168.653866
 20
55.000069
 42
0.203240
 10
-170.285650
 20
54.346288
 42
0.194591
 10
-170.961556
 20
52.767925
 42
0.112603
 10
-170.719969
 20
51.773640
 42
0.000000
 10
-168.895452
 20
48.226494
 42
-0.112603
 10
-168.653866
 20
47.232213
 42
-0.194591
 10
-169.329774
 20
45.653849
 42
-0.203240
 10
-170.961556
 20
45.000070
 42
0.000000
  0
LWPOLYLINE
  5
276
100
AcDbEntity
  8
SCHRAFF
  6
CONTINUOUS
 62
     9
100
AcDbPolyline
 90
    15
 10
-170.961557
 20
45.000069
 42
-0.203241
 10
-172.593342
 20
45.653847
 42
-0.194592
 10
-173.269250
 20
47.232213
 42
-0.098414
 10
-173.083205
 20
48.110267
 42
0.000000
 10
-171.203144
 20
51.773640
 42
0.112603
 10
-170.961556
 20
52.767925
 42
0.194592
 10
-171.637465
 20
54.346290
 42
0.203241
 10
-173.269251
 20
55.000069
 42
0.203240
 10
-174.901034
 20
54.346288
 42
0.194591
 10
-175.576941
 20
52.767925
 42
0.112603
 10
-175.335353
 20
51.773640
 42
0.000000
 10
-173.510836
 20
48.226494
 42
-0.112603
 10
-173.269251
 20
47.232213
 42
-0.194591
 10
-173.945158
 20
45.653849
 42
-0.203240
 10
-175.576941
 20
45.000070
 42
0.000000
  0
LWPOLYLINE
  5
286
100
AcDbEntity
  8
SCHRAFF
  6
CONTINUOUS
 62
     9
100
AcDbPolyline
 90
    15
 10
-175.576941
 20
45.000069
 42
-0.203241
 10
-177.208726
 20
45.653847
 42
-0.194592
 10
-177.884635
 20
47.232213
 42
-0.098414
 10
-177.698590
 20
48.110267
 42
0.000000
 10
-175.818528
 20
51.773640
 42
0.112603
 10
-175.576941
 20
52.767925
 42
0.194592
 10
-176.252850
 20
54.346290
 42
0.203241
 10
-177.884635
 20
55.000069
 42
0.203240
 10
-179.516419
 20
54.346288
 42
0.194591
 10
-180.192325
 20
52.767925
 42
0.112603
 10
-179.950738
 20
51.773640
 42
0.000000
 10
-178.126221
 20
48.226494
 42
-0.112603
 10
-177.884635
 20
47.232213
 42
-0.194591
 10
-178.560543
 20
45.653849
 42
-0.203240
 10
-180.192326
 20
45.000070
 42
0.000000
  0
LWPOLYLINE
  5
296
100
AcDbEntity
  8
SCHRAFF
  6
CONTINUOUS
 62
     9
100
AcDbPolyline
 90
    15
 10
-180.192326
 20
45.000069
 42
-0.203241
 10
-181.824111
 20
45.653847
 42
-0.194592
 10
-182.500019
 20
47.232213
 42
-0.098414
 10
-182.313975
 20
48.110267
 42
0.000000
 10
-180.433913
 20
51.773640
 42
0.112603
 10
-180.192326
 20
52.767925
 42
0.194592
 10
-180.868234
 20
54.346290
 42
0.203241
 10
-182.500020
 20
55.000069
 42
0.203240
 10
-184.131804
 20
54.346288
 42
0.194591
 10
-184.807710
 20
52.767925
 42
0.112603
 10
-184.566123
 20
51.773640
 42
0.000000
 10
-182.741606
 20
48.226494
 42
-0.112603
 10
-182.500020
 20
47.232213
 42
-0.194591
 10
-183.175927
 20
45.653849
 42
-0.203240
 10
-184.807710
 20
45.000070
 42
0.000000
  0
LWPOLYLINE
  5
2A6
100
AcDbEntity
  8
SCHRAFF
  6
CONTINUOUS
 62
     9
100
AcDbPolyline
 90
    15
 10
-184.807710
 20
45.000069
 42
-0.203241
 10
-186.439496
 20
45.653847
 42
-0.194592
 10
-187.115404
 20
47.232213
 42
-0.098414
 10
-186.929359
 20
48.110267
 42
0.000000
 10
-185.049298
 20
51.773640
 42
0.112603
 10
-184.807710
 20
52.767925
 42
0.194592
 10
-185.483619
 20
54.346290
 42
0.203241
 10
-187.115405
 20
55.000069
 42
0.203240
 10
-188.747188
 20
54.346288
 42
0.194591
 10
-189.423095
 20
52.767925
 42
0.112603
 10
-189.181507
 20
51.773640
 42
0.000000
 10
-187.356990
 20
48.226494
 42
-0.112603
 10
-187.115405
 20
47.232213
 42
-0.194591
 10
-187.791312
 20
45.653849
 42
-0.203240
 10
-189.423095
 20
45.000070
 42
0.000000
  0
LWPOLYLINE
  5
2B6
100
AcDbEntity
  8
SCHRAFF
  6
CONTINUOUS
 62
     9
100
AcDbPolyline
 90
    15
 10
-189.423095
 20
45.000069
 42
-0.203241
 10
-191.054880
 20
45.653847
 42
-0.194592
 10
-191.730788
 20
47.232213
 42
-0.098414
 10
-191.544744
 20
48.110267
 42
0.000000
 10
-189.664682
 20
51.773640
 42
0.112603
 10
-189.423095
 20
52.767925
 42
0.194592
 10
-190.099003
 20
54.346290
 42
0.203241
 10
-191.730789
 20
55.000069
 42
0.203240
 10
-193.362573
 20
54.346288
 42
0.194591
 10
-194.038479
 20
52.767925
 42
0.112603
 10
-193.796892
 20
51.773640
 42
0.000000
 10
-191.972375
 20
48.226494
 42
-0.112603
 10
-191.730789
 20
47.232213
 42
-0.194591
 10
-192.406697
 20
45.653849
 42
-0.203240
 10
-194.038480
 20
45.000070
 42
0.000000
  0
LWPOLYLINE
  5
2C6
100
AcDbEntity
  8
SCHRAFF
  6
CONTINUOUS
 62
     9
100
AcDbPolyline
 90
    15
 10
-194.038480
 20
45.000069
 42
-0.203241
 10
-195.670265
 20
45.653847
 42
-0.194592
 10
-196.346173
 20
47.232213
 42
-0.098414
 10
-196.160129
 20
48.110267
 42
0.000000
 10
-194.280067
 20
51.773640
 42
0.112603
 10
-194.038480
 20
52.767925
 42
0.194592
 10
-194.714388
 20
54.346290
 42
0.203241
 10
-196.346174
 20
55.000069
 42
0.203240
 10
-197.977958
 20
54.346288
 42
0.194591
 10
-198.653864
 20
52.767925
 42
0.112603
 10
-198.412277
 20
51.773640
 42
0.000000
 10
-196.587759
 20
48.226494
 42
-0.112603
 10
-196.346174
 20
47.232213
 42
-0.194591
 10
-197.022081
 20
45.653849
 42
-0.203240
 10
-198.653864
 20
45.000070
 42
0.000000
  0
LWPOLYLINE
  5
2D6
100
AcDbEntity
  8
SCHRAFF
  6
CONTINUOUS
 62
     9
100
AcDbPolyline
 90
    15
 10
-198.653864
 20
45.000069
 42
-0.203241
 10
-200.285650
 20
45.653847
 42
-0.194592
 10
-200.961558
 20
47.232213
 42
-0.098414
 10
-200.775513
 20
48.110267
 42
0.000000
 10
-198.895451
 20
51.773640
 42
0.112603
 10
-198.653864
 20
52.767925
 42
0.194592
 10
-199.329773
 20
54.346290
 42
0.203241
 10
-200.961558
 20
55.000069
 42
0.203240
 10
-202.593342
 20
54.346288
 42
0.194591
 10
-203.269248
 20
52.767925
 42
0.112603
 10
-203.027661
 20
51.773640
 42
0.000000
 10
-201.203144
 20
48.226494
 42
-0.112603
 10
-200.961558
 20
47.232213
 42
-0.194591
 10
-201.637466
 20
45.653849
 42
-0.203240
 10
-203.269249
 20
45.000070
 42
0.000000
  0
LWPOLYLINE
  5
2E6
100
AcDbEntity
  8
SCHRAFF
  6
CONTINUOUS
 62
     9
100
AcDbPolyline
 90
    15
 10
-203.269249
 20
45.000069
 42
-0.203241
 10
-204.901034
 20
45.653847
 42
-0.194592
 10
-205.576942
 20
47.232213
 42
-0.098414
 10
-205.390898
 20
48.110267
 42
0.000000
 10
-203.510836
 20
51.773640
 42
0.112603
 10
-203.269249
 20
52.767925
 42
0.194592
 10
-203.945157
 20
54.346290
 42
0.203241
 10
-205.576943
 20
55.000069
 42
0.203240
 10
-207.208727
 20
54.346288
 42
0.194591
 10
-207.884633
 20
52.767925
 42
0.112603
 10
-207.643046
 20
51.773640
 42
0.000000
 10
-205.818529
 20
48.226494
 42
-0.112603
 10
-205.576943
 20
47.232213
 42
-0.194591
 10
-206.252850
 20
45.653849
 42
-0.203240
 10
-207.884633
 20
45.000070
 42
0.000000
  0
LWPOLYLINE
  5
2F6
100
AcDbEntity
  8
SCHRAFF
  6
CONTINUOUS
 62
     9
100
AcDbPolyline
 90
    15
 10
-207.884634
 20
45.000069
 42
-0.203241
 10
-209.516419
 20
45.653847
 42
-0.194592
 10
-210.192327
 20
47.232213
 42
-0.098414
 10
-210.006282
 20
48.110267
 42
0.000000
 10
-208.126221
 20
51.773640
 42
0.112603
 10
-207.884633
 20
52.767925
 42
0.194592
 10
-208.560542
 20
54.346290
 42
0.203241
 10
-210.192328
 20
55.000069
 42
0.203240
 10
-211.824111
 20
54.346288
 42
0.194591
 10
-212.500018
 20
52.767925
 42
0.112603
 10
-212.258430
 20
51.773640
 42
0.000000
 10
-210.433913
 20
48.226494
 42
-0.112603
 10
-210.192328
 20
47.232213
 42
-0.194591
 10
-210.868235
 20
45.653849
 42
-0.203240
 10
-212.500018
 20
45.000070
 42
0.000000
  0
ENDBLK
  5
306
100
AcDbEntity
  8
0
100
AcDbBlockEnd
  0
BLOCK
  5
307
100
AcDbEntity
  8
SCHRAFF
100
AcDbBlockBegin
  2
B-11
 70
    66
 10
0.000000
 20
0.000000
 30
0.000000
  0
HATCH
  5
308
100
AcDbEntity
  8
SCHRAFF
 62
    51
440
     0
100
AcDbHatch
 10
0.000000
 20
0.000000
 30
0.000000
210
0.000000
220
0.000000
230
1.000000
  2
SOLID
 70
     1
 71
     1
 91
     1
 92
    18
 72
     1
 73
     0
 93
     9
 10
-147.500018
 20
296.250078
 42
0.000000
 10
-147.500018
 20
59.500069
 42
0.000000
 10
-67.500018
 20
59.500069
 42
0.000000
 10
-67.500018
 20
170.000118
 42
0.000000
 10
-87.500018
 20
170.000118
 42
0.000000
 10
-87.500018
 20
230.000118
 42
0.000000
 10
-67.500018
 20
230.000118
 42
0.000000
 10
-67.500018
 20
296.250078
 42
0.000000
 10
-147.500018
 20
296.250078
 42
0.000000
 97
     0
 75
     0
 76
     1
 98
     0
  0
HATCH
  5
309
100
AcDbEntity
  8
SCHRAFF
  6
CONTINUOUS
 62
     9
100
AcDbHatch
 10
0.000000
 20
0.000000
 30
0.000000
210
0.000000
220
0.000000
230
1.000000
  2
_U
 70
     0
 71
     1
 91
     1
 92
    18
 72
     1
 73
     0
 93
     9
 10
-67.500018
 20
59.500069
 42
0.000000
 10
-67.500018
 20
170.000118
 42
0.000000
 10
-87.500018
 20
170.000118
 42
0.000000
 10
-87.500018
 20
230.000118
 42
0.000000
 10
-67.500018
 20
230.000118
 42
0.000000
 10
-67.500018
 20
296.250078
 42
0.000000
 10
-147.500018
 20
296.250078
 42
0.000000
 10
-147.500018
 20
59.500069
 42
0.000000
 10
-67.500018
 20
59.500069
 42
0.000000
 97
     0
 75
     0
 76
     0
 52
0.000000
 41
1.000000
 77
     0
 78
     1
 53
90.000000
 43
-0.000000
 44
0.000000
 45
-13.750000
 46
0.000000
 79
     0
 98
     0
  0
ENDBLK
  5
30A
100
AcDbEntity
  8
0
100
AcDbBlockEnd
  0
BLOCK
  5
30B
100
AcDbEntity
  8
SCHRAFF
100
AcDbBlockBegin
  2
B-12
 70
    66
 10
0.000000
 20
0.000000
 30
0.000000
  0
HATCH
  5
30C
100
AcDbEntity
  8
SCHRAFF
 62
    51
440
     0
100
AcDbHatch
 10
0.000000
 20
0.000000
 30
0.000000
210
0.000000
220
0.000000
230
1.000000
  2
SOLID
 70
     1
 71
     1
 91
     1
 92
    18
 72
     1
 73
     0
 93
     5
 10
-87.500018
 20
170.000118
 42
0.000000
 10
-67.500018
 20
170.000118
 42
0.000000
 10
-67.500018
 20
230.000118
 42
0.000000
 10
-87.500018
 20
230.000118
 42
0.000000
 10
-87.500018
 20
170.000118
 42
0.000000
 97
     0
 75
     0
 76
     1
 98
     0
  0
HATCH
  5
30D
100
AcDbEntity
  8
SCHRAFF
  6
CONTINUOUS
 62
     9
100
AcDbHatch
 10
0.000000
 20
0.000000
 30
0.000000
210
0.000000
220
0.000000
230
1.000000
  2
_U
 70
     0
 71
     1
 91
     1
 92
    18
 72
     1
 73
     0
 93
     5
 10
-67.500018
 20
170.000118
 42
0.000000
 10
-67.500018
 20
230.000118
 42
0.000000
 10
-87.500018
 20
230.000118
 42
0.000000
 10
-87.500018
 20
170.000118
 42
0.000000
 10
-67.500018
 20
170.000118
 42
0.000000
 97
     0
 75
     0
 76
     0
 52
0.000000
 41
1.000000
 77
     0
 78
     1
 53
90.000000
 43
-0.000000
 44
0.000000
 45
-6.875000
 46
0.000000
 79
     0
 98
     0
  0
ENDBLK
  5
30E
100
AcDbEntity
  8
0
100
AcDbBlockEnd
  0
BLOCK
  5
30F
100
AcDbEntity
  8
SCHRAFF
100
AcDbBlockBegin
  2
B-13
 70
    66
 10
0.000000
 20
0.000000
 30
0.000000
  0
HATCH
  5
310
100
AcDbEntity
  8
SCHRAFF
 62
    61
440
     0
100
AcDbHatch
 10
0.000000
 20
0.000000
 30
0.000000
210
0.000000
220
0.000000
230
1.000000
  2
SOLID
 70
     1
 71
     1
 91
     1
 92
    18
 72
     1
 73
     0
 93
     5
 10
-77.500018
 20
57.500069
 42
0.000000
 10
-150.500018
 20
57.500069
 42
0.000000
 10
-150.500018
 20
42.500069
 42
0.000000
 10
-77.500018
 20
42.500069
 42
0.000000
 10
-77.500018
 20
57.500069
 42
0.000000
 97
     0
 75
     0
 76
     1
 98
     0
  0
ENDBLK
  5
311
100
AcDbEntity
  8
0
100
AcDbBlockEnd
  0
BLOCK
  5
312
100
AcDbEntity
  8
SCHRAFF
100
AcDbBlockBegin
  2
B-14
 70
    66
 10
0.000000
 20
0.000000
 30
0.000000
  0
HATCH
  5
313
100
AcDbEntity
  8
SCHRAFF
 62
   254
440
     0
100
AcDbHatch
 10
0.000000
 20
0.000000
 30
0.000000
210
0.000000
220
0.000000
230
1.000000
  2
SOLID
 70
     1
 71
     1
 91
     1
 92
    18
 72
     1
 73
     0
 93
     5
 10
-152.500018
 20
40.500069
 42
0.000000
 10
-147.500018
 20
40.500069
 42
0.000000
 10
-147.500018
 20
-196.249941
 42
0.000000
 10
-152.500018
 20
-196.249941
 42
0.000000
 10
-152.500018
 20
40.500069
 42
0.000000
 97
     0
 75
     0
 76
     1
 98
     0
  0
HATCH
  5
314
100
AcDbEntity
  8
SCHRAFF
 62
   254
440
     0
100
AcDbHatch
 10
0.000000
 20
0.000000
 30
0.000000
210
0.000000
220
0.000000
230
1.000000
  2
SOLID
 70
     1
 71
     1
 91
     1
 92
    18
 72
     1
 73
     0
 93
     5
 10
-152.500018
 20
59.500069
 42
0.000000
 10
-147.500018
 20
59.500069
 42
0.000000
 10
-147.500018
 20
296.250078
 42
0.000000
 10
-152.500018
 20
296.250078
 42
0.000000
 10
-152.500018
 20
59.500069
 42
0.000000
 97
     0
 75
     0
 76
     1
 98
     0
  0
ENDBLK
  5
315
100
AcDbEntity
  8
0
100
AcDbBlockEnd
  0
BLOCK
  5
316
100
AcDbEntity
  8
Detail
100
AcDbBlockBegin
  2
B-15
 70
    66
 10
0.000000
 20
0.000000
 30
0.000000
  0
POLYLINE
  5
317
100
AcDbEntity
  8
Detail
 66
     1
  6
CONTINUOUS
 62
     3
100
AcDb2dPolyline
  0
VERTEX
  5
318
100
AcDbEntity
  8
Detail
100
AcDbVertex
100
AcDb2dVertex
 10
-152.500018
 20
-196.249941
 42
0.000000
  0
VERTEX
  5
319
100
AcDbEntity
  8
Detail
100
AcDbVertex
100
AcDb2dVertex
 10
-152.500018
 20
40.500069
 42
0.000000
  0
VERTEX
  5
31A
100
AcDbEntity
  8
Detail
 62
     6
100
AcDbVertex
100
AcDb2dVertex
 10
-147.500018
 20
40.500069
 42
0.000000
  0
VERTEX
  5
31B
100
AcDbEntity
  8
Detail
100
AcDbVertex
100
AcDb2dVertex
 10
-147.500018
 20
-196.249941
 42
0.000000
  0
SEQEND
  5
31C
100
AcDbEntity
  8
Detail
  0
POLYLINE
  5
31D
100
AcDbEntity
  8
Detail
 66
     1
  6
CONTINUOUS
 62
     3
100
AcDb2dPolyline
  0
VERTEX
  5
31E
100
AcDbEntity
  8
Detail
100
AcDbVertex
100
AcDb2dVertex
 10
-152.500018
 20
296.250078
 42
0.000000
  0
VERTEX
  5
31F
100
AcDbEntity
  8
Detail
100
AcDbVertex
100
AcDb2dVertex
 10
-152.500018
 20
59.500069
 42
0.000000
  0
VERTEX
  5
320
100
AcDbEntity
  8
Detail
 62
     6
100
AcDbVertex
100
AcDb2dVertex
 10
-147.500018
 20
59.500069
 42
0.000000
  0
VERTEX
  5
321
100
AcDbEntity
  8
Detail
100
AcDbVertex
100
AcDb2dVertex
 10
-147.500018
 20
296.250078
 42
0.000000
  0
SEQEND
  5
322
100
AcDbEntity
  8
Detail
  0
ENDBLK
  5
323
100
AcDbEntity
  8
0
100
AcDbBlockEnd
  0
BLOCK
  5
324
100
AcDbEntity
  8
Detail
100
AcDbBlockBegin
  2
B-16
 70
    66
 10
0.000000
 20
0.000000
 30
0.000000
  0
ENDBLK
  5
325
100
AcDbEntity
  8
0
100
AcDbBlockEnd
  0
BLOCK
  5
326
100
AcDbEntity
  8
Detail
100
AcDbBlockBegin
  2
B-17
 70
    66
 10
0.000000
 20
0.000000
 30
0.000000
  0
ENDBLK
  5
327
100
AcDbEntity
  8
0
100
AcDbBlockEnd
  0
BLOCK
  5
328
100
AcDbEntity
  8
Detail
100
AcDbBlockBegin
  2
B-18
 70
    66
 10
0.000000
 20
0.000000
 30
0.000000
  0
LWPOLYLINE
  5
329
100
AcDbEntity
  8
Detail
  6
HIDDEN
 62
     9
100
AcDbPolyline
 90
     2
 10
-58.500018
 20
296.250078
 42
0.000000
 10
-58.500018
 20
57.500069
 42
0.000000
  0
ENDBLK
  5
32C
100
AcDbEntity
  8
0
100
AcDbBlockEnd
  0
BLOCK
  5
32D
100
AcDbEntity
  8
Detail
100
AcDbBlockBegin
  2
B-19
 70
    66
 10
0.000000
 20
0.000000
 30
0.000000
  0
MTEXT
  5
32F
100
AcDbEntity
  8
Detail
 62
     7
100
AcDbMText
 10
79.375021
 20
102.500116
 30
0.000000
 40
4.999990
 41
50.347379
 71
     1
 72
     5
  1
MW-Dämmstoff
  7
Arial
 50
0.000000
  0
ENDBLK
  5
330
100
AcDbEntity
  8
0
100
AcDbBlockEnd
  0
BLOCK
  5
331
100
AcDbEntity
  8
Detail
100
AcDbBlockBegin
  2
B-20
 70
    66
 10
0.000000
 20
0.000000
 30
0.000000
  0
MTEXT
  5
332
100
AcDbEntity
  8
Detail
 62
     7
100
AcDbMText
 10
79.375020
 20
52.500116
 30
0.000000
 40
4.999990
 41
82.792301
 71
     1
 72
     5
  1
Fugendichtband Typ B 15
  7
Arial
 50
0.000000
  0
ENDBLK
  5
333
100
AcDbEntity
  8
0
100
AcDbBlockEnd
  0
BLOCK
  5
334
100
AcDbEntity
  8
Detail
100
AcDbBlockBegin
  2
B-21
 70
    66
 10
0.000000
 20
0.000000
 30
0.000000
  0
MTEXT
  5
335
100
AcDbEntity
  8
Detail
 62
     7
100
AcDbMText
 10
79.375021
 20
-27.499872
 30
0.000000
 40
4.999987
 41
134.662150
 71
     7
 72
     5
  1
Armierungsschicht mit Glasfasergewebe, 
  7
Arial
 50
0.000000
  0
MTEXT
  5
336
100
AcDbEntity
  8
Detail
 62
     7
100
AcDbMText
 10
79.375021
 20
-34.999853
 30
0.000000
 40
4.999987
 41
68.984821
 71
     7
 72
     5
  1
aufgerauht, ca. 8 mm
  7
Arial
 50
0.000000
  0
ENDBLK
  5
337
100
AcDbEntity
  8
0
100
AcDbBlockEnd
  0
BLOCK
  5
338
100
AcDbEntity
  8
Detail
100
AcDbBlockBegin
  2
B-22
 70
    66
 10
0.000000
 20
0.000000
 30
0.000000
  0
MTEXT
  5
339
100
AcDbEntity
  8
Detail
 62
     7
100
AcDbMText
 10
79.375021
 20
-47.499883
 30
0.000000
 40
4.999987
 41
44.257385
 71
     1
 72
     5
  1
Edelkratzputz
  7
Arial
 50
0.000000
  0
ENDBLK
  5
33A
100
AcDbEntity
  8
0
100
AcDbBlockEnd
  0
BLOCK
  5
33B
100
AcDbEntity
  8
SCHRAFF
100
AcDbBlockBegin
  2
B-23
 70
    66
 10
0.000000
 20
0.000000
 30
0.000000
  0
HATCH
  5
33C
100
AcDbEntity
  8
SCHRAFF
 62
     7
440
     0
100
AcDbHatch
 10
0.000000
 20
0.000000
 30
0.000000
210
0.000000
220
0.000000
230
1.000000
  2
SOLID
 70
     1
 71
     1
 91
     1
 92
    18
 72
     1
 73
     0
 93
     3
 10
-85.500018
 20
200.000118
 42
1.000000
 10
-86.500018
 20
200.000118
 42
1.000000
 10
-85.500018
 20
200.000118
 42
0.000000
 97
     0
 75
     0
 76
     1
 98
     0
  0
CIRCLE
  5
33D
100
AcDbEntity
  8
Detail
  6
CONTINUOUS
 62
     7
100
AcDbCircle
 10
-86.000018
 20
200.000118
 40
0.500000
  0
ENDBLK
  5
33E
100
AcDbEntity
  8
0
100
AcDbBlockEnd
  0
BLOCK
  5
33F
100
AcDbEntity
  8
SCHRAFF
100
AcDbBlockBegin
  2
B-24
 70
    66
 10
0.000000
 20
0.000000
 30
0.000000
  0
HATCH
  5
340
100
AcDbEntity
  8
SCHRAFF
 62
     7
440
     0
100
AcDbHatch
 10
0.000000
 20
0.000000
 30
0.000000
210
0.000000
220
0.000000
230
1.000000
  2
SOLID
 70
     1
 71
     1
 91
     1
 92
    18
 72
     1
 73
     0
 93
     3
 10
-113.500018
 20
50.000069
 42
1.000000
 10
-114.500018
 20
50.000069
 42
1.000000
 10
-113.500018
 20
50.000069
 42
0.000000
 97
     0
 75
     0
 76
     1
 98
     0
  0
CIRCLE
  5
341
100
AcDbEntity
  8
Detail
  6
CONTINUOUS
 62
     7
100
AcDbCircle
 10
-114.000018
 20
50.000069
 40
0.500000
  0
ENDBLK
  5
342
100
AcDbEntity
  8
0
100
AcDbBlockEnd
  0
BLOCK
  5
343
100
AcDbEntity
  8
SCHRAFF
100
AcDbBlockBegin
  2
B-25
 70
    66
 10
0.000000
 20
0.000000
 30
0.000000
  0
HATCH
  5
344
100
AcDbEntity
  8
SCHRAFF
 62
     7
440
     0
100
AcDbHatch
 10
0.000000
 20
0.000000
 30
0.000000
210
0.000000
220
0.000000
230
1.000000
  2
SOLID
 70
     1
 71
     1
 91
     1
 92
    18
 72
     1
 73
     0
 93
     3
 10
-62.000018
 20
50.000069
 42
1.000000
 10
-63.000018
 20
50.000069
 42
1.000000
 10
-62.000018
 20
50.000069
 42
0.000000
 97
     0
 75
     0
 76
     1
 98
     0
  0
CIRCLE
  5
345
100
AcDbEntity
  8
Detail
  6
CONTINUOUS
 62
     7
100
AcDbCircle
 10
-62.500018
 20
50.000069
 40
0.500000
  0
ENDBLK
  5
346
100
AcDbEntity
  8
0
100
AcDbBlockEnd
  0
BLOCK
  5
347
100
AcDbEntity
  8
Detail
100
AcDbBlockBegin
  2
B-26
 70
    66
 10
0.000000
 20
0.000000
 30
0.000000
  0
LWPOLYLINE
  5
348
100
AcDbEntity
  8
Detail
  6
HIDDEN
 62
     9
100
AcDbPolyline
 90
     2
 10
-58.500018
 20
42.500068
 42
0.000000
 10
-58.500018
 20
-196.249941
 42
0.000000
  0
ENDBLK
  5
34B
100
AcDbEntity
  8
0
100
AcDbBlockEnd
  0
BLOCK
  5
34C
100
AcDbEntity
  8
Detail
100
AcDbBlockBegin
  2
B-27
 70
    66
 10
0.000000
 20
0.000000
 30
0.000000
  0
LWPOLYLINE
  5
34D
100
AcDbEntity
  8
Detail
  6
HIDDEN
 62
     9
100
AcDbPolyline
 90
     2
 10
-66.500018
 20
87.500069
 42
0.000000
 10
-66.500018
 20
157.500069
 42
0.000000
  0
ENDBLK
  5
350
100
AcDbEntity
  8
0
100
AcDbBlockEnd
  0
BLOCK
  5
351
100
AcDbEntity
  8
Detail
100
AcDbBlockBegin
  2
B-28
 70
    66
 10
0.000000
 20
0.000000
 30
0.000000
  0
MTEXT
  5
352
100
AcDbEntity
  8
Detail
 62
     7
100
AcDbMText
 10
79.375021
 20
2.500114
 30
0.000000
 40
4.999990
 41
59.482357
 71
     1
 72
     5
  1
WDVS-Dämmstoff
  7
Arial
 50
0.000000
  0
ENDBLK
  5
353
100
AcDbEntity
  8
0
100
AcDbBlockEnd
  0
BLOCK
  5
354
100
AcDbEntity
  8
SCHRAFF
100
AcDbBlockBegin
  2
B-29
 70
    66
 10
0.000000
 20
0.000000
 30
0.000000
  0
HATCH
  5
355
100
AcDbEntity
  8
SCHRAFF
 62
     7
440
     0
100
AcDbHatch
 10
0.000000
 20
0.000000
 30
0.000000
210
0.000000
220
0.000000
230
1.000000
  2
SOLID
 70
     1
 71
     1
 91
     1
 92
    18
 72
     1
 73
     0
 93
     3
 10
-107.000018
 20
0.000118
 42
1.000000
 10
-108.000018
 20
0.000118
 42
1.000000
 10
-107.000018
 20
0.000118
 42
0.000000
 97
     0
 75
     0
 76
     1
 98
     0
  0
CIRCLE
  5
356
100
AcDbEntity
  8
Detail
  6
CONTINUOUS
 62
     7
100
AcDbCircle
 10
-107.500018
 20
0.000118
 40
0.500000
  0
ENDBLK
  5
357
100
AcDbEntity
  8
0
100
AcDbBlockEnd
  0
BLOCK
  5
358
100
AcDbEntity
  8
SCHRAFF
100
AcDbBlockBegin
  2
B-30
 70
    66
 10
0.000000
 20
0.000000
 30
0.000000
  0
HATCH
  5
359
100
AcDbEntity
  8
SCHRAFF
 62
     7
440
     0
100
AcDbHatch
 10
0.000000
 20
0.000000
 30
0.000000
210
0.000000
220
0.000000
230
1.000000
  2
SOLID
 70
     1
 71
     1
 91
     1
 92
    18
 72
     1
 73
     0
 93
     3
 10
-62.000018
 20
-24.999882
 42
1.000000
 10
-63.000018
 20
-24.999882
 42
1.000000
 10
-62.000018
 20
-24.999882
 42
0.000000
 97
     0
 75
     0
 76
     1
 98
     0
  0
CIRCLE
  5
35A
100
AcDbEntity
  8
Detail
  6
CONTINUOUS
 62
     7
100
AcDbCircle
 10
-62.500018
 20
-24.999882
 40
0.500000
  0
ENDBLK
  5
35B
100
AcDbEntity
  8
0
100
AcDbBlockEnd
  0
BLOCK
  5
35C
100
AcDbEntity
  8
SCHRAFF
100
AcDbBlockBegin
  2
B-31
 70
    66
 10
0.000000
 20
0.000000
 30
0.000000
  0
HATCH
  5
35D
100
AcDbEntity
  8
SCHRAFF
 62
     7
440
     0
100
AcDbHatch
 10
0.000000
 20
0.000000
 30
0.000000
210
0.000000
220
0.000000
230
1.000000
  2
SOLID
 70
     1
 71
     1
 91
     1
 92
    18
 72
     1
 73
     0
 93
     3
 10
-51.996479
 20
-49.999882
 42
1.000000
 10
-52.996479
 20
-49.999882
 42
1.000000
 10
-51.996479
 20
-49.999882
 42
0.000000
 97
     0
 75
     0
 76
     1
 98
     0
  0
CIRCLE
  5
35E
100
AcDbEntity
  8
Detail
  6
CONTINUOUS
 62
     7
100
AcDbCircle
 10
-52.496479
 20
-49.999882
 40
0.500000
  0
ENDBLK
  5
35F
100
AcDbEntity
  8
0
100
AcDbBlockEnd
  0
BLOCK
  5
360
100
AcDbEntity
  8
Detail
100
AcDbBlockBegin
  2
B-32
 70
    66
 10
0.000000
 20
0.000000
 30
0.000000
  0
MTEXT
  5
361
100
AcDbEntity
  8
Detail
 62
     7
100
AcDbMText
 10
-211.093768
 20
-225.937528
 30
0.000000
 40
3.749990
 41
353.428963
 71
     7
 72
     5
  1
Capatect Details sind allgemeine planerische Vorschläge. Sie stellen schematisch die Ausführung dar. Ihnen zugrunde liegen die entsprechenden 
  7
Arial
 50
0.000000
  0
MTEXT
  5
362
100
AcDbEntity
  8
Detail
 62
     7
100
AcDbMText
 10
-211.093768
 20
-231.562513
 30
0.000000
 40
3.749990
 41
392.764473
 71
     7
 72
     5
  1
Produktdatenblätter sowie Systemzulassungen. Die Möglichkeit der Detailanwendung sowie deren Vollständigkeit sind im speziellen Anwendungsfall vom Planer / 
  7
Arial
 50
0.000000
  0
MTEXT
  5
363
100
AcDbEntity
  8
Detail
 62
     7
100
AcDbMText
 10
-211.093768
 20
-237.187498
 30
0.000000
 40
3.749990
 41
107.887184
 71
     7
 72
     5
  1
Unternehmer eigenverantwortlich zu prüfen. 
  7
Arial
 50
0.000000
  0
ENDBLK
  5
364
100
AcDbEntity
  8
0
100
AcDbBlockEnd
  0
BLOCK
  5
365
100
AcDbEntity
  8
Detail
100
AcDbBlockBegin
  2
B-33
 70
    66
 10
0.000000
 20
0.000000
 30
0.000000
  0
LWPOLYLINE
  5
366
100
AcDbEntity
  8
Detail
  6
CONTINUOUS
 62
     6
100
AcDbPolyline
 90
     2
 10
237.500023
 20
-246.249941
 42
0.000000
 10
-237.500018
 20
-246.249941
 42
0.000000
  0
ENDBLK
  5
369
100
AcDbEntity
  8
0
100
AcDbBlockEnd
  0
BLOCK
  5
36A
100
AcDbEntity
  8
Detail
100
AcDbBlockBegin
  2
B-34
 70
    66
 10
0.000000
 20
0.000000
 30
0.000000
  0
MTEXT
  5
36B
100
AcDbEntity
  8
Detail
 62
     7
100
AcDbMText
 10
-210.625002
 20
-252.656291
 30
0.000000
 40
5.625000
 41
137.261250
 71
     1
 72
     5
  1
System:	WDVS mit Edelkratzputz
  7
Arial
 50
0.000000
  0
ENDBLK
  5
36C
100
AcDbEntity
  8
0
100
AcDbBlockEnd
  0
BLOCK
  5
36D
100
AcDbEntity
  8
Detail
100
AcDbBlockBegin
  2
B-35
 70
    66
 10
0.000000
 20
0.000000
 30
0.000000
  0
MTEXT
  5
36E
100
AcDbEntity
  8
Detail
 62
     7
100
AcDbMText
 10
-210.625002
 20
-295.781291
 30
0.000000
 40
5.625000
 41
99.343125
 71
     7
 72
     5
  1
Detail:	Fläche mit Dehnfuge
  7
Arial
 50
0.000000
  0
MTEXT
  5
36F
100
AcDbEntity
  8
Detail
 62
     7
100
AcDbMText
 10
-210.625002
 20
-304.218791
 30
0.000000
 40
5.625000
 41
89.775000
 71
     7
 72
     5
  1
	(Horizontalschnitt)
  7
Arial
 50
0.000000
  0
ENDBLK
  5
370
100
AcDbEntity
  8
0
100
AcDbBlockEnd
  0
BLOCK
  5
371
100
AcDbEntity
  8
Detail
100
AcDbBlockBegin
  2
B-36
 70
    66
 10
0.000000
 20
0.000000
 30
0.000000
  0
MTEXT
  5
372
100
AcDbEntity
  8
Detail
 62
     7
100
AcDbMText
 10
6.314834
 20
-252.500041
 30
0.000000
 40
5.000000
 41
93.712500
 71
     1
 72
     5
  1
Plannummer:	130-1310
  7
Arial
 50
0.000000
  0
ENDBLK
  5
373
100
AcDbEntity
  8
0
100
AcDbBlockEnd
  0
BLOCK
  5
374
100
AcDbEntity
  8
Detail
100
AcDbBlockBegin
  2
B-37
 70
    66
 10
0.000000
 20
0.000000
 30
0.000000
  0
MTEXT
  5
375
100
AcDbEntity
  8
Detail
 62
     7
100
AcDbMText
 10
6.314834
 20
-277.500041
 30
0.000000
 40
5.000000
 41
91.035000
 71
     1
 72
     5
  1
Massstab:		ca. 1:2,5
  7
Arial
 50
0.000000
  0
ENDBLK
  5
376
100
AcDbEntity
  8
0
100
AcDbBlockEnd
  0
BLOCK
  5
377
100
AcDbEntity
  8
Detail
100
AcDbBlockBegin
  2
B-38
 70
    66
 10
0.000000
 20
0.000000
 30
0.000000
  0
MTEXT
  5
378
100
AcDbEntity
  8
Detail
 62
     7
100
AcDbMText
 10
6.314834
 20
-302.500041
 30
0.000000
 40
5.000000
 41
99.435000
 71
     1
 72
     5
  1
Aktualisierung:	14.07.2016
  7
Arial
 50
0.000000
  0
ENDBLK
  5
379
100
AcDbEntity
  8
0
100
AcDbBlockEnd
  0
BLOCK
  5
37A
100
AcDbEntity
  8
Detail
100
AcDbBlockBegin
  2
B-39
 70
    66
 10
0.000000
 20
0.000000
 30
0.000000
  0
LWPOLYLINE
  5
37B
100
AcDbEntity
  8
Detail
  6
CONTINUOUS
 62
     6
100
AcDbPolyline
 90
     2
 10
-20.560166
 20
-321.249941
 42
0.000000
 10
-20.560166
 20
-246.249941
 42
0.000000
  0
LWPOLYLINE
  5
37E
100
AcDbEntity
  8
Detail
  6
CONTINUOUS
 62
     6
100
AcDbPolyline
 90
     2
 10
-237.500018
 20
-321.249941
 42
0.000000
 10
120.969928
 20
-321.249941
 42
0.000000
  0
LWPOLYLINE
  5
381
100
AcDbEntity
  8
Detail
  6
CONTINUOUS
 62
     6
100
AcDbPolyline
 90
     2
 10
-20.560166
 20
-271.249941
 42
0.000000
 10
120.969928
 20
-271.249941
 42
0.000000
  0
LWPOLYLINE
  5
384
100
AcDbEntity
  8
Detail
  6
CONTINUOUS
 62
     6
100
AcDbPolyline
 90
     2
 10
-20.560166
 20
-296.249941
 42
0.000000
 10
120.969928
 20
-296.249941
 42
0.000000
  0
ENDBLK
  5
387
100
AcDbEntity
  8
0
100
AcDbBlockEnd
  0
BLOCK
  5
388
100
AcDbEntity
  8
Detail
100
AcDbBlockBegin
  2
B-40
 70
    66
 10
0.000000
 20
0.000000
 30
0.000000
  0
LWPOLYLINE
  5
389
100
AcDbEntity
  8
Detail
  6
CONTINUOUS
 62
     6
100
AcDbPolyline
 90
     2
 10
-20.560166
 20
-283.749941
 42
0.000000
 10
-237.500018
 20
-283.749941
 42
0.000000
  0
ENDBLK
  5
38C
100
AcDbEntity
  8
0
100
AcDbBlockEnd
  0
BLOCK
  5
38D
100
AcDbEntity
  8
Detail
100
AcDbBlockBegin
  2
B-41
 70
    66
 10
0.000000
 20
0.000000
 30
0.000000
  0
MTEXT
  5
38E
100
AcDbEntity
  8
Detail
 62
     7
100
AcDbMText
 10
-85.625009
 20
-332.500016
 30
0.000000
 40
4.999980
 41
72.134711
 71
     7
 72
     5
  1
Telefon 043 399 42 22
  7
Arial
 50
0.000000
  0
MTEXT
  5
38F
100
AcDbEntity
  8
Detail
 62
     7
100
AcDbMText
 10
-85.625009
 20
-339.999986
 30
0.000000
 40
4.999980
 41
71.767213
 71
     7
 72
     5
  1
Telefax 043 399 42 23
  7
Arial
 50
0.000000
  0
ENDBLK
  5
390
100
AcDbEntity
  8
0
100
AcDbBlockEnd
  0
BLOCK
  5
391
100
AcDbEntity
  8
Detail
100
AcDbBlockBegin
  2
B-42
 70
    66
 10
0.000000
 20
0.000000
 30
0.000000
  0
MTEXT
  5
392
100
AcDbEntity
  8
Detail
 62
     7
100
AcDbMText
 10
39.374992
 20
-332.500019
 30
0.000000
 40
4.999982
 41
51.922313
 71
     7
 72
     5
  1
info@daw.swiss
  7
Arial
 50
0.000000
  0
MTEXT
  5
393
100
AcDbEntity
  8
Detail
 62
     7
100
AcDbMText
 10
39.374992
 20
-339.999993
 30
0.000000
 40
4.999982
 41
54.599803
 71
     7
 72
     5
  1
www.capatect.ch
  7
Arial
 50
0.000000
  0
ENDBLK
  5
394
100
AcDbEntity
  8
0
100
AcDbBlockEnd
  0
BLOCK
  5
395
100
AcDbEntity
  8
Detail
100
AcDbBlockBegin
  2
B-43
 70
    66
 10
0.000000
 20
0.000000
 30
0.000000
  0
LWPOLYLINE
  5
396
100
AcDbEntity
  8
Detail
  6
CONTINUOUS
 62
     6
100
AcDbPolyline
 90
     2
 10
120.969928
 20
-346.249941
 42
0.000000
 10
120.969928
 20
-246.249941
 42
0.000000
  0
ENDBLK
  5
399
100
AcDbEntity
  8
0
100
AcDbBlockEnd
  0
BLOCK
  5
39A
100
AcDbEntity
  8
Detail
100
AcDbBlockBegin
  2
B-44
 70
    66
 10
0.000000
 20
0.000000
 30
0.000000
  0
LWPOLYLINE
  5
39B
100
AcDbEntity
  8
Detail
  6
CONTINUOUS
 62
     6
100
AcDbPolyline
 90
     5
 10
-237.500018
 20
-346.249941
 42
0.000000
 10
237.500023
 20
-346.249941
 42
0.000000
 10
237.500023
 20
346.250078
 42
0.000000
 10
-237.500018
 20
346.250078
 42
0.000000
 10
-237.500018
 20
-346.249941
 42
0.000000
  0
ENDBLK
  5
3A1
100
AcDbEntity
  8
0
100
AcDbBlockEnd
  0
BLOCK
  5
3A2
100
AcDbEntity
  8
Detail
100
AcDbBlockBegin
  2
B-45
 70
    66
 10
0.000000
 20
0.000000
 30
0.000000
  0
LWPOLYLINE
  5
3A3
100
AcDbEntity
  8
Detail
  6
CONTINUOUS
 62
     7
100
AcDbPolyline
 90
     4
 10
77.500025
 20
125.000121
 42
0.000000
 10
-22.492939
 20
125.000121
 42
0.000000
 10
-22.492940
 20
200.000119
 42
0.000000
 10
-86.000018
 20
200.000118
 42
0.000000
  0
ENDBLK
  5
3A8
100
AcDbEntity
  8
0
100
AcDbBlockEnd
  0
BLOCK
  5
3A9
100
AcDbEntity
  8
Detail
100
AcDbBlockBegin
  2
B-46
 70
    66
 10
0.000000
 20
0.000000
 30
0.000000
  0
LWPOLYLINE
  5
3AA
100
AcDbEntity
  8
Detail
  6
CONTINUOUS
 62
     7
100
AcDbPolyline
 90
     3
 10
77.500023
 20
100.000119
 42
0.000000
 10
-114.000018
 20
100.000117
 42
0.000000
 10
-114.000018
 20
50.000069
 42
0.000000
  0
ENDBLK
  5
3AE
100
AcDbEntity
  8
0
100
AcDbBlockEnd
  0
BLOCK
  5
3AF
100
AcDbEntity
  8
Detail
100
AcDbBlockBegin
  2
B-47
 70
    66
 10
0.000000
 20
0.000000
 30
0.000000
  0
LWPOLYLINE
  5
3B0
100
AcDbEntity
  8
Detail
  6
CONTINUOUS
 62
     7
100
AcDbPolyline
 90
     2
 10
77.500023
 20
50.000119
 42
0.000000
 10
-62.500018
 20
50.000069
 42
0.000000
  0
ENDBLK
  5
3B3
100
AcDbEntity
  8
0
100
AcDbBlockEnd
  0
BLOCK
  5
3B4
100
AcDbEntity
  8
Detail
100
AcDbBlockBegin
  2
B-48
 70
    66
 10
0.000000
 20
0.000000
 30
0.000000
  0
LWPOLYLINE
  5
3B5
100
AcDbEntity
  8
Detail
  6
CONTINUOUS
 62
     7
100
AcDbPolyline
 90
     2
 10
77.500024
 20
-49.999882
 42
0.000000
 10
-52.496479
 20
-49.999882
 42
0.000000
  0
LWPOLYLINE
  5
3B8
100
AcDbEntity
  8
Detail
  6
CONTINUOUS
 62
     7
100
AcDbPolyline
 90
     2
 10
77.500024
 20
-24.999882
 42
0.000000
 10
-62.500018
 20
-24.999882
 42
0.000000
  0
ENDBLK
  5
3BB
100
AcDbEntity
  8
0
100
AcDbBlockEnd
  0
BLOCK
  5
3BC
100
AcDbEntity
  8
Detail
100
AcDbBlockBegin
  2
B-49
 70
    66
 10
0.000000
 20
0.000000
 30
0.000000
  0
LWPOLYLINE
  5
3BD
100
AcDbEntity
  8
Detail
  6
CONTINUOUS
 62
     7
100
AcDbPolyline
 90
     2
 10
77.500025
 20
0.000119
 42
0.000000
 10
-107.500018
 20
0.000118
 42
0.000000
  0
ENDBLK
  5
3C0
100
AcDbEntity
  8
0
100
AcDbBlockEnd
  0
BLOCK
  5
3C1
100
AcDbEntity
  8
SCHRAFF
100
AcDbBlockBegin
  2
B-50
 70
    66
 10
0.000000
 20
0.000000
 30
0.000000
  0
HATCH
  5
3C2
100
AcDbEntity
  8
SCHRAFF
  6
CONTINUOUS
 62
     9
100
AcDbHatch
 10
0.000000
 20
0.000000
 30
0.000000
210
0.000000
220
0.000000
230
1.000000
  2
_U
 70
     0
 71
     1
 91
     1
 92
    18
 72
     1
 73
     0
 93
     5
 10
-152.500018
 20
57.000069
 42
0.000000
 10
-152.500018
 20
296.250078
 42
0.000000
 10
-212.500018
 20
296.250078
 42
0.000000
 10
-212.500018
 20
57.000069
 42
0.000000
 10
-152.500018
 20
57.000069
 42
0.000000
 97
     0
 75
     0
 76
     0
 52
0.000000
 41
1.000000
 77
     0
 78
     1
 53
45.000000
 43
-0.000000
 44
0.000000
 45
-17.677670
 46
17.677669
 79
     0
 98
     0
  0
ENDBLK
  5
3C3
100
AcDbEntity
  8
0
100
AcDbBlockEnd
  0
BLOCK
  5
3C4
100
AcDbEntity
  8
SCHRAFF
100
AcDbBlockBegin
  2
B-51
 70
    66
 10
0.000000
 20
0.000000
 30
0.000000
  0
HATCH
  5
3C5
100
AcDbEntity
  8
SCHRAFF
  6
CONTINUOUS
 62
     9
100
AcDbHatch
 10
0.000000
 20
0.000000
 30
0.000000
210
0.000000
220
0.000000
230
1.000000
  2
_U
 70
     0
 71
     1
 91
     1
 92
    18
 72
     1
 73
     0
 93
     5
 10
-152.500018
 20
43.000069
 42
0.000000
 10
-152.500018
 20
-196.249941
 42
0.000000
 10
-212.500018
 20
-196.249941
 42
0.000000
 10
-212.500018
 20
43.000069
 42
0.000000
 10
-152.500018
 20
43.000069
 42
0.000000
 97
     0
 75
     0
 76
     0
 52
0.000000
 41
1.000000
 77
     0
 78
     1
 53
45.000000
 43
-0.000000
 44
0.000000
 45
-17.677670
 46
17.677669
 79
     0
 98
     0
  0
ENDBLK
  5
3C6
100
AcDbEntity
  8
0
100
AcDbBlockEnd
  0
BLOCK
  5
3C7
100
AcDbEntity
  8
L
100
AcDbBlockBegin
  2
B-52
 70
    66
 10
0.000000
 20
0.000000
 30
0.000000
  0
LWPOLYLINE
  5
3C8
100
AcDbEntity
  8
L
  6
CONTINUOUS
 62
     3
100
AcDbPolyline
 90
     4
 10
-212.500018
 20
45.000069
 42
0.000000
 10
-152.500018
 20
45.000069
 42
0.000000
 10
-152.500018
 20
55.000069
 42
0.000000
 10
-212.500018
 20
55.000069
 42
0.000000
  0
ENDBLK
  5
3CD
100
AcDbEntity
  8
0
100
AcDbBlockEnd
  0
BLOCK
  5
3CE
100
AcDbEntity
  8
Detail
100
AcDbBlockBegin
  2
B-53
 70
    66
 10
0.000000
 20
0.000000
 30
0.000000
  0
MTEXT
  5
3CF
100
AcDbEntity
  8
Detail
 62
     7
100
AcDbMText
 10
79.375021
 20
27.500114
 30
0.000000
 40
4.999990
 41
38.902407
 71
     1
 72
     5
  1
Klebemörtel
  7
Arial
 50
0.000000
  0
ENDBLK
  5
3D0
100
AcDbEntity
  8
0
100
AcDbBlockEnd
  0
BLOCK
  5
3D1
100
AcDbEntity
  8
Detail
100
AcDbBlockBegin
  2
B-54
 70
    66
 10
0.000000
 20
0.000000
 30
0.000000
  0
LWPOLYLINE
  5
3D2
100
AcDbEntity
  8
Detail
  6
CONTINUOUS
 62
     7
100
AcDbPolyline
 90
     2
 10
77.500025
 20
25.000119
 42
0.000000
 10
-150.000018
 20
25.000118
 42
0.000000
  0
ENDBLK
  5
3D5
100
AcDbEntity
  8
0
100
AcDbBlockEnd
  0
BLOCK
  5
3D6
100
AcDbEntity
  8
SCHRAFF
100
AcDbBlockBegin
  2
B-55
 70
    66
 10
0.000000
 20
0.000000
 30
0.000000
  0
HATCH
  5
3D7
100
AcDbEntity
  8
SCHRAFF
 62
     7
440
     0
100
AcDbHatch
 10
0.000000
 20
0.000000
 30
0.000000
210
0.000000
220
0.000000
230
1.000000
  2
SOLID
 70
     1
 71
     1
 91
     1
 92
    18
 72
     1
 73
     0
 93
     3
 10
-149.500018
 20
25.000118
 42
1.000000
 10
-150.500018
 20
25.000118
 42
1.000000
 10
-149.500018
 20
25.000118
 42
0.000000
 97
     0
 75
     0
 76
     1
 98
     0
  0
CIRCLE
  5
3D8
100
AcDbEntity
  8
Detail
  6
CONTINUOUS
 62
     7
100
AcDbCircle
 10
-150.000018
 20
25.000118
 40
0.500000
  0
ENDBLK
  5
3D9
100
AcDbEntity
  8
0
100
AcDbBlockEnd
  0
BLOCK
  5
3DA
100
AcDbEntity
  8
Detail
100
AcDbBlockBegin
  2
B-56
 70
    66
 10
0.000000
 20
0.000000
 30
0.000000
  0
MTEXT
  5
3DB
100
AcDbEntity
  8
Detail
 62
     7
100
AcDbMText
 10
-210.625009
 20
-332.500016
 30
0.000000
 40
4.999980
 41
58.117268
 71
     7
 72
     5
  1
DAW Schweiz AG
  7
Arial
 50
0.000000
  0
MTEXT
  5
3DC
100
AcDbEntity
  8
Detail
 62
     7
100
AcDbMText
 10
-210.625009
 20
-339.999986
 30
0.000000
 40
4.999980
 41
108.149567
 71
     7
 72
     5
  1
Gewerbestrasse 6, 8606 Nänikon
  7
Arial
 50
0.000000
  0
ENDBLK
  5
3DD
100
AcDbEntity
  8
0
100
AcDbBlockEnd
  0
BLOCK
  5
3DE
100
AcDbEntity
  8
Detail
100
AcDbBlockBegin
  2
B-57
 70
    66
 10
0.000000
 20
0.000000
 30
0.000000
  0
LWPOLYLINE
  5
3DF
100
AcDbEntity
  8
Detail
  6
CONTINUOUS
 62
     9
100
AcDbPolyline
 90
     2
 10
-116.000018
 20
207.000118
 42
0.000000
 10
-116.000018
 20
193.020706
 42
0.000000
  0
LWPOLYLINE
  5
3E2
100
AcDbEntity
  8
Detail
  6
CONTINUOUS
 62
     9
100
AcDbPolyline
 90
    83
 10
-87.500018
 20
170.000118
 42
0.000000
 10
-87.000018
 20
170.000118
 42
0.000000
 10
-86.000018
 20
175.000118
 42
0.000000
 10
-86.000018
 20
225.000118
 42
0.000000
 10
-87.000018
 20
230.000118
 42
0.000000
 10
-87.500018
 20
230.000118
 42
0.000000
 10
-87.500018
 20
213.000118
 42
0.000000
 10
-88.750018
 20
209.250118
 42
0.000000
 10
-92.500018
 20
208.000118
 42
0.000000
 10
-116.000018
 20
207.000118
 42
0.000000
 10
-122.000018
 20
204.500118
 42
0.000000
 10
-164.462215
 20
203.960118
 42
0.000000
 10
-165.828158
 20
203.713109
 42
0.000000
 10
-165.903911
 20
203.960118
 42
0.000000
 10
-168.686215
 20
203.960118
 42
0.000000
 10
-170.052158
 20
203.713109
 42
0.000000
 10
-170.127911
 20
203.960118
 42
0.000000
 10
-172.910215
 20
203.960118
 42
0.000000
 10
-174.276158
 20
203.713109
 42
0.000000
 10
-174.351827
 20
203.955318
 42
0.000000
 10
-177.134215
 20
203.960118
 42
0.000000
 10
-178.500158
 20
203.713109
 42
0.000000
 10
-178.575911
 20
203.960118
 42
0.000000
 10
-181.358215
 20
203.960118
 42
0.000000
 10
-182.724158
 20
203.713109
 42
0.000000
 10
-182.799911
 20
203.960118
 42
0.000000
 10
-185.582215
 20
203.960118
 42
0.000000
 10
-186.948158
 20
203.713109
 42
0.000000
 10
-187.023911
 20
203.960118
 42
0.000000
 10
-189.806215
 20
203.960118
 42
0.000000
 10
-191.172158
 20
203.713109
 42
0.000000
 10
-191.247911
 20
203.960118
 42
0.000000
 10
-194.030215
 20
203.960118
 42
0.000000
 10
-195.396158
 20
203.713109
 42
0.000000
 10
-195.471911
 20
203.960118
 42
0.000000
 10
-198.254215
 20
203.960118
 42
0.000000
 10
-199.458372
 20
203.677686
 42
0.000000
 10
-199.917355
 20
203.840118
 42
0.000000
 10
-200.894215
 20
203.405862
 42
0.000000
 10
-201.134215
 20
202.880118
 42
0.000000
 10
-201.902215
 20
202.880118
 42
0.000000
 10
-203.420108
 20
202.339150
 42
0.000000
 10
-204.253725
 20
200.960118
 42
0.000000
 10
-206.000018
 20
200.000118
 42
0.000000
 10
-204.253725
 20
199.040118
 42
0.000000
 10
-203.420108
 20
197.661086
 42
0.000000
 10
-202.157414
 20
197.133725
 42
0.000000
 10
-201.134215
 20
197.120118
 42
0.000000
 10
-200.894215
 20
196.594375
 42
0.000000
 10
-200.142059
 20
196.160118
 42
0.000000
 10
-199.692646
 20
196.160118
 42
0.000000
 10
-199.458372
 20
196.322551
 42
0.000000
 10
-198.254215
 20
196.040118
 42
0.000000
 10
-195.471911
 20
196.040118
 42
0.000000
 10
-195.396158
 20
196.287128
 42
0.000000
 10
-194.030215
 20
196.040118
 42
0.000000
 10
-191.247911
 20
196.040118
 42
0.000000
 10
-191.172158
 20
196.287128
 42
0.000000
 10
-189.806215
 20
196.040118
 42
0.000000
 10
-187.023911
 20
196.040118
 42
0.000000
 10
-186.948158
 20
196.287128
 42
0.000000
 10
-185.582215
 20
196.040118
 42
0.000000
 10
-182.799911
 20
196.040118
 42
0.000000
 10
-182.724158
 20
196.287128
 42
0.000000
 10
-181.358215
 20
196.040118
 42
0.000000
 10
-178.575911
 20
196.040118
 42
0.000000
 10
-178.500158
 20
196.287128
 42
0.000000
 10
-177.134215
 20
196.040118
 42
0.000000
 10
-174.351827
 20
196.044918
 42
0.000000
 10
-174.276158
 20
196.287128
 42
0.000000
 10
-172.910215
 20
196.040118
 42
0.000000
 10
-170.127911
 20
196.040118
 42
0.000000
 10
-170.052158
 20
196.287128
 42
0.000000
 10
-168.686215
 20
196.040118
 42
0.000000
 10
-165.903911
 20
196.040118
 42
0.000000
 10
-165.828158
 20
196.287128
 42
0.000000
 10
-164.462215
 20
196.040118
 42
0.000000
 10
-122.000018
 20
195.500118
 42
0.000000
 10
-116.000018
 20
193.000118
 42
0.000000
 10
-92.500018
 20
192.000118
 42
0.000000
 10
-88.750018
 20
190.750118
 42
0.000000
 10
-87.500018
 20
187.000118
 42
0.000000
 10
-87.500018
 20
170.000118
 42
0.000000
  0
LWPOLYLINE
  5
436
100
AcDbEntity
  8
Detail
  6
CONTINUOUS
 62
     9
100
AcDbPolyline
 90
   203
 10
-206.000018
 20
200.000118
 42
0.000000
 10
-203.886942
 20
200.875383
 42
0.000000
 10
-203.385367
 20
201.744137
 42
0.000000
 10
-202.996692
 20
201.244137
 42
0.000000
 10
-201.916355
 20
201.691627
 42
0.000000
 10
-201.414780
 20
202.560381
 42
0.000000
 10
-201.026105
 20
202.060381
 42
0.000000
 10
-200.447328
 20
202.300118
 42
0.000000
 10
-199.846289
 20
202.300118
 42
0.000000
 10
-199.557614
 20
202.800118
 42
0.000000
 10
-199.168939
 20
202.300118
 42
0.000000
 10
-198.036289
 20
202.300118
 42
0.000000
 10
-197.747614
 20
202.800118
 42
0.000000
 10
-197.358939
 20
202.300118
 42
0.000000
 10
-196.226289
 20
202.300118
 42
0.000000
 10
-195.937614
 20
202.800118
 42
0.000000
 10
-195.548939
 20
202.300118
 42
0.000000
 10
-194.416289
 20
202.300118
 42
0.000000
 10
-194.127614
 20
202.800118
 42
0.000000
 10
-193.738939
 20
202.300118
 42
0.000000
 10
-192.606289
 20
202.300118
 42
0.000000
 10
-192.317614
 20
202.800118
 42
0.000000
 10
-191.928939
 20
202.300118
 42
0.000000
 10
-190.796289
 20
202.300118
 42
0.000000
 10
-190.507614
 20
202.800118
 42
0.000000
 10
-190.118939
 20
202.300118
 42
0.000000
 10
-188.986289
 20
202.300118
 42
0.000000
 10
-188.697614
 20
202.800118
 42
0.000000
 10
-188.308939
 20
202.300118
 42
0.000000
 10
-187.176289
 20
202.300118
 42
0.000000
 10
-186.887614
 20
202.800118
 42
0.000000
 10
-186.498939
 20
202.300118
 42
0.000000
 10
-185.366289
 20
202.300118
 42
0.000000
 10
-185.077614
 20
202.800118
 42
0.000000
 10
-184.688939
 20
202.300118
 42
0.000000
 10
-183.556289
 20
202.300118
 42
0.000000
 10
-183.267614
 20
202.800118
 42
0.000000
 10
-182.878939
 20
202.300118
 42
0.000000
 10
-181.746289
 20
202.300118
 42
0.000000
 10
-181.457614
 20
202.800118
 42
0.000000
 10
-181.068939
 20
202.300118
 42
0.000000
 10
-179.936289
 20
202.300118
 42
0.000000
 10
-179.647614
 20
202.800118
 42
0.000000
 10
-179.258939
 20
202.300118
 42
0.000000
 10
-178.126289
 20
202.300118
 42
0.000000
 10
-177.837614
 20
202.800118
 42
0.000000
 10
-177.448939
 20
202.300118
 42
0.000000
 10
-176.316289
 20
202.300118
 42
0.000000
 10
-176.027614
 20
202.800118
 42
0.000000
 10
-175.638939
 20
202.300118
 42
0.000000
 10
-174.506289
 20
202.300118
 42
0.000000
 10
-174.217614
 20
202.800118
 42
0.000000
 10
-173.828939
 20
202.300118
 42
0.000000
 10
-172.696289
 20
202.300118
 42
0.000000
 10
-172.407614
 20
202.800118
 42
0.000000
 10
-172.018939
 20
202.300118
 42
0.000000
 10
-170.886289
 20
202.300118
 42
0.000000
 10
-170.597614
 20
202.800118
 42
0.000000
 10
-170.186425
 20
202.300118
 42
0.000000
 10
-169.076289
 20
202.300118
 42
0.000000
 10
-168.787614
 20
202.800118
 42
0.000000
 10
-168.398939
 20
202.300118
 42
0.000000
 10
-167.266289
 20
202.300118
 42
0.000000
 10
-166.977614
 20
202.800118
 42
0.000000
 10
-166.588939
 20
202.300118
 42
0.000000
 10
-165.456289
 20
202.300118
 42
0.000000
 10
-165.167614
 20
202.800118
 42
0.000000
 10
-164.778939
 20
202.300118
 42
0.000000
 10
-163.646289
 20
202.300118
 42
0.000000
 10
-163.357614
 20
202.800118
 42
0.000000
 10
-162.968939
 20
202.300118
 42
0.000000
 10
-161.836289
 20
202.300118
 42
0.000000
 10
-161.547614
 20
202.800118
 42
0.000000
 10
-161.158939
 20
202.300118
 42
0.000000
 10
-160.026289
 20
202.300118
 42
0.000000
 10
-159.737614
 20
202.800118
 42
0.000000
 10
-159.348939
 20
202.300118
 42
0.000000
 10
-158.216289
 20
202.300118
 42
0.000000
 10
-157.927614
 20
202.800118
 42
0.000000
 10
-157.538939
 20
202.300118
 42
0.000000
 10
-156.406289
 20
202.300118
 42
0.000000
 10
-156.117614
 20
202.800118
 42
0.000000
 10
-155.728939
 20
202.300118
 42
0.000000
 10
-154.596289
 20
202.300118
 42
0.000000
 10
-154.307614
 20
202.800118
 42
0.000000
 10
-153.918939
 20
202.300118
 42
0.000000
 10
-152.786289
 20
202.300118
 42
0.000000
 10
-152.497614
 20
202.800118
 42
0.000000
 10
-152.108939
 20
202.300118
 42
0.000000
 10
-150.976289
 20
202.300118
 42
0.000000
 10
-150.687614
 20
202.800118
 42
0.000000
 10
-150.298939
 20
202.300118
 42
0.000000
 10
-149.166289
 20
202.300118
 42
0.000000
 10
-148.877614
 20
202.800118
 42
0.000000
 10
-148.488939
 20
202.300118
 42
0.000000
 10
-147.356289
 20
202.300118
 42
0.000000
 10
-147.067614
 20
202.800118
 42
0.000000
 10
-146.678939
 20
202.300118
 42
0.000000
 10
-146.000018
 20
202.300118
 42
0.000000
 10
-145.826813
 20
202.400118
 42
0.000000
 10
-122.000018
 20
204.500118
 42
0.000000
 10
-122.000018
 20
195.500118
 42
0.000000
 10
-145.826813
 20
197.600118
 42
0.000000
 10
-146.000018
 20
197.700118
 42
0.000000
 10
-146.162614
 20
197.200118
 42
0.000000
 10
-146.451289
 20
197.700118
 42
0.000000
 10
-147.583939
 20
197.700118
 42
0.000000
 10
-147.972614
 20
197.200118
 42
0.000000
 10
-148.261289
 20
197.700118
 42
0.000000
 10
-149.393939
 20
197.700118
 42
0.000000
 10
-149.782614
 20
197.200118
 42
0.000000
 10
-150.071289
 20
197.700118
 42
0.000000
 10
-151.203939
 20
197.700118
 42
0.000000
 10
-151.592614
 20
197.200118
 42
0.000000
 10
-151.881289
 20
197.700118
 42
0.000000
 10
-153.013939
 20
197.700118
 42
0.000000
 10
-153.402614
 20
197.200118
 42
0.000000
 10
-153.691289
 20
197.700118
 42
0.000000
 10
-154.823939
 20
197.700118
 42
0.000000
 10
-155.212614
 20
197.200118
 42
0.000000
 10
-155.501289
 20
197.700118
 42
0.000000
 10
-156.633939
 20
197.700118
 42
0.000000
 10
-157.022614
 20
197.200118
 42
0.000000
 10
-157.311289
 20
197.700118
 42
0.000000
 10
-158.443939
 20
197.700118
 42
0.000000
 10
-158.832614
 20
197.200118
 42
0.000000
 10
-159.121289
 20
197.700118
 42
0.000000
 10
-160.253939
 20
197.700118
 42
0.000000
 10
-160.642614
 20
197.200118
 42
0.000000
 10
-160.931289
 20
197.700118
 42
0.000000
 10
-162.063939
 20
197.700118
 42
0.000000
 10
-162.452614
 20
197.200118
 42
0.000000
 10
-162.741289
 20
197.700118
 42
0.000000
 10
-163.873939
 20
197.700118
 42
0.000000
 10
-164.262614
 20
197.200118
 42
0.000000
 10
-164.551289
 20
197.700118
 42
0.000000
 10
-165.683939
 20
197.700118
 42
0.000000
 10
-166.072614
 20
197.200118
 42
0.000000
 10
-166.361289
 20
197.700118
 42
0.000000
 10
-167.493939
 20
197.700118
 42
0.000000
 10
-167.882614
 20
197.200118
 42
0.000000
 10
-168.171289
 20
197.700118
 42
0.000000
 10
-169.303939
 20
197.700118
 42
0.000000
 10
-169.692614
 20
197.200118
 42
0.000000
 10
-169.981289
 20
197.700118
 42
0.000000
 10
-171.113939
 20
197.700118
 42
0.000000
 10
-171.502614
 20
197.200118
 42
0.000000
 10
-171.791289
 20
197.700118
 42
0.000000
 10
-172.923939
 20
197.700118
 42
0.000000
 10
-173.312614
 20
197.200118
 42
0.000000
 10
-173.601289
 20
197.700118
 42
0.000000
 10
-174.733939
 20
197.700118
 42
0.000000
 10
-175.122614
 20
197.200118
 42
0.000000
 10
-175.411289
 20
197.700118
 42
0.000000
 10
-176.543939
 20
197.700118
 42
0.000000
 10
-176.932614
 20
197.200118
 42
0.000000
 10
-177.221289
 20
197.700118
 42
0.000000
 10
-178.353939
 20
197.700118
 42
0.000000
 10
-178.742614
 20
197.200118
 42
0.000000
 10
-179.031289
 20
197.700118
 42
0.000000
 10
-180.163939
 20
197.700118
 42
0.000000
 10
-180.552614
 20
197.200118
 42
0.000000
 10
-180.841289
 20
197.700118
 42
0.000000
 10
-181.973939
 20
197.700118
 42
0.000000
 10
-182.362614
 20
197.200118
 42
0.000000
 10
-182.651289
 20
197.700118
 42
0.000000
 10
-183.783939
 20
197.700118
 42
0.000000
 10
-184.172614
 20
197.200118
 42
0.000000
 10
-184.461289
 20
197.700118
 42
0.000000
 10
-185.593939
 20
197.700118
 42
0.000000
 10
-185.982614
 20
197.200118
 42
0.000000
 10
-186.271289
 20
197.700118
 42
0.000000
 10
-187.403939
 20
197.700118
 42
0.000000
 10
-187.792614
 20
197.200118
 42
0.000000
 10
-188.081289
 20
197.700118
 42
0.000000
 10
-189.213939
 20
197.700118
 42
0.000000
 10
-189.602614
 20
197.200118
 42
0.000000
 10
-189.891289
 20
197.700118
 42
0.000000
 10
-191.023939
 20
197.700118
 42
0.000000
 10
-191.412614
 20
197.200118
 42
0.000000
 10
-191.701289
 20
197.700118
 42
0.000000
 10
-192.833939
 20
197.700118
 42
0.000000
 10
-193.222614
 20
197.200118
 42
0.000000
 10
-193.511289
 20
197.700118
 42
0.000000
 10
-194.643939
 20
197.700118
 42
0.000000
 10
-195.032614
 20
197.200118
 42
0.000000
 10
-195.321289
 20
197.700118
 42
0.000000
 10
-196.453939
 20
197.700118
 42
0.000000
 10
-196.842614
 20
197.200118
 42
0.000000
 10
-197.131289
 20
197.700118
 42
0.000000
 10
-198.263939
 20
197.700118
 42
0.000000
 10
-198.652614
 20
197.200118
 42
0.000000
 10
-198.941289
 20
197.700118
 42
0.000000
 10
-200.073939
 20
197.700118
 42
0.000000
 10
-200.462614
 20
197.200118
 42
0.000000
 10
-200.846829
 20
197.865598
 42
0.000000
 10
-201.775689
 20
198.250344
 42
0.000000
 10
-202.164364
 20
197.750344
 42
0.000000
 10
-202.665938
 20
198.619098
 42
0.000000
 10
-203.449302
 20
198.943577
 42
0.000000
 10
-203.837977
 20
198.443577
 42
0.000000
 10
-204.339552
 20
199.312331
 42
0.000000
 10
-206.000018
 20
200.000118
 42
0.000000
  0
ENDBLK
  5
502
100
AcDbEntity
  8
0
100
AcDbBlockEnd
  0
BLOCK
  5
503
100
AcDbEntity
  8
Detail
100
AcDbBlockBegin
  2
B-59
 70
    66
 10
0.000000
 20
0.000000
 30
0.000000
  0
LWPOLYLINE
  5
504
100
AcDbEntity
  8
Detail
  6
CONTINUOUS
 62
     3
100
AcDbPolyline
 90
     5
 10
-67.500018
 20
230.000118
 42
0.000000
 10
-87.500018
 20
230.000118
 42
0.000000
 10
-87.500018
 20
170.000118
 42
0.000000
 10
-67.500018
 20
170.000118
 42
0.000000
 10
-67.500018
 20
230.000118
 42
0.000000
  0
ENDBLK
  5
50A
100
AcDbEntity
  8
0
100
AcDbBlockEnd
  0
BLOCK
  5
50B
100
AcDbEntity
  8
Detail
100
AcDbBlockBegin
  2
B-60
 70
    66
 10
0.000000
 20
0.000000
 30
0.000000
  0
LWPOLYLINE
  5
50C
100
AcDbEntity
  8
Detail
  6
CONTINUOUS
 62
     6
100
AcDbPolyline
 90
   241
 10
-47.867944
 20
296.250078
 42
0.000000
 10
-47.492939
 20
295.500069
 42
0.000000
 10
-47.492939
 20
294.500069
 42
0.000000
 10
-46.992939
 20
293.500069
 42
0.000000
 10
-47.492939
 20
292.500069
 42
0.000000
 10
-47.492939
 20
291.500069
 42
0.000000
 10
-47.992939
 20
290.500069
 42
0.000000
 10
-47.492939
 20
289.500069
 42
0.000000
 10
-47.492939
 20
288.500069
 42
0.000000
 10
-46.992939
 20
287.500069
 42
0.000000
 10
-47.492939
 20
286.500069
 42
0.000000
 10
-47.492939
 20
285.500069
 42
0.000000
 10
-47.992939
 20
284.500069
 42
0.000000
 10
-47.492939
 20
283.500069
 42
0.000000
 10
-47.492939
 20
282.500069
 42
0.000000
 10
-46.992939
 20
281.500069
 42
0.000000
 10
-47.492939
 20
280.500069
 42
0.000000
 10
-47.492939
 20
279.500069
 42
0.000000
 10
-47.992939
 20
278.500069
 42
0.000000
 10
-47.492939
 20
277.500069
 42
0.000000
 10
-47.492939
 20
276.500069
 42
0.000000
 10
-46.992939
 20
275.500069
 42
0.000000
 10
-47.492939
 20
274.500069
 42
0.000000
 10
-47.492939
 20
273.500069
 42
0.000000
 10
-47.992939
 20
272.500069
 42
0.000000
 10
-47.492939
 20
271.500069
 42
0.000000
 10
-47.492939
 20
270.500069
 42
0.000000
 10
-46.992939
 20
269.500069
 42
0.000000
 10
-47.492939
 20
268.500069
 42
0.000000
 10
-47.492939
 20
267.500069
 42
0.000000
 10
-47.992939
 20
266.500069
 42
0.000000
 10
-47.492939
 20
265.500069
 42
0.000000
 10
-47.492939
 20
264.500069
 42
0.000000
 10
-46.992939
 20
263.500069
 42
0.000000
 10
-47.492939
 20
262.500069
 42
0.000000
 10
-47.492939
 20
261.500069
 42
0.000000
 10
-47.992939
 20
260.500069
 42
0.000000
 10
-47.492939
 20
259.500069
 42
0.000000
 10
-47.488541
 20
258.491272
 42
0.000000
 10
-46.992939
 20
257.500069
 42
0.000000
 10
-47.492939
 20
256.500069
 42
0.000000
 10
-47.492939
 20
255.500069
 42
0.000000
 10
-47.992939
 20
254.500069
 42
0.000000
 10
-47.492939
 20
253.500069
 42
0.000000
 10
-47.492939
 20
252.500069
 42
0.000000
 10
-46.992939
 20
251.500069
 42
0.000000
 10
-47.492939
 20
250.500069
 42
0.000000
 10
-47.492939
 20
249.500069
 42
0.000000
 10
-47.992939
 20
248.500069
 42
0.000000
 10
-47.492939
 20
247.500069
 42
0.000000
 10
-47.492939
 20
246.500069
 42
0.000000
 10
-46.992939
 20
245.500069
 42
0.000000
 10
-47.492939
 20
244.500069
 42
0.000000
 10
-47.492939
 20
243.500069
 42
0.000000
 10
-47.992939
 20
242.500069
 42
0.000000
 10
-47.492939
 20
241.500069
 42
0.000000
 10
-47.492939
 20
240.500069
 42
0.000000
 10
-46.992939
 20
239.500069
 42
0.000000
 10
-47.492939
 20
238.500069
 42
0.000000
 10
-47.492939
 20
237.500069
 42
0.000000
 10
-47.992939
 20
236.500069
 42
0.000000
 10
-47.492939
 20
235.500069
 42
0.000000
 10
-47.492939
 20
234.500069
 42
0.000000
 10
-46.992939
 20
233.500069
 42
0.000000
 10
-47.492939
 20
232.500069
 42
0.000000
 10
-47.492939
 20
231.500069
 42
0.000000
 10
-47.992939
 20
230.500069
 42
0.000000
 10
-47.492939
 20
229.500069
 42
0.000000
 10
-47.492939
 20
228.500069
 42
0.000000
 10
-46.992939
 20
227.500069
 42
0.000000
 10
-47.492939
 20
226.492402
 42
0.000000
 10
-47.492939
 20
225.500069
 42
0.000000
 10
-47.992939
 20
224.500069
 42
0.000000
 10
-47.492939
 20
223.500069
 42
0.000000
 10
-47.492939
 20
222.500069
 42
0.000000
 10
-46.992939
 20
221.500069
 42
0.000000
 10
-47.492939
 20
220.500069
 42
0.000000
 10
-47.492939
 20
219.500069
 42
0.000000
 10
-47.992939
 20
218.500069
 42
0.000000
 10
-47.492939
 20
217.500069
 42
0.000000
 10
-47.492939
 20
216.500069
 42
0.000000
 10
-46.992939
 20
215.500069
 42
0.000000
 10
-47.492939
 20
214.500069
 42
0.000000
 10
-47.492939
 20
213.500069
 42
0.000000
 10
-47.992939
 20
212.500069
 42
0.000000
 10
-47.492939
 20
211.500069
 42
0.000000
 10
-47.492939
 20
210.500069
 42
0.000000
 10
-46.992939
 20
209.500069
 42
0.000000
 10
-47.492939
 20
208.500069
 42
0.000000
 10
-47.492939
 20
207.500069
 42
0.000000
 10
-47.992939
 20
206.500069
 42
0.000000
 10
-47.492939
 20
205.500069
 42
0.000000
 10
-47.492939
 20
204.500069
 42
0.000000
 10
-46.992939
 20
203.500069
 42
0.000000
 10
-47.492939
 20
202.500069
 42
0.000000
 10
-47.492939
 20
201.500069
 42
0.000000
 10
-47.992939
 20
200.500069
 42
0.000000
 10
-47.492939
 20
199.500069
 42
0.000000
 10
-47.492939
 20
198.500069
 42
0.000000
 10
-46.992939
 20
197.500069
 42
0.000000
 10
-47.492939
 20
196.500069
 42
0.000000
 10
-47.492939
 20
195.500069
 42
0.000000
 10
-47.992939
 20
194.500069
 42
0.000000
 10
-47.492939
 20
193.500069
 42
0.000000
 10
-47.492939
 20
192.500069
 42
0.000000
 10
-46.992939
 20
191.500069
 42
0.000000
 10
-47.492939
 20
190.500069
 42
0.000000
 10
-47.492939
 20
189.500069
 42
0.000000
 10
-47.992939
 20
188.500069
 42
0.000000
 10
-47.492939
 20
187.500069
 42
0.000000
 10
-47.492939
 20
186.500069
 42
0.000000
 10
-46.992939
 20
185.500069
 42
0.000000
 10
-47.492939
 20
184.500069
 42
0.000000
 10
-47.492939
 20
183.500069
 42
0.000000
 10
-47.992939
 20
182.500069
 42
0.000000
 10
-47.492939
 20
181.500069
 42
0.000000
 10
-47.492939
 20
180.500069
 42
0.000000
 10
-46.992939
 20
179.500069
 42
0.000000
 10
-47.492939
 20
178.500069
 42
0.000000
 10
-47.492939
 20
177.500069
 42
0.000000
 10
-47.992939
 20
176.500069
 42
0.000000
 10
-47.492939
 20
175.500069
 42
0.000000
 10
-47.492939
 20
174.500069
 42
0.000000
 10
-46.992939
 20
173.500069
 42
0.000000
 10
-47.492939
 20
172.500069
 42
0.000000
 10
-47.492939
 20
171.500069
 42
0.000000
 10
-47.992939
 20
170.500069
 42
0.000000
 10
-47.492939
 20
169.500069
 42
0.000000
 10
-47.492939
 20
168.500069
 42
0.000000
 10
-46.992939
 20
167.500069
 42
0.000000
 10
-47.492939
 20
166.500069
 42
0.000000
 10
-47.492939
 20
165.500069
 42
0.000000
 10
-47.992939
 20
164.500069
 42
0.000000
 10
-47.492939
 20
163.500069
 42
0.000000
 10
-47.492939
 20
162.500069
 42
0.000000
 10
-46.992939
 20
161.500069
 42
0.000000
 10
-47.492939
 20
160.500069
 42
0.000000
 10
-47.492939
 20
159.500069
 42
0.000000
 10
-47.992939
 20
158.500069
 42
0.000000
 10
-47.492939
 20
157.500069
 42
0.000000
 10
-47.492939
 20
156.500069
 42
0.000000
 10
-46.992939
 20
155.500069
 42
0.000000
 10
-47.492939
 20
154.500069
 42
0.000000
 10
-47.492939
 20
153.500069
 42
0.000000
 10
-47.992939
 20
152.500069
 42
0.000000
 10
-47.492939
 20
151.500069
 42
0.000000
 10
-47.492939
 20
150.500069
 42
0.000000
 10
-46.992939
 20
149.500069
 42
0.000000
 10
-47.492939
 20
148.500069
 42
0.000000
 10
-47.492939
 20
147.500069
 42
0.000000
 10
-47.992939
 20
146.500069
 42
0.000000
 10
-47.492939
 20
145.500069
 42
0.000000
 10
-47.492939
 20
144.500069
 42
0.000000
 10
-46.992939
 20
143.500069
 42
0.000000
 10
-47.492939
 20
142.500069
 42
0.000000
 10
-47.492939
 20
141.500069
 42
0.000000
 10
-47.992939
 20
140.500069
 42
0.000000
 10
-47.492939
 20
139.500069
 42
0.000000
 10
-47.492939
 20
138.500069
 42
0.000000
 10
-46.992939
 20
137.500069
 42
0.000000
 10
-47.492939
 20
136.500069
 42
0.000000
 10
-47.492939
 20
135.500069
 42
0.000000
 10
-47.992939
 20
134.500069
 42
0.000000
 10
-47.492939
 20
133.500069
 42
0.000000
 10
-47.492939
 20
132.500069
 42
0.000000
 10
-46.992939
 20
131.500069
 42
0.000000
 10
-47.492939
 20
130.500069
 42
0.000000
 10
-47.492939
 20
129.500069
 42
0.000000
 10
-47.992939
 20
128.500069
 42
0.000000
 10
-47.492939
 20
127.500069
 42
0.000000
 10
-47.492939
 20
126.500069
 42
0.000000
 10
-46.992939
 20
125.500069
 42
0.000000
 10
-47.492939
 20
124.500069
 42
0.000000
 10
-47.492939
 20
123.500069
 42
0.000000
 10
-47.992939
 20
122.500069
 42
0.000000
 10
-47.492939
 20
121.500069
 42
0.000000
 10
-47.492939
 20
120.500069
 42
0.000000
 10
-46.992939
 20
119.500069
 42
0.000000
 10
-47.492939
 20
118.500069
 42
0.000000
 10
-47.492939
 20
117.500069
 42
0.000000
 10
-47.992939
 20
116.500069
 42
0.000000
 10
-47.492939
 20
115.500069
 42
0.000000
 10
-47.492939
 20
114.500069
 42
0.000000
 10
-46.992939
 20
113.500069
 42
0.000000
 10
-47.492939
 20
112.500069
 42
0.000000
 10
-47.492939
 20
111.500069
 42
0.000000
 10
-47.992939
 20
110.500069
 42
0.000000
 10
-47.492939
 20
109.500069
 42
0.000000
 10
-47.492939
 20
108.500069
 42
0.000000
 10
-46.992939
 20
107.500069
 42
0.000000
 10
-47.492939
 20
106.500069
 42
0.000000
 10
-47.492939
 20
105.500069
 42
0.000000
 10
-47.992939
 20
104.500069
 42
0.000000
 10
-47.492939
 20
103.500069
 42
0.000000
 10
-47.492939
 20
102.500069
 42
0.000000
 10
-46.992939
 20
101.500069
 42
0.000000
 10
-47.492939
 20
100.500069
 42
0.000000
 10
-47.492939
 20
99.500069
 42
0.000000
 10
-47.992939
 20
98.500069
 42
0.000000
 10
-47.492939
 20
97.500069
 42
0.000000
 10
-47.492939
 20
96.500069
 42
0.000000
 10
-46.992939
 20
95.500069
 42
0.000000
 10
-47.492939
 20
94.500069
 42
0.000000
 10
-47.492939
 20
93.500069
 42
0.000000
 10
-47.992939
 20
92.500069
 42
0.000000
 10
-47.492939
 20
91.500069
 42
0.000000
 10
-47.492939
 20
90.500069
 42
0.000000
 10
-46.992939
 20
89.500069
 42
0.000000
 10
-47.492939
 20
88.492402
 42
0.000000
 10
-47.492939
 20
87.500069
 42
0.000000
 10
-47.992939
 20
86.500069
 42
0.000000
 10
-47.492939
 20
85.500069
 42
0.000000
 10
-47.492939
 20
84.500069
 42
0.000000
 10
-46.992939
 20
83.500069
 42
0.000000
 10
-47.492939
 20
82.500069
 42
0.000000
 10
-47.492939
 20
81.500069
 42
0.000000
 10
-47.992939
 20
80.500069
 42
0.000000
 10
-47.492939
 20
79.500069
 42
0.000000
 10
-47.492939
 20
78.500069
 42
0.000000
 10
-46.992939
 20
77.500069
 42
0.000000
 10
-47.492939
 20
76.500069
 42
0.000000
 10
-47.492939
 20
75.500069
 42
0.000000
 10
-47.992939
 20
74.500069
 42
0.000000
 10
-47.492939
 20
73.500069
 42
0.000000
 10
-47.492939
 20
72.500069
 42
0.000000
 10
-46.992939
 20
71.500069
 42
0.000000
 10
-47.492939
 20
70.500069
 42
0.000000
 10
-47.492939
 20
69.500069
 42
0.000000
 10
-47.992939
 20
68.500069
 42
0.000000
 10
-47.492939
 20
67.500069
 42
0.000000
 10
-47.492939
 20
66.500069
 42
0.000000
 10
-47.000018
 20
65.485912
 42
0.000000
 10
-47.492939
 20
64.500069
 42
0.000000
 10
-47.492939
 20
63.500069
 42
0.000000
 10
-47.992939
 20
62.500069
 42
0.000000
 10
-47.492939
 20
61.500069
 42
0.000000
 10
-47.492939
 20
60.500069
 42
0.000000
 10
-46.992939
 20
59.500069
 42
0.000000
 10
-47.492939
 20
58.500069
 42
0.000000
 10
-47.492939
 20
57.500069
 42
0.000000
 10
-47.500018
 20
57.500069
 42
0.000000
  0
ENDBLK
  5
5FE
100
AcDbEntity
  8
0
100
AcDbBlockEnd
  0
BLOCK
  5
5FF
100
AcDbEntity
  8
Detail
100
AcDbBlockBegin
  2
B-61
 70
    66
 10
0.000000
 20
0.000000
 30
0.000000
  0
LWPOLYLINE
  5
600
100
AcDbEntity
  8
Detail
  6
CONTINUOUS
 62
     6
100
AcDbPolyline
 90
   240
 10
-47.867944
 20
-196.249941
 42
0.000000
 10
-47.492939
 20
-195.499932
 42
0.000000
 10
-47.492939
 20
-194.499932
 42
0.000000
 10
-46.992939
 20
-193.499932
 42
0.000000
 10
-47.492939
 20
-192.499932
 42
0.000000
 10
-47.492939
 20
-191.499932
 42
0.000000
 10
-47.992939
 20
-190.499932
 42
0.000000
 10
-47.492939
 20
-189.499932
 42
0.000000
 10
-47.492939
 20
-188.499932
 42
0.000000
 10
-46.992939
 20
-187.499932
 42
0.000000
 10
-47.492939
 20
-186.499932
 42
0.000000
 10
-47.492939
 20
-185.499932
 42
0.000000
 10
-47.992939
 20
-184.499932
 42
0.000000
 10
-47.492939
 20
-183.499932
 42
0.000000
 10
-47.492939
 20
-182.499932
 42
0.000000
 10
-46.992939
 20
-181.499932
 42
0.000000
 10
-47.492939
 20
-180.499932
 42
0.000000
 10
-47.492939
 20
-179.499932
 42
0.000000
 10
-47.992939
 20
-178.499932
 42
0.000000
 10
-47.492939
 20
-177.499932
 42
0.000000
 10
-47.492939
 20
-176.499932
 42
0.000000
 10
-46.992939
 20
-175.499932
 42
0.000000
 10
-47.492939
 20
-174.499932
 42
0.000000
 10
-47.492939
 20
-173.499932
 42
0.000000
 10
-47.992939
 20
-172.499932
 42
0.000000
 10
-47.492939
 20
-171.499932
 42
0.000000
 10
-47.492939
 20
-170.499932
 42
0.000000
 10
-46.992939
 20
-169.499932
 42
0.000000
 10
-47.492939
 20
-168.499932
 42
0.000000
 10
-47.492939
 20
-167.499932
 42
0.000000
 10
-47.992939
 20
-166.499932
 42
0.000000
 10
-47.492939
 20
-165.499932
 42
0.000000
 10
-47.492939
 20
-164.499932
 42
0.000000
 10
-46.992939
 20
-163.499932
 42
0.000000
 10
-47.492939
 20
-162.499932
 42
0.000000
 10
-47.492939
 20
-161.499932
 42
0.000000
 10
-47.992939
 20
-160.499932
 42
0.000000
 10
-47.492939
 20
-159.499932
 42
0.000000
 10
-47.488541
 20
-158.491135
 42
0.000000
 10
-46.992939
 20
-157.499932
 42
0.000000
 10
-47.492939
 20
-156.499932
 42
0.000000
 10
-47.492939
 20
-155.499932
 42
0.000000
 10
-47.992939
 20
-154.499932
 42
0.000000
 10
-47.492939
 20
-153.499932
 42
0.000000
 10
-47.492939
 20
-152.499932
 42
0.000000
 10
-46.992939
 20
-151.499932
 42
0.000000
 10
-47.492939
 20
-150.499932
 42
0.000000
 10
-47.492939
 20
-149.499932
 42
0.000000
 10
-47.992939
 20
-148.499932
 42
0.000000
 10
-47.492939
 20
-147.499932
 42
0.000000
 10
-47.492939
 20
-146.499932
 42
0.000000
 10
-46.992939
 20
-145.499932
 42
0.000000
 10
-47.492939
 20
-144.499932
 42
0.000000
 10
-47.492939
 20
-143.499932
 42
0.000000
 10
-47.992939
 20
-142.499932
 42
0.000000
 10
-47.492939
 20
-141.499932
 42
0.000000
 10
-47.492939
 20
-140.499932
 42
0.000000
 10
-46.992939
 20
-139.499932
 42
0.000000
 10
-47.492939
 20
-138.499932
 42
0.000000
 10
-47.492939
 20
-137.499932
 42
0.000000
 10
-47.992939
 20
-136.499932
 42
0.000000
 10
-47.492939
 20
-135.499932
 42
0.000000
 10
-47.492939
 20
-134.499932
 42
0.000000
 10
-46.992939
 20
-133.499932
 42
0.000000
 10
-47.492939
 20
-132.499932
 42
0.000000
 10
-47.492939
 20
-131.499932
 42
0.000000
 10
-47.992939
 20
-130.499932
 42
0.000000
 10
-47.492939
 20
-129.499932
 42
0.000000
 10
-47.492939
 20
-128.499932
 42
0.000000
 10
-46.992939
 20
-127.499932
 42
0.000000
 10
-47.492939
 20
-126.492265
 42
0.000000
 10
-47.492939
 20
-125.499932
 42
0.000000
 10
-47.992939
 20
-124.499932
 42
0.000000
 10
-47.492939
 20
-123.499932
 42
0.000000
 10
-47.492939
 20
-122.499932
 42
0.000000
 10
-46.992939
 20
-121.499932
 42
0.000000
 10
-47.492939
 20
-120.499932
 42
0.000000
 10
-47.492939
 20
-119.499932
 42
0.000000
 10
-47.992939
 20
-118.499932
 42
0.000000
 10
-47.492939
 20
-117.499932
 42
0.000000
 10
-47.492939
 20
-116.499932
 42
0.000000
 10
-46.992939
 20
-115.499932
 42
0.000000
 10
-47.492939
 20
-114.499932
 42
0.000000
 10
-47.492939
 20
-113.499932
 42
0.000000
 10
-47.992939
 20
-112.499932
 42
0.000000
 10
-47.492939
 20
-111.499932
 42
0.000000
 10
-47.492939
 20
-110.499932
 42
0.000000
 10
-46.992939
 20
-109.499932
 42
0.000000
 10
-47.492939
 20
-108.499932
 42
0.000000
 10
-47.492939
 20
-107.499932
 42
0.000000
 10
-47.992939
 20
-106.499932
 42
0.000000
 10
-47.492939
 20
-105.499932
 42
0.000000
 10
-47.492939
 20
-104.499932
 42
0.000000
 10
-46.992939
 20
-103.499932
 42
0.000000
 10
-47.492939
 20
-102.499932
 42
0.000000
 10
-47.492939
 20
-101.499932
 42
0.000000
 10
-47.992939
 20
-100.499932
 42
0.000000
 10
-47.492939
 20
-99.499932
 42
0.000000
 10
-47.492939
 20
-98.499932
 42
0.000000
 10
-46.992939
 20
-97.499932
 42
0.000000
 10
-47.492939
 20
-96.499932
 42
0.000000
 10
-47.492939
 20
-95.499932
 42
0.000000
 10
-47.992939
 20
-94.499932
 42
0.000000
 10
-47.492939
 20
-93.499932
 42
0.000000
 10
-47.492939
 20
-92.499932
 42
0.000000
 10
-46.992939
 20
-91.499932
 42
0.000000
 10
-47.492939
 20
-90.499932
 42
0.000000
 10
-47.492939
 20
-89.499932
 42
0.000000
 10
-47.992939
 20
-88.499932
 42
0.000000
 10
-47.492939
 20
-87.499932
 42
0.000000
 10
-47.492939
 20
-86.499932
 42
0.000000
 10
-46.992939
 20
-85.499932
 42
0.000000
 10
-47.492939
 20
-84.499932
 42
0.000000
 10
-47.492939
 20
-83.499932
 42
0.000000
 10
-47.992939
 20
-82.499932
 42
0.000000
 10
-47.492939
 20
-81.499932
 42
0.000000
 10
-47.492939
 20
-80.499932
 42
0.000000
 10
-46.992939
 20
-79.499932
 42
0.000000
 10
-47.492939
 20
-78.499932
 42
0.000000
 10
-47.492939
 20
-77.499932
 42
0.000000
 10
-47.992939
 20
-76.499932
 42
0.000000
 10
-47.492939
 20
-75.499932
 42
0.000000
 10
-47.492939
 20
-74.499932
 42
0.000000
 10
-46.992939
 20
-73.499932
 42
0.000000
 10
-47.492939
 20
-72.499932
 42
0.000000
 10
-47.492939
 20
-71.499932
 42
0.000000
 10
-47.992939
 20
-70.499932
 42
0.000000
 10
-47.492939
 20
-69.499932
 42
0.000000
 10
-47.492939
 20
-68.499932
 42
0.000000
 10
-46.992939
 20
-67.499932
 42
0.000000
 10
-47.492939
 20
-66.499932
 42
0.000000
 10
-47.492939
 20
-65.499932
 42
0.000000
 10
-47.992939
 20
-64.499932
 42
0.000000
 10
-47.492939
 20
-63.499932
 42
0.000000
 10
-47.492939
 20
-62.499932
 42
0.000000
 10
-46.992939
 20
-61.499932
 42
0.000000
 10
-47.492939
 20
-60.499932
 42
0.000000
 10
-47.492939
 20
-59.499932
 42
0.000000
 10
-47.992939
 20
-58.499932
 42
0.000000
 10
-47.492939
 20
-57.499932
 42
0.000000
 10
-47.492939
 20
-56.499932
 42
0.000000
 10
-46.992939
 20
-55.499932
 42
0.000000
 10
-47.492939
 20
-54.499932
 42
0.000000
 10
-47.492939
 20
-53.499932
 42
0.000000
 10
-47.992939
 20
-52.499932
 42
0.000000
 10
-47.492939
 20
-51.499932
 42
0.000000
 10
-47.492939
 20
-50.499932
 42
0.000000
 10
-46.992939
 20
-49.499932
 42
0.000000
 10
-47.492939
 20
-48.499932
 42
0.000000
 10
-47.492939
 20
-47.499932
 42
0.000000
 10
-47.992939
 20
-46.499932
 42
0.000000
 10
-47.492939
 20
-45.499932
 42
0.000000
 10
-47.492939
 20
-44.499932
 42
0.000000
 10
-46.992939
 20
-43.499932
 42
0.000000
 10
-47.492939
 20
-42.499932
 42
0.000000
 10
-47.492939
 20
-41.499932
 42
0.000000
 10
-47.992939
 20
-40.499932
 42
0.000000
 10
-47.492939
 20
-39.499932
 42
0.000000
 10
-47.492939
 20
-38.499932
 42
0.000000
 10
-46.992939
 20
-37.499932
 42
0.000000
 10
-47.492939
 20
-36.499932
 42
0.000000
 10
-47.492939
 20
-35.499932
 42
0.000000
 10
-47.992939
 20
-34.499932
 42
0.000000
 10
-47.492939
 20
-33.499932
 42
0.000000
 10
-47.492939
 20
-32.499932
 42
0.000000
 10
-46.992939
 20
-31.499932
 42
0.000000
 10
-47.492939
 20
-30.499932
 42
0.000000
 10
-47.492939
 20
-29.499932
 42
0.000000
 10
-47.992939
 20
-28.499932
 42
0.000000
 10
-47.492939
 20
-27.499932
 42
0.000000
 10
-47.492939
 20
-26.499932
 42
0.000000
 10
-46.992939
 20
-25.499932
 42
0.000000
 10
-47.492939
 20
-24.499932
 42
0.000000
 10
-47.492939
 20
-23.499932
 42
0.000000
 10
-47.992939
 20
-22.499932
 42
0.000000
 10
-47.492939
 20
-21.499932
 42
0.000000
 10
-47.492939
 20
-20.499932
 42
0.000000
 10
-46.992939
 20
-19.499932
 42
0.000000
 10
-47.492939
 20
-18.499932
 42
0.000000
 10
-47.492939
 20
-17.499932
 42
0.000000
 10
-47.992939
 20
-16.499932
 42
0.000000
 10
-47.492939
 20
-15.499932
 42
0.000000
 10
-47.492939
 20
-14.499932
 42
0.000000
 10
-46.992939
 20
-13.499932
 42
0.000000
 10
-47.492939
 20
-12.499932
 42
0.000000
 10
-47.492939
 20
-11.499932
 42
0.000000
 10
-47.992939
 20
-10.499932
 42
0.000000
 10
-47.492939
 20
-9.499932
 42
0.000000
 10
-47.492939
 20
-8.499932
 42
0.000000
 10
-46.992939
 20
-7.499932
 42
0.000000
 10
-47.492939
 20
-6.499932
 42
0.000000
 10
-47.492939
 20
-5.499932
 42
0.000000
 10
-47.992939
 20
-4.499932
 42
0.000000
 10
-47.492939
 20
-3.499932
 42
0.000000
 10
-47.492939
 20
-2.499932
 42
0.000000
 10
-46.992939
 20
-1.499932
 42
0.000000
 10
-47.492939
 20
-0.499932
 42
0.000000
 10
-47.492939
 20
0.500068
 42
0.000000
 10
-47.992939
 20
1.500068
 42
0.000000
 10
-47.492939
 20
2.500068
 42
0.000000
 10
-47.492939
 20
3.500068
 42
0.000000
 10
-46.992939
 20
4.500068
 42
0.000000
 10
-47.492939
 20
5.500068
 42
0.000000
 10
-47.492939
 20
6.500068
 42
0.000000
 10
-47.992939
 20
7.500068
 42
0.000000
 10
-47.492939
 20
8.500068
 42
0.000000
 10
-47.492939
 20
9.500068
 42
0.000000
 10
-46.992939
 20
10.500068
 42
0.000000
 10
-47.492939
 20
11.507735
 42
0.000000
 10
-47.492939
 20
12.500068
 42
0.000000
 10
-47.992939
 20
13.500068
 42
0.000000
 10
-47.492939
 20
14.500068
 42
0.000000
 10
-47.492939
 20
15.500068
 42
0.000000
 10
-46.992939
 20
16.500068
 42
0.000000
 10
-47.492939
 20
17.500068
 42
0.000000
 10
-47.492939
 20
18.500068
 42
0.000000
 10
-47.992939
 20
19.500068
 42
0.000000
 10
-47.492939
 20
20.500068
 42
0.000000
 10
-47.492939
 20
21.500068
 42
0.000000
 10
-46.992939
 20
22.500068
 42
0.000000
 10
-47.492939
 20
23.500068
 42
0.000000
 10
-47.492939
 20
24.500068
 42
0.000000
 10
-47.992939
 20
25.500068
 42
0.000000
 10
-47.492939
 20
26.500068
 42
0.000000
 10
-47.492939
 20
27.500068
 42
0.000000
 10
-46.992939
 20
28.500068
 42
0.000000
 10
-47.492939
 20
29.500068
 42
0.000000
 10
-47.492939
 20
30.500068
 42
0.000000
 10
-47.992939
 20
31.500068
 42
0.000000
 10
-47.492939
 20
32.500068
 42
0.000000
 10
-47.492939
 20
33.500068
 42
0.000000
 10
-47.000018
 20
34.514225
 42
0.000000
 10
-47.492939
 20
35.500068
 42
0.000000
 10
-47.492939
 20
36.500068
 42
0.000000
 10
-47.992939
 20
37.500068
 42
0.000000
 10
-47.492939
 20
38.500068
 42
0.000000
 10
-47.492939
 20
39.500068
 42
0.000000
 10
-46.992939
 20
40.500068
 42
0.000000
 10
-47.492939
 20
41.500068
 42
0.000000
 10
-47.492939
 20
42.500068
 42
0.000000
  0
ENDBLK
  5
6F1
100
AcDbEntity
  8
0
100
AcDbBlockEnd
  0
BLOCK
  5
6F2
100
AcDbEntity
  8
Detail
100
AcDbBlockBegin
  2
B-62
 70
    66
 10
0.000000
 20
0.000000
 30
0.000000
  0
LWPOLYLINE
  5
6F3
100
AcDbEntity
  8
Detail
  6
CONTINUOUS
 62
     9
100
AcDbPolyline
 90
     2
 10
-116.000018
 20
-92.999882
 42
0.000000
 10
-116.000018
 20
-106.979294
 42
0.000000
  0
LWPOLYLINE
  5
6F6
100
AcDbEntity
  8
Detail
  6
CONTINUOUS
 62
     9
100
AcDbPolyline
 90
    83
 10
-87.500018
 20
-129.999882
 42
0.000000
 10
-87.000018
 20
-129.999882
 42
0.000000
 10
-86.000018
 20
-124.999882
 42
0.000000
 10
-86.000018
 20
-74.999882
 42
0.000000
 10
-87.000018
 20
-69.999882
 42
0.000000
 10
-87.500018
 20
-69.999882
 42
0.000000
 10
-87.500018
 20
-86.999882
 42
0.000000
 10
-88.750018
 20
-90.749882
 42
0.000000
 10
-92.500018
 20
-91.999882
 42
0.000000
 10
-116.000018
 20
-92.999882
 42
0.000000
 10
-122.000018
 20
-95.499882
 42
0.000000
 10
-164.462215
 20
-96.039882
 42
0.000000
 10
-165.828158
 20
-96.286891
 42
0.000000
 10
-165.903911
 20
-96.039882
 42
0.000000
 10
-168.686215
 20
-96.039882
 42
0.000000
 10
-170.052158
 20
-96.286891
 42
0.000000
 10
-170.127911
 20
-96.039882
 42
0.000000
 10
-172.910215
 20
-96.039882
 42
0.000000
 10
-174.276158
 20
-96.286891
 42
0.000000
 10
-174.351827
 20
-96.044682
 42
0.000000
 10
-177.134215
 20
-96.039882
 42
0.000000
 10
-178.500158
 20
-96.286891
 42
0.000000
 10
-178.575911
 20
-96.039882
 42
0.000000
 10
-181.358215
 20
-96.039882
 42
0.000000
 10
-182.724158
 20
-96.286891
 42
0.000000
 10
-182.799911
 20
-96.039882
 42
0.000000
 10
-185.582215
 20
-96.039882
 42
0.000000
 10
-186.948158
 20
-96.286891
 42
0.000000
 10
-187.023911
 20
-96.039882
 42
0.000000
 10
-189.806215
 20
-96.039882
 42
0.000000
 10
-191.172158
 20
-96.286891
 42
0.000000
 10
-191.247911
 20
-96.039882
 42
0.000000
 10
-194.030215
 20
-96.039882
 42
0.000000
 10
-195.396158
 20
-96.286891
 42
0.000000
 10
-195.471911
 20
-96.039882
 42
0.000000
 10
-198.254215
 20
-96.039882
 42
0.000000
 10
-199.458372
 20
-96.322314
 42
0.000000
 10
-199.917355
 20
-96.159882
 42
0.000000
 10
-200.894215
 20
-96.594138
 42
0.000000
 10
-201.134215
 20
-97.119882
 42
0.000000
 10
-201.902215
 20
-97.119882
 42
0.000000
 10
-203.420108
 20
-97.660850
 42
0.000000
 10
-204.253725
 20
-99.039882
 42
0.000000
 10
-206.000018
 20
-99.999882
 42
0.000000
 10
-204.253725
 20
-100.959882
 42
0.000000
 10
-203.420108
 20
-102.338914
 42
0.000000
 10
-202.157414
 20
-102.866275
 42
0.000000
 10
-201.134215
 20
-102.879882
 42
0.000000
 10
-200.894215
 20
-103.405625
 42
0.000000
 10
-200.142059
 20
-103.839882
 42
0.000000
 10
-199.692646
 20
-103.839882
 42
0.000000
 10
-199.458372
 20
-103.677449
 42
0.000000
 10
-198.254215
 20
-103.959882
 42
0.000000
 10
-195.471911
 20
-103.959882
 42
0.000000
 10
-195.396158
 20
-103.712872
 42
0.000000
 10
-194.030215
 20
-103.959882
 42
0.000000
 10
-191.247911
 20
-103.959882
 42
0.000000
 10
-191.172158
 20
-103.712872
 42
0.000000
 10
-189.806215
 20
-103.959882
 42
0.000000
 10
-187.023911
 20
-103.959882
 42
0.000000
 10
-186.948158
 20
-103.712872
 42
0.000000
 10
-185.582215
 20
-103.959882
 42
0.000000
 10
-182.799911
 20
-103.959882
 42
0.000000
 10
-182.724158
 20
-103.712872
 42
0.000000
 10
-181.358215
 20
-103.959882
 42
0.000000
 10
-178.575911
 20
-103.959882
 42
0.000000
 10
-178.500158
 20
-103.712872
 42
0.000000
 10
-177.134215
 20
-103.959882
 42
0.000000
 10
-174.351827
 20
-103.955082
 42
0.000000
 10
-174.276158
 20
-103.712872
 42
0.000000
 10
-172.910215
 20
-103.959882
 42
0.000000
 10
-170.127911
 20
-103.959882
 42
0.000000
 10
-170.052158
 20
-103.712872
 42
0.000000
 10
-168.686215
 20
-103.959882
 42
0.000000
 10
-165.903911
 20
-103.959882
 42
0.000000
 10
-165.828158
 20
-103.712872
 42
0.000000
 10
-164.462215
 20
-103.959882
 42
0.000000
 10
-122.000018
 20
-104.499882
 42
0.000000
 10
-116.000018
 20
-106.999882
 42
0.000000
 10
-92.500018
 20
-107.999882
 42
0.000000
 10
-88.750018
 20
-109.249882
 42
0.000000
 10
-87.500018
 20
-112.999882
 42
0.000000
 10
-87.500018
 20
-129.999882
 42
0.000000
  0
LWPOLYLINE
  5
74A
100
AcDbEntity
  8
Detail
  6
CONTINUOUS
 62
     9
100
AcDbPolyline
 90
   203
 10
-206.000018
 20
-99.999882
 42
0.000000
 10
-203.886942
 20
-99.124617
 42
0.000000
 10
-203.385367
 20
-98.255863
 42
0.000000
 10
-202.996692
 20
-98.755863
 42
0.000000
 10
-201.916355
 20
-98.308373
 42
0.000000
 10
-201.414780
 20
-97.439619
 42
0.000000
 10
-201.026105
 20
-97.939619
 42
0.000000
 10
-200.447328
 20
-97.699882
 42
0.000000
 10
-199.846289
 20
-97.699882
 42
0.000000
 10
-199.557614
 20
-97.199882
 42
0.000000
 10
-199.168939
 20
-97.699882
 42
0.000000
 10
-198.036289
 20
-97.699882
 42
0.000000
 10
-197.747614
 20
-97.199882
 42
0.000000
 10
-197.358939
 20
-97.699882
 42
0.000000
 10
-196.226289
 20
-97.699882
 42
0.000000
 10
-195.937614
 20
-97.199882
 42
0.000000
 10
-195.548939
 20
-97.699882
 42
0.000000
 10
-194.416289
 20
-97.699882
 42
0.000000
 10
-194.127614
 20
-97.199882
 42
0.000000
 10
-193.738939
 20
-97.699882
 42
0.000000
 10
-192.606289
 20
-97.699882
 42
0.000000
 10
-192.317614
 20
-97.199882
 42
0.000000
 10
-191.928939
 20
-97.699882
 42
0.000000
 10
-190.796289
 20
-97.699882
 42
0.000000
 10
-190.507614
 20
-97.199882
 42
0.000000
 10
-190.118939
 20
-97.699882
 42
0.000000
 10
-188.986289
 20
-97.699882
 42
0.000000
 10
-188.697614
 20
-97.199882
 42
0.000000
 10
-188.308939
 20
-97.699882
 42
0.000000
 10
-187.176289
 20
-97.699882
 42
0.000000
 10
-186.887614
 20
-97.199882
 42
0.000000
 10
-186.498939
 20
-97.699882
 42
0.000000
 10
-185.366289
 20
-97.699882
 42
0.000000
 10
-185.077614
 20
-97.199882
 42
0.000000
 10
-184.688939
 20
-97.699882
 42
0.000000
 10
-183.556289
 20
-97.699882
 42
0.000000
 10
-183.267614
 20
-97.199882
 42
0.000000
 10
-182.878939
 20
-97.699882
 42
0.000000
 10
-181.746289
 20
-97.699882
 42
0.000000
 10
-181.457614
 20
-97.199882
 42
0.000000
 10
-181.068939
 20
-97.699882
 42
0.000000
 10
-179.936289
 20
-97.699882
 42
0.000000
 10
-179.647614
 20
-97.199882
 42
0.000000
 10
-179.258939
 20
-97.699882
 42
0.000000
 10
-178.126289
 20
-97.699882
 42
0.000000
 10
-177.837614
 20
-97.199882
 42
0.000000
 10
-177.448939
 20
-97.699882
 42
0.000000
 10
-176.316289
 20
-97.699882
 42
0.000000
 10
-176.027614
 20
-97.199882
 42
0.000000
 10
-175.638939
 20
-97.699882
 42
0.000000
 10
-174.506289
 20
-97.699882
 42
0.000000
 10
-174.217614
 20
-97.199882
 42
0.000000
 10
-173.828939
 20
-97.699882
 42
0.000000
 10
-172.696289
 20
-97.699882
 42
0.000000
 10
-172.407614
 20
-97.199882
 42
0.000000
 10
-172.018939
 20
-97.699882
 42
0.000000
 10
-170.886289
 20
-97.699882
 42
0.000000
 10
-170.597614
 20
-97.199882
 42
0.000000
 10
-170.186425
 20
-97.699882
 42
0.000000
 10
-169.076289
 20
-97.699882
 42
0.000000
 10
-168.787614
 20
-97.199882
 42
0.000000
 10
-168.398939
 20
-97.699882
 42
0.000000
 10
-167.266289
 20
-97.699882
 42
0.000000
 10
-166.977614
 20
-97.199882
 42
0.000000
 10
-166.588939
 20
-97.699882
 42
0.000000
 10
-165.456289
 20
-97.699882
 42
0.000000
 10
-165.167614
 20
-97.199882
 42
0.000000
 10
-164.778939
 20
-97.699882
 42
0.000000
 10
-163.646289
 20
-97.699882
 42
0.000000
 10
-163.357614
 20
-97.199882
 42
0.000000
 10
-162.968939
 20
-97.699882
 42
0.000000
 10
-161.836289
 20
-97.699882
 42
0.000000
 10
-161.547614
 20
-97.199882
 42
0.000000
 10
-161.158939
 20
-97.699882
 42
0.000000
 10
-160.026289
 20
-97.699882
 42
0.000000
 10
-159.737614
 20
-97.199882
 42
0.000000
 10
-159.348939
 20
-97.699882
 42
0.000000
 10
-158.216289
 20
-97.699882
 42
0.000000
 10
-157.927614
 20
-97.199882
 42
0.000000
 10
-157.538939
 20
-97.699882
 42
0.000000
 10
-156.406289
 20
-97.699882
 42
0.000000
 10
-156.117614
 20
-97.199882
 42
0.000000
 10
-155.728939
 20
-97.699882
 42
0.000000
 10
-154.596289
 20
-97.699882
 42
0.000000
 10
-154.307614
 20
-97.199882
 42
0.000000
 10
-153.918939
 20
-97.699882
 42
0.000000
 10
-152.786289
 20
-97.699882
 42
0.000000
 10
-152.497614
 20
-97.199882
 42
0.000000
 10
-152.108939
 20
-97.699882
 42
0.000000
 10
-150.976289
 20
-97.699882
 42
0.000000
 10
-150.687614
 20
-97.199882
 42
0.000000
 10
-150.298939
 20
-97.699882
 42
0.000000
 10
-149.166289
 20
-97.699882
 42
0.000000
 10
-148.877614
 20
-97.199882
 42
0.000000
 10
-148.488939
 20
-97.699882
 42
0.000000
 10
-147.356289
 20
-97.699882
 42
0.000000
 10
-147.067614
 20
-97.199882
 42
0.000000
 10
-146.678939
 20
-97.699882
 42
0.000000
 10
-146.000018
 20
-97.699882
 42
0.000000
 10
-145.826813
 20
-97.599882
 42
0.000000
 10
-122.000018
 20
-95.499882
 42
0.000000
 10
-122.000018
 20
-104.499882
 42
0.000000
 10
-145.826813
 20
-102.399882
 42
0.000000
 10
-146.000018
 20
-102.299882
 42
0.000000
 10
-146.162614
 20
-102.799882
 42
0.000000
 10
-146.451289
 20
-102.299882
 42
0.000000
 10
-147.583939
 20
-102.299882
 42
0.000000
 10
-147.972614
 20
-102.799882
 42
0.000000
 10
-148.261289
 20
-102.299882
 42
0.000000
 10
-149.393939
 20
-102.299882
 42
0.000000
 10
-149.782614
 20
-102.799882
 42
0.000000
 10
-150.071289
 20
-102.299882
 42
0.000000
 10
-151.203939
 20
-102.299882
 42
0.000000
 10
-151.592614
 20
-102.799882
 42
0.000000
 10
-151.881289
 20
-102.299882
 42
0.000000
 10
-153.013939
 20
-102.299882
 42
0.000000
 10
-153.402614
 20
-102.799882
 42
0.000000
 10
-153.691289
 20
-102.299882
 42
0.000000
 10
-154.823939
 20
-102.299882
 42
0.000000
 10
-155.212614
 20
-102.799882
 42
0.000000
 10
-155.501289
 20
-102.299882
 42
0.000000
 10
-156.633939
 20
-102.299882
 42
0.000000
 10
-157.022614
 20
-102.799882
 42
0.000000
 10
-157.311289
 20
-102.299882
 42
0.000000
 10
-158.443939
 20
-102.299882
 42
0.000000
 10
-158.832614
 20
-102.799882
 42
0.000000
 10
-159.121289
 20
-102.299882
 42
0.000000
 10
-160.253939
 20
-102.299882
 42
0.000000
 10
-160.642614
 20
-102.799882
 42
0.000000
 10
-160.931289
 20
-102.299882
 42
0.000000
 10
-162.063939
 20
-102.299882
 42
0.000000
 10
-162.452614
 20
-102.799882
 42
0.000000
 10
-162.741289
 20
-102.299882
 42
0.000000
 10
-163.873939
 20
-102.299882
 42
0.000000
 10
-164.262614
 20
-102.799882
 42
0.000000
 10
-164.551289
 20
-102.299882
 42
0.000000
 10
-165.683939
 20
-102.299882
 42
0.000000
 10
-166.072614
 20
-102.799882
 42
0.000000
 10
-166.361289
 20
-102.299882
 42
0.000000
 10
-167.493939
 20
-102.299882
 42
0.000000
 10
-167.882614
 20
-102.799882
 42
0.000000
 10
-168.171289
 20
-102.299882
 42
0.000000
 10
-169.303939
 20
-102.299882
 42
0.000000
 10
-169.692614
 20
-102.799882
 42
0.000000
 10
-169.981289
 20
-102.299882
 42
0.000000
 10
-171.113939
 20
-102.299882
 42
0.000000
 10
-171.502614
 20
-102.799882
 42
0.000000
 10
-171.791289
 20
-102.299882
 42
0.000000
 10
-172.923939
 20
-102.299882
 42
0.000000
 10
-173.312614
 20
-102.799882
 42
0.000000
 10
-173.601289
 20
-102.299882
 42
0.000000
 10
-174.733939
 20
-102.299882
 42
0.000000
 10
-175.122614
 20
-102.799882
 42
0.000000
 10
-175.411289
 20
-102.299882
 42
0.000000
 10
-176.543939
 20
-102.299882
 42
0.000000
 10
-176.932614
 20
-102.799882
 42
0.000000
 10
-177.221289
 20
-102.299882
 42
0.000000
 10
-178.353939
 20
-102.299882
 42
0.000000
 10
-178.742614
 20
-102.799882
 42
0.000000
 10
-179.031289
 20
-102.299882
 42
0.000000
 10
-180.163939
 20
-102.299882
 42
0.000000
 10
-180.552614
 20
-102.799882
 42
0.000000
 10
-180.841289
 20
-102.299882
 42
0.000000
 10
-181.973939
 20
-102.299882
 42
0.000000
 10
-182.362614
 20
-102.799882
 42
0.000000
 10
-182.651289
 20
-102.299882
 42
0.000000
 10
-183.783939
 20
-102.299882
 42
0.000000
 10
-184.172614
 20
-102.799882
 42
0.000000
 10
-184.461289
 20
-102.299882
 42
0.000000
 10
-185.593939
 20
-102.299882
 42
0.000000
 10
-185.982614
 20
-102.799882
 42
0.000000
 10
-186.271289
 20
-102.299882
 42
0.000000
 10
-187.403939
 20
-102.299882
 42
0.000000
 10
-187.792614
 20
-102.799882
 42
0.000000
 10
-188.081289
 20
-102.299882
 42
0.000000
 10
-189.213939
 20
-102.299882
 42
0.000000
 10
-189.602614
 20
-102.799882
 42
0.000000
 10
-189.891289
 20
-102.299882
 42
0.000000
 10
-191.023939
 20
-102.299882
 42
0.000000
 10
-191.412614
 20
-102.799882
 42
0.000000
 10
-191.701289
 20
-102.299882
 42
0.000000
 10
-192.833939
 20
-102.299882
 42
0.000000
 10
-193.222614
 20
-102.799882
 42
0.000000
 10
-193.511289
 20
-102.299882
 42
0.000000
 10
-194.643939
 20
-102.299882
 42
0.000000
 10
-195.032614
 20
-102.799882
 42
0.000000
 10
-195.321289
 20
-102.299882
 42
0.000000
 10
-196.453939
 20
-102.299882
 42
0.000000
 10
-196.842614
 20
-102.799882
 42
0.000000
 10
-197.131289
 20
-102.299882
 42
0.000000
 10
-198.263939
 20
-102.299882
 42
0.000000
 10
-198.652614
 20
-102.799882
 42
0.000000
 10
-198.941289
 20
-102.299882
 42
0.000000
 10
-200.073939
 20
-102.299882
 42
0.000000
 10
-200.462614
 20
-102.799882
 42
0.000000
 10
-200.846829
 20
-102.134402
 42
0.000000
 10
-201.775689
 20
-101.749656
 42
0.000000
 10
-202.164364
 20
-102.249656
 42
0.000000
 10
-202.665938
 20
-101.380902
 42
0.000000
 10
-203.449302
 20
-101.056423
 42
0.000000
 10
-203.837977
 20
-101.556423
 42
0.000000
 10
-204.339552
 20
-100.687669
 42
0.000000
 10
-206.000018
 20
-99.999882
 42
0.000000
  0
ENDBLK
  5
816
100
AcDbEntity
  8
0
100
AcDbBlockEnd
  0
BLOCK
  5
817
100
AcDbEntity
  8
Detail
100
AcDbBlockBegin
  2
B-64
 70
    66
 10
0.000000
 20
0.000000
 30
0.000000
  0
LWPOLYLINE
  5
818
100
AcDbEntity
  8
Detail
  6
CONTINUOUS
 62
     3
100
AcDbPolyline
 90
     5
 10
-67.500018
 20
-69.999882
 42
0.000000
 10
-87.500018
 20
-69.999882
 42
0.000000
 10
-87.500018
 20
-129.999882
 42
0.000000
 10
-67.500018
 20
-129.999882
 42
0.000000
 10
-67.500018
 20
-69.999882
 42
0.000000
  0
ENDBLK
  5
81E
100
AcDbEntity
  8
0
100
AcDbBlockEnd
  0
BLOCK
  5
81F
100
AcDbEntity
  8
Detail
100
AcDbBlockBegin
  2
B-65
 70
    66
 10
0.000000
 20
0.000000
 30
0.000000
  0
MTEXT
  5
820
100
AcDbEntity
  8
Detail
 62
     7
100
AcDbMText
 10
79.375022
 20
122.500130
 30
0.000000
 40
4.999987
 41
82.372286
 71
     7
 72
     5
  1
Verdübelung versenkt mit
  7
Arial
 50
0.000000
  0
MTEXT
  5
821
100
AcDbEntity
  8
Detail
 62
     7
100
AcDbMText
 10
79.375022
 20
115.000149
 30
0.000000
 40
4.999987
 41
82.634785
 71
     7
 72
     5
  1
Thermorondell abgedeckt
  7
Arial
 50
0.000000
  0
ENDBLK
  5
822
100
AcDbEntity
  8
0
100
AcDbBlockEnd
  0
BLOCK
  5
823
100
AcDbEntity
  8
SCHRAFF
100
AcDbBlockBegin
  2
B-66
 70
    66
 10
0.000000
 20
0.000000
 30
0.000000
  0
LWPOLYLINE
  5
824
100
AcDbEntity
  8
SCHRAFF
  6
CONTINUOUS
 62
     9
100
AcDbPolyline
 90
    15
 10
-150.500018
 20
57.500069
 42
-0.198912
 10
-148.132471
 20
56.519400
 42
-0.198913
 10
-147.151800
 20
54.151852
 42
-0.101419
 10
-147.421731
 20
52.834770
 42
0.000000
 10
-150.149501
 20
47.339711
 42
0.115931
 10
-150.500018
 20
45.848284
 42
0.198913
 10
-149.519347
 20
43.480737
 42
0.198912
 10
-147.151799
 20
42.500069
 42
0.198912
 10
-144.784255
 20
43.480740
 42
0.198912
 10
-143.803587
 20
45.848284
 42
0.115931
 10
-144.154104
 20
47.339711
 42
0.000000
 10
-146.801284
 20
52.660430
 42
-0.115931
 10
-147.151799
 20
54.151852
 42
-0.198912
 10
-146.171130
 20
56.519397
 42
-0.198912
 10
-143.803586
 20
57.500066
 42
0.000000
  0
LWPOLYLINE
  5
834
100
AcDbEntity
  8
SCHRAFF
  6
CONTINUOUS
 62
     9
100
AcDbPolyline
 90
    15
 10
-143.803586
 20
57.500069
 42
-0.198912
 10
-141.436039
 20
56.519400
 42
-0.198913
 10
-140.455369
 20
54.151852
 42
-0.101419
 10
-140.725299
 20
52.834770
 42
0.000000
 10
-143.453069
 20
47.339711
 42
0.115931
 10
-143.803586
 20
45.848284
 42
0.198913
 10
-142.822915
 20
43.480737
 42
0.198912
 10
-140.455368
 20
42.500069
 42
0.198912
 10
-138.087823
 20
43.480740
 42
0.198912
 10
-137.107155
 20
45.848284
 42
0.115931
 10
-137.457673
 20
47.339711
 42
0.000000
 10
-140.104853
 20
52.660430
 42
-0.115931
 10
-140.455368
 20
54.151852
 42
-0.198912
 10
-139.474698
 20
56.519397
 42
-0.198912
 10
-137.107155
 20
57.500066
 42
0.000000
  0
LWPOLYLINE
  5
844
100
AcDbEntity
  8
SCHRAFF
  6
CONTINUOUS
 62
     9
100
AcDbPolyline
 90
    15
 10
-137.107154
 20
57.500069
 42
-0.198912
 10
-134.739608
 20
56.519400
 42
-0.198913
 10
-133.758937
 20
54.151852
 42
-0.101419
 10
-134.028868
 20
52.834770
 42
0.000000
 10
-136.756637
 20
47.339711
 42
0.115931
 10
-137.107155
 20
45.848284
 42
0.198913
 10
-136.126483
 20
43.480737
 42
0.198912
 10
-133.758936
 20
42.500069
 42
0.198912
 10
-131.391392
 20
43.480740
 42
0.198912
 10
-130.410724
 20
45.848284
 42
0.115931
 10
-130.761241
 20
47.339711
 42
0.000000
 10
-133.408421
 20
52.660430
 42
-0.115931
 10
-133.758936
 20
54.151852
 42
-0.198912
 10
-132.778266
 20
56.519397
 42
-0.198912
 10
-130.410723
 20
57.500066
 42
0.000000
  0
LWPOLYLINE
  5
854
100
AcDbEntity
  8
SCHRAFF
  6
CONTINUOUS
 62
     9
100
AcDbPolyline
 90
    15
 10
-130.410723
 20
57.500069
 42
-0.198912
 10
-128.043176
 20
56.519400
 42
-0.198913
 10
-127.062505
 20
54.151852
 42
-0.101419
 10
-127.332436
 20
52.834770
 42
0.000000
 10
-130.060206
 20
47.339711
 42
0.115931
 10
-130.410723
 20
45.848284
 42
0.198913
 10
-129.430052
 20
43.480737
 42
0.198912
 10
-127.062504
 20
42.500069
 42
0.198912
 10
-124.694960
 20
43.480740
 42
0.198912
 10
-123.714292
 20
45.848284
 42
0.115931
 10
-124.064809
 20
47.339711
 42
0.000000
 10
-126.711989
 20
52.660430
 42
-0.115931
 10
-127.062504
 20
54.151852
 42
-0.198912
 10
-126.081835
 20
56.519397
 42
-0.198912
 10
-123.714291
 20
57.500066
 42
0.000000
  0
LWPOLYLINE
  5
864
100
AcDbEntity
  8
SCHRAFF
  6
CONTINUOUS
 62
     9
100
AcDbPolyline
 90
    15
 10
-123.714291
 20
57.500069
 42
-0.198912
 10
-121.346745
 20
56.519400
 42
-0.198913
 10
-120.366074
 20
54.151852
 42
-0.101419
 10
-120.636005
 20
52.834770
 42
0.000000
 10
-123.363774
 20
47.339711
 42
0.115931
 10
-123.714291
 20
45.848284
 42
0.198913
 10
-122.733620
 20
43.480737
 42
0.198912
 10
-120.366073
 20
42.500069
 42
0.198912
 10
-117.998528
 20
43.480740
 42
0.198912
 10
-117.017860
 20
45.848284
 42
0.115931
 10
-117.368378
 20
47.339711
 42
0.000000
 10
-120.015558
 20
52.660430
 42
-0.115931
 10
-120.366073
 20
54.151852
 42
-0.198912
 10
-119.385403
 20
56.519397
 42
-0.198912
 10
-117.017860
 20
57.500066
 42
0.000000
  0
LWPOLYLINE
  5
874
100
AcDbEntity
  8
SCHRAFF
  6
CONTINUOUS
 62
     9
100
AcDbPolyline
 90
    15
 10
-117.017860
 20
57.500069
 42
-0.198912
 10
-114.650313
 20
56.519400
 42
-0.198913
 10
-113.669642
 20
54.151852
 42
-0.101419
 10
-113.939573
 20
52.834770
 42
0.000000
 10
-116.667342
 20
47.339711
 42
0.115931
 10
-117.017860
 20
45.848284
 42
0.198913
 10
-116.037189
 20
43.480737
 42
0.198912
 10
-113.669641
 20
42.500069
 42
0.198912
 10
-111.302097
 20
43.480740
 42
0.198912
 10
-110.321429
 20
45.848284
 42
0.115931
 10
-110.671946
 20
47.339711
 42
0.000000
 10
-113.319126
 20
52.660430
 42
-0.115931
 10
-113.669641
 20
54.151852
 42
-0.198912
 10
-112.688971
 20
56.519397
 42
-0.198912
 10
-110.321428
 20
57.500066
 42
0.000000
  0
LWPOLYLINE
  5
884
100
AcDbEntity
  8
SCHRAFF
  6
CONTINUOUS
 62
     9
100
AcDbPolyline
 90
    15
 10
-110.321428
 20
57.500069
 42
-0.198912
 10
-107.953881
 20
56.519400
 42
-0.198913
 10
-106.973211
 20
54.151852
 42
-0.101419
 10
-107.243141
 20
52.834770
 42
0.000000
 10
-109.970911
 20
47.339711
 42
0.115931
 10
-110.321428
 20
45.848284
 42
0.198913
 10
-109.340757
 20
43.480737
 42
0.198912
 10
-106.973209
 20
42.500069
 42
0.198912
 10
-104.605665
 20
43.480740
 42
0.198912
 10
-103.624997
 20
45.848284
 42
0.115931
 10
-103.975514
 20
47.339711
 42
0.000000
 10
-106.622694
 20
52.660430
 42
-0.115931
 10
-106.973209
 20
54.151852
 42
-0.198912
 10
-105.992540
 20
56.519397
 42
-0.198912
 10
-103.624996
 20
57.500066
 42
0.000000
  0
LWPOLYLINE
  5
894
100
AcDbEntity
  8
SCHRAFF
  6
CONTINUOUS
 62
     9
100
AcDbPolyline
 90
    15
 10
-103.624996
 20
57.500069
 42
-0.198912
 10
-101.257450
 20
56.519400
 42
-0.198913
 10
-100.276779
 20
54.151852
 42
-0.101419
 10
-100.546710
 20
52.834770
 42
0.000000
 10
-103.274479
 20
47.339711
 42
0.115931
 10
-103.624996
 20
45.848284
 42
0.198913
 10
-102.644325
 20
43.480737
 42
0.198912
 10
-100.276778
 20
42.500069
 42
0.198912
 10
-97.909233
 20
43.480740
 42
0.198912
 10
-96.928565
 20
45.848284
 42
0.115931
 10
-97.279083
 20
47.339711
 42
0.000000
 10
-99.926263
 20
52.660430
 42
-0.115931
 10
-100.276778
 20
54.151852
 42
-0.198912
 10
-99.296108
 20
56.519397
 42
-0.198912
 10
-96.928565
 20
57.500066
 42
0.000000
  0
LWPOLYLINE
  5
8A4
100
AcDbEntity
  8
SCHRAFF
  6
CONTINUOUS
 62
     9
100
AcDbPolyline
 90
    15
 10
-96.928565
 20
57.500069
 42
-0.198912
 10
-94.561018
 20
56.519400
 42
-0.198913
 10
-93.580347
 20
54.151852
 42
-0.101419
 10
-93.850278
 20
52.834770
 42
0.000000
 10
-96.578047
 20
47.339711
 42
0.115931
 10
-96.928565
 20
45.848284
 42
0.198913
 10
-95.947894
 20
43.480737
 42
0.198912
 10
-93.580346
 20
42.500069
 42
0.198912
 10
-91.212802
 20
43.480740
 42
0.198912
 10
-90.232134
 20
45.848284
 42
0.115931
 10
-90.582651
 20
47.339711
 42
0.000000
 10
-93.229831
 20
52.660430
 42
-0.115931
 10
-93.580346
 20
54.151852
 42
-0.198912
 10
-92.599676
 20
56.519397
 42
-0.198912
 10
-90.232133
 20
57.500066
 42
0.000000
  0
LWPOLYLINE
  5
8B4
100
AcDbEntity
  8
SCHRAFF
  6
CONTINUOUS
 62
     9
100
AcDbPolyline
 90
    15
 10
-90.232133
 20
57.500069
 42
-0.198912
 10
-87.864586
 20
56.519400
 42
-0.198913
 10
-86.883916
 20
54.151852
 42
-0.101419
 10
-87.153846
 20
52.834770
 42
0.000000
 10
-89.881616
 20
47.339711
 42
0.115931
 10
-90.232133
 20
45.848284
 42
0.198913
 10
-89.251462
 20
43.480737
 42
0.198912
 10
-86.883914
 20
42.500069
 42
0.198912
 10
-84.516370
 20
43.480740
 42
0.198912
 10
-83.535702
 20
45.848284
 42
0.115931
 10
-83.886219
 20
47.339711
 42
0.000000
 10
-86.533400
 20
52.660430
 42
-0.115931
 10
-86.883914
 20
54.151852
 42
-0.198912
 10
-85.903245
 20
56.519397
 42
-0.198912
 10
-83.535702
 20
57.500066
 42
0.000000
  0
LWPOLYLINE
  5
8C4
100
AcDbEntity
  8
SCHRAFF
  6
CONTINUOUS
 62
     9
100
AcDbPolyline
 90
    10
 10
-83.535701
 20
57.500069
 42
-0.198912
 10
-81.168155
 20
56.519400
 42
-0.198913
 10
-80.187484
 20
54.151852
 42
-0.101419
 10
-80.457415
 20
52.834770
 42
0.000000
 10
-83.185184
 20
47.339711
 42
0.115931
 10
-83.535702
 20
45.848284
 42
0.198913
 10
-82.555030
 20
43.480737
 42
0.198912
 10
-80.187483
 20
42.500069
 42
0.198912
 10
-77.819938
 20
43.480740
 42
0.036601
 10
-77.500018
 20
43.851271
 42
0.000000
  0
LWPOLYLINE
  5
8CF
100
AcDbEntity
  8
SCHRAFF
  6
CONTINUOUS
 62
     9
100
AcDbPolyline
 90
     5
 10
-77.500018
 20
47.963260
 42
0.000000
 10
-79.836968
 20
52.660430
 42
-0.115931
 10
-80.187483
 20
54.151852
 42
-0.198912
 10
-79.206813
 20
56.519397
 42
-0.147749
 10
-77.500018
 20
57.434221
 42
0.000000
  0
ENDBLK
  5
8D5
100
AcDbEntity
  8
0
100
AcDbBlockEnd
  0
BLOCK
  5
8D6
100
AcDbEntity
  8
Detail
100
AcDbBlockBegin
  2
B-67
 70
    66
 10
0.000000
 20
0.000000
 30
0.000000
  0
MTEXT
  5
8D7
100
AcDbEntity
  8
Detail
 62
     7
100
AcDbMText
 10
79.375020
 20
77.500116
 30
0.000000
 40
4.999990
 41
62.947349
 71
     1
 72
     5
  1
Putzabschlussprofil
  7
Arial
 50
0.000000
  0
ENDBLK
  5
8D8
100
AcDbEntity
  8
0
100
AcDbBlockEnd
  0
BLOCK
  5
8D9
100
AcDbEntity
  8
SCHRAFF
100
AcDbBlockBegin
  2
B-68
 70
    66
 10
0.000000
 20
0.000000
 30
0.000000
  0
HATCH
  5
8DA
100
AcDbEntity
  8
SCHRAFF
 62
   250
440
     0
100
AcDbHatch
 10
0.000000
 20
0.000000
 30
0.000000
210
0.000000
220
0.000000
230
1.000000
  2
SOLID
 70
     1
 71
     1
 91
     1
 92
    18
 72
     1
 73
     0
 93
     7
 10
-65.500018
 20
12.500075
 42
0.000000
 10
-65.500018
 20
40.500075
 42
0.000000
 10
-47.500018
 20
40.500075
 42
0.000000
 10
-47.500018
 20
42.500075
 42
0.000000
 10
-67.500018
 20
42.500075
 42
0.000000
 10
-67.500018
 20
12.500075
 42
0.000000
 10
-65.500018
 20
12.500075
 42
0.000000
 97
     0
 75
     0
 76
     1
 98
     0
  0
ENDBLK
  5
8DB
100
AcDbEntity
  8
0
100
AcDbBlockEnd
  0
BLOCK
  5
8DC
100
AcDbEntity
  8
Detail
100
AcDbBlockBegin
  2
B-69
 70
    66
 10
0.000000
 20
0.000000
 30
0.000000
  0
LWPOLYLINE
  5
8DD
100
AcDbEntity
  8
Detail
  6
CONTINUOUS
 62
     4
100
AcDbPolyline
 90
     7
 10
-67.500018
 20
42.500075
 42
0.000000
 10
-47.500018
 20
42.500075
 42
0.000000
 10
-47.500018
 20
40.500075
 42
0.000000
 10
-65.500018
 20
40.500075
 42
0.000000
 10
-65.500018
 20
12.500075
 42
0.000000
 10
-67.500018
 20
12.500075
 42
0.000000
 10
-67.500018
 20
42.500075
 42
0.000000
  0
ENDBLK
  5
8E5
100
AcDbEntity
  8
0
100
AcDbBlockEnd
  0
BLOCK
  5
8E6
100
AcDbEntity
  8
SCHRAFF
100
AcDbBlockBegin
  2
B-70
 70
    66
 10
0.000000
 20
0.000000
 30
0.000000
  0
HATCH
  5
8E7
100
AcDbEntity
  8
SCHRAFF
 62
   250
440
     0
100
AcDbHatch
 10
0.000000
 20
0.000000
 30
0.000000
210
0.000000
220
0.000000
230
1.000000
  2
SOLID
 70
     1
 71
     1
 91
     1
 92
    18
 72
     1
 73
     0
 93
     7
 10
-65.500018
 20
87.500069
 42
0.000000
 10
-65.500018
 20
59.500069
 42
0.000000
 10
-47.500018
 20
59.500069
 42
0.000000
 10
-47.500018
 20
57.500069
 42
0.000000
 10
-67.500018
 20
57.500069
 42
0.000000
 10
-67.500018
 20
87.500069
 42
0.000000
 10
-65.500018
 20
87.500069
 42
0.000000
 97
     0
 75
     0
 76
     1
 98
     0
  0
ENDBLK
  5
8E8
100
AcDbEntity
  8
0
100
AcDbBlockEnd
  0
BLOCK
  5
8E9
100
AcDbEntity
  8
Detail
100
AcDbBlockBegin
  2
B-71
 70
    66
 10
0.000000
 20
0.000000
 30
0.000000
  0
LWPOLYLINE
  5
8EA
100
AcDbEntity
  8
Detail
  6
CONTINUOUS
 62
     4
100
AcDbPolyline
 90
     7
 10
-67.500018
 20
57.500069
 42
0.000000
 10
-47.500018
 20
57.500069
 42
0.000000
 10
-47.500018
 20
59.500069
 42
0.000000
 10
-65.500018
 20
59.500069
 42
0.000000
 10
-65.500018
 20
87.500069
 42
0.000000
 10
-67.500018
 20
87.500069
 42
0.000000
 10
-67.500018
 20
57.500069
 42
0.000000
  0
ENDBLK
  5
8F2
100
AcDbEntity
  8
0
100
AcDbBlockEnd
  0
BLOCK
  5
8F3
100
AcDbEntity
  8
SCHRAFF
100
AcDbBlockBegin
  2
B-72
 70
    66
 10
0.000000
 20
0.000000
 30
0.000000
  0
HATCH
  5
8F4
100
AcDbEntity
  8
SCHRAFF
 62
     7
440
     0
100
AcDbHatch
 10
0.000000
 20
0.000000
 30
0.000000
210
0.000000
220
0.000000
230
1.000000
  2
SOLID
 70
     1
 71
     1
 91
     1
 92
    18
 72
     1
 73
     0
 93
     3
 10
-65.875018
 20
75.000069
 42
1.000000
 10
-66.875018
 20
75.000069
 42
1.000000
 10
-65.875018
 20
75.000069
 42
0.000000
 97
     0
 75
     0
 76
     1
 98
     0
  0
ENDBLK
  5
8F5
100
AcDbEntity
  8
0
100
AcDbBlockEnd
  0
BLOCK
  5
8F6
100
AcDbEntity
  8
Detail
100
AcDbBlockBegin
  2
B-73
 70
    66
 10
0.000000
 20
0.000000
 30
0.000000
  0
CIRCLE
  5
8F7
100
AcDbEntity
  8
Detail
  6
CONTINUOUS
 62
     7
100
AcDbCircle
 10
-66.375018
 20
75.000069
 40
0.500000
  0
ENDBLK
  5
8F8
100
AcDbEntity
  8
0
100
AcDbBlockEnd
  0
BLOCK
  5
8F9
100
AcDbEntity
  8
Detail
100
AcDbBlockBegin
  2
B-74
 70
    66
 10
0.000000
 20
0.000000
 30
0.000000
  0
LWPOLYLINE
  5
8FA
100
AcDbEntity
  8
Detail
  6
CONTINUOUS
 62
     7
100
AcDbPolyline
 90
     2
 10
77.500023
 20
75.000119
 42
0.000000
 10
-66.375018
 20
75.000069
 42
0.000000
  0
ENDBLK
  5
8FD
100
AcDbEntity
  8
0
100
AcDbBlockEnd
  0
BLOCK
  5
8FE
100
AcDbEntity
  8
Detail
100
AcDbBlockBegin
  2
B-75
 70
    66
 10
0.000000
 20
0.000000
 30
0.000000
  0
LWPOLYLINE
  5
8FF
100
AcDbEntity
  8
Detail
  6
HIDDEN
 62
     9
100
AcDbPolyline
 90
     2
 10
-66.500018
 20
-57.499925
 42
0.000000
 10
-66.500018
 20
12.500075
 42
0.000000
  0
ENDBLK
  5
902
100
AcDbEntity
  8
0
100
AcDbBlockEnd
  0
BLOCK
  5
903
100
AcDbEntity
  8
Detail
100
AcDbBlockBegin
  2
B-76
 70
    66
 10
0.000000
 20
0.000000
 30
0.000000
  0
LWPOLYLINE
  5
904
100
AcDbEntity
  8
Detail
  6
CONTINUOUS
 62
     6
100
AcDbPolyline
 90
     5
 10
-152.500018
 20
59.500069
 42
0.000000
 10
-150.500018
 20
59.500069
 42
0.000000
 10
-150.500018
 20
40.500069
 42
0.000000
 10
-152.500018
 20
40.500069
 42
0.000000
 10
-152.500018
 20
59.500069
 42
0.000000
  0
LWPOLYLINE
  5
90A
100
AcDbEntity
  8
Detail
  6
CONTINUOUS
 62
     6
100
AcDbPolyline
 90
     5
 10
-150.500018
 20
42.500069
 42
0.000000
 10
-67.500018
 20
42.500069
 42
0.000000
 10
-67.500018
 20
40.500069
 42
0.000000
 10
-150.500018
 20
40.500069
 42
0.000000
 10
-150.500018
 20
42.500069
 42
0.000000
  0
LWPOLYLINE
  5
910
100
AcDbEntity
  8
Detail
  6
CONTINUOUS
 62
     6
100
AcDbPolyline
 90
     5
 10
-150.500018
 20
57.500069
 42
0.000000
 10
-67.500018
 20
57.500069
 42
0.000000
 10
-67.500018
 20
59.500069
 42
0.000000
 10
-150.500018
 20
59.500069
 42
0.000000
 10
-150.500018
 20
57.500069
 42
0.000000
  0
ENDBLK
  5
916
100
AcDbEntity
  8
0
100
AcDbBlockEnd
  0
BLOCK
  5
917
100
AcDbEntity
  8
L
100
AcDbBlockBegin
  2
B-77
 70
    66
 10
0.000000
 20
0.000000
 30
0.000000
  0
LWPOLYLINE
  5
918
100
AcDbEntity
  8
L
  6
CONTINUOUS
 62
     3
100
AcDbPolyline
 90
     4
 10
-147.500018
 20
-196.249941
 42
0.000000
 10
-147.500018
 20
40.500069
 42
0.000000
 10
-67.500018
 20
40.500069
 42
0.000000
 10
-67.500018
 20
-196.249941
 42
0.000000
  0
ENDBLK
  5
91D
100
AcDbEntity
  8
0
100
AcDbBlockEnd
  0
BLOCK
  5
91E
100
AcDbEntity
  8
L
100
AcDbBlockBegin
  2
B-78
 70
    66
 10
0.000000
 20
0.000000
 30
0.000000
  0
LWPOLYLINE
  5
91F
100
AcDbEntity
  8
L
  6
CONTINUOUS
 62
     3
100
AcDbPolyline
 90
     8
 10
-67.500018
 20
296.250078
 42
0.000000
 10
-67.500018
 20
230.000118
 42
0.000000
 10
-87.500018
 20
230.000118
 42
0.000000
 10
-87.500018
 20
170.000118
 42
0.000000
 10
-67.500018
 20
170.000118
 42
0.000000
 10
-67.500018
 20
59.500069
 42
0.000000
 10
-147.500018
 20
59.500069
 42
0.000000
 10
-147.500018
 20
296.250078
 42
0.000000
  0
ENDBLK
  5
928
100
AcDbEntity
  8
0
100
AcDbBlockEnd
  0
BLOCK
  5
929
100
AcDbEntity
  8
L
100
AcDbBlockBegin
  2
B-79
 70
    66
 10
0.000000
 20
0.000000
 30
0.000000
  0
LWPOLYLINE
  5
92A
100
AcDbEntity
  8
L
  6
CONTINUOUS
 62
     2
100
AcDbPolyline
 90
     3
 10
-212.500018
 20
43.000069
 42
0.000000
 10
-152.500018
 20
43.000069
 42
0.000000
 10
-152.500018
 20
-196.249941
 42
0.000000
  0
LWPOLYLINE
  5
92E
100
AcDbEntity
  8
L
  6
CONTINUOUS
 62
     2
100
AcDbPolyline
 90
     3
 10
-212.500018
 20
57.000069
 42
0.000000
 10
-152.500018
 20
57.000069
 42
0.000000
 10
-152.500018
 20
296.250078
 42
0.000000
  0
ENDBLK
  5
932
100
AcDbEntity
  8
0
100
AcDbBlockEnd
  0
BLOCK
  5
933
100
AcDbEntity
  8
Detail
100
AcDbBlockBegin
  2
B-80
 70
    66
 10
0.000000
 20
0.000000
 30
0.000000
  0
LWPOLYLINE
  5
934
100
AcDbEntity
  8
Detail
  6
CONTINUOUS
 62
     4
100
AcDbPolyline
 90
     5
 10
-47.492939
 20
57.500069
 42
0.000000
 10
-77.500018
 20
57.500069
 42
0.000000
 10
-77.500018
 20
42.500069
 42
0.000000
 10
-47.492939
 20
42.500069
 42
0.000000
 10
-47.492939
 20
57.500069
 42
0.000000
  0
ENDBLK
  5
93A
100
AcDbEntity
  8
0
100
AcDbBlockEnd
  0
BLOCK
  5
93B
100
AcDbEntity
  8
L
100
AcDbBlockBegin
  2
B-81
 70
    66
 10
0.000000
 20
0.000000
 30
0.000000
  0
LWPOLYLINE
  5
93C
100
AcDbEntity
  8
L
  6
CONTINUOUS
 62
     3
100
AcDbPolyline
 90
     5
 10
-77.500018
 20
42.500069
 42
0.000000
 10
-150.500018
 20
42.500069
 42
0.000000
 10
-150.500018
 20
57.500069
 42
0.000000
 10
-77.500018
 20
57.500069
 42
0.000000
 10
-77.500018
 20
42.500069
 42
0.000000
  0
ENDBLK
  5
942
100
AcDbEntity
  8
0
100
AcDbBlockEnd
  0
ENDSEC
  0
SECTION
  2
ENTITIES
  0
INSERT
  5
943
100
AcDbEntity
  8
0
100
AcDbBlockReference
  2
B
 10
0.000000
 20
0.000000
 30
0.000000
 41
1.000000
 42
1.000000
 43
1.000000
 50
0.000000
  0
INSERT
  5
944
100
AcDbEntity
  8
0
100
AcDbBlockReference
  2
B-2
 10
0.000000
 20
0.000000
 30
0.000000
 41
1.000000
 42
1.000000
 43
1.000000
 50
0.000000
  0
INSERT
  5
945
100
AcDbEntity
  8
0
100
AcDbBlockReference
  2
B-3
 10
0.000000
 20
0.000000
 30
0.000000
 41
1.000000
 42
1.000000
 43
1.000000
 50
0.000000
  0
INSERT
  5
946
100
AcDbEntity
  8
0
100
AcDbBlockReference
  2
B-4
 10
0.000000
 20
0.000000
 30
0.000000
 41
1.000000
 42
1.000000
 43
1.000000
 50
0.000000
  0
INSERT
  5
947
100
AcDbEntity
  8
0
100
AcDbBlockReference
  2
B-5
 10
0.000000
 20
0.000000
 30
0.000000
 41
1.000000
 42
1.000000
 43
1.000000
 50
0.000000
  0
INSERT
  5
948
100
AcDbEntity
  8
Detail
100
AcDbBlockReference
  2
B-6
 10
0.000000
 20
0.000000
 30
0.000000
 41
1.000000
 42
1.000000
 43
1.000000
 50
0.000000
  0
INSERT
  5
949
100
AcDbEntity
  8
0
100
AcDbBlockReference
  2
B-7
 10
0.000000
 20
0.000000
 30
0.000000
 41
1.000000
 42
1.000000
 43
1.000000
 50
0.000000
  0
INSERT
  5
94A
100
AcDbEntity
  8
0
100
AcDbBlockReference
  2
B-8
 10
0.000000
 20
0.000000
 30
0.000000
 41
1.000000
 42
1.000000
 43
1.000000
 50
0.000000
  0
INSERT
  5
94B
100
AcDbEntity
  8
0
100
AcDbBlockReference
  2
B-9
 10
0.000000
 20
0.000000
 30
0.000000
 41
1.000000
 42
1.000000
 43
1.000000
 50
0.000000
  0
INSERT
  5
94C
100
AcDbEntity
  8
0
100
AcDbBlockReference
  2
B-10
 10
0.000000
 20
0.000000
 30
0.000000
 41
1.000000
 42
1.000000
 43
1.000000
 50
0.000000
  0
INSERT
  5
94D
100
AcDbEntity
  8
0
100
AcDbBlockReference
  2
B-11
 10
0.000000
 20
0.000000
 30
0.000000
 41
1.000000
 42
1.000000
 43
1.000000
 50
0.000000
  0
INSERT
  5
94E
100
AcDbEntity
  8
0
100
AcDbBlockReference
  2
B-12
 10
0.000000
 20
0.000000
 30
0.000000
 41
1.000000
 42
1.000000
 43
1.000000
 50
0.000000
  0
INSERT
  5
94F
100
AcDbEntity
  8
0
100
AcDbBlockReference
  2
B-13
 10
0.000000
 20
0.000000
 30
0.000000
 41
1.000000
 42
1.000000
 43
1.000000
 50
0.000000
  0
INSERT
  5
950
100
AcDbEntity
  8
0
100
AcDbBlockReference
  2
B-14
 10
0.000000
 20
0.000000
 30
0.000000
 41
1.000000
 42
1.000000
 43
1.000000
 50
0.000000
  0
INSERT
  5
951
100
AcDbEntity
  8
Detail
100
AcDbBlockReference
  2
B-15
 10
0.000000
 20
0.000000
 30
0.000000
 41
1.000000
 42
1.000000
 43
1.000000
 50
0.000000
  0
INSERT
  5
952
100
AcDbEntity
  8
Detail
100
AcDbBlockReference
  2
B-16
 10
0.000000
 20
0.000000
 30
0.000000
 41
1.000000
 42
1.000000
 43
1.000000
 50
0.000000
  0
INSERT
  5
953
100
AcDbEntity
  8
Detail
100
AcDbBlockReference
  2
B-17
 10
0.000000
 20
0.000000
 30
0.000000
 41
1.000000
 42
1.000000
 43
1.000000
 50
0.000000
  0
INSERT
  5
954
100
AcDbEntity
  8
Detail
100
AcDbBlockReference
  2
B-18
 10
0.000000
 20
0.000000
 30
0.000000
 41
1.000000
 42
1.000000
 43
1.000000
 50
0.000000
  0
INSERT
  5
955
100
AcDbEntity
  8
Detail
100
AcDbBlockReference
  2
B-19
 10
0.000000
 20
0.000000
 30
0.000000
 41
1.000000
 42
1.000000
 43
1.000000
 50
0.000000
  0
INSERT
  5
956
100
AcDbEntity
  8
Detail
100
AcDbBlockReference
  2
B-20
 10
0.000000
 20
0.000000
 30
0.000000
 41
1.000000
 42
1.000000
 43
1.000000
 50
0.000000
  0
INSERT
  5
957
100
AcDbEntity
  8
Detail
100
AcDbBlockReference
  2
B-21
 10
0.000000
 20
0.000000
 30
0.000000
 41
1.000000
 42
1.000000
 43
1.000000
 50
0.000000
  0
INSERT
  5
958
100
AcDbEntity
  8
Detail
100
AcDbBlockReference
  2
B-22
 10
0.000000
 20
0.000000
 30
0.000000
 41
1.000000
 42
1.000000
 43
1.000000
 50
0.000000
  0
INSERT
  5
959
100
AcDbEntity
  8
0
100
AcDbBlockReference
  2
B-23
 10
0.000000
 20
0.000000
 30
0.000000
 41
1.000000
 42
1.000000
 43
1.000000
 50
0.000000
  0
INSERT
  5
95A
100
AcDbEntity
  8
0
100
AcDbBlockReference
  2
B-24
 10
0.000000
 20
0.000000
 30
0.000000
 41
1.000000
 42
1.000000
 43
1.000000
 50
0.000000
  0
INSERT
  5
95B
100
AcDbEntity
  8
0
100
AcDbBlockReference
  2
B-25
 10
0.000000
 20
0.000000
 30
0.000000
 41
1.000000
 42
1.000000
 43
1.000000
 50
0.000000
  0
INSERT
  5
95C
100
AcDbEntity
  8
Detail
100
AcDbBlockReference
  2
B-26
 10
0.000000
 20
0.000000
 30
0.000000
 41
1.000000
 42
1.000000
 43
1.000000
 50
0.000000
  0
INSERT
  5
95D
100
AcDbEntity
  8
Detail
100
AcDbBlockReference
  2
B-27
 10
0.000000
 20
0.000000
 30
0.000000
 41
1.000000
 42
1.000000
 43
1.000000
 50
0.000000
  0
INSERT
  5
95E
100
AcDbEntity
  8
Detail
100
AcDbBlockReference
  2
B-28
 10
0.000000
 20
0.000000
 30
0.000000
 41
1.000000
 42
1.000000
 43
1.000000
 50
0.000000
  0
INSERT
  5
95F
100
AcDbEntity
  8
0
100
AcDbBlockReference
  2
B-29
 10
0.000000
 20
0.000000
 30
0.000000
 41
1.000000
 42
1.000000
 43
1.000000
 50
0.000000
  0
INSERT
  5
960
100
AcDbEntity
  8
0
100
AcDbBlockReference
  2
B-30
 10
0.000000
 20
0.000000
 30
0.000000
 41
1.000000
 42
1.000000
 43
1.000000
 50
0.000000
  0
INSERT
  5
961
100
AcDbEntity
  8
0
100
AcDbBlockReference
  2
B-31
 10
0.000000
 20
0.000000
 30
0.000000
 41
1.000000
 42
1.000000
 43
1.000000
 50
0.000000
  0
INSERT
  5
962
100
AcDbEntity
  8
Detail
100
AcDbBlockReference
  2
B-32
 10
0.000000
 20
0.000000
 30
0.000000
 41
1.000000
 42
1.000000
 43
1.000000
 50
0.000000
  0
INSERT
  5
963
100
AcDbEntity
  8
Detail
100
AcDbBlockReference
  2
B-33
 10
0.000000
 20
0.000000
 30
0.000000
 41
1.000000
 42
1.000000
 43
1.000000
 50
0.000000
  0
INSERT
  5
964
100
AcDbEntity
  8
Detail
100
AcDbBlockReference
  2
B-34
 10
0.000000
 20
0.000000
 30
0.000000
 41
1.000000
 42
1.000000
 43
1.000000
 50
0.000000
  0
INSERT
  5
965
100
AcDbEntity
  8
Detail
100
AcDbBlockReference
  2
B-35
 10
0.000000
 20
0.000000
 30
0.000000
 41
1.000000
 42
1.000000
 43
1.000000
 50
0.000000
  0
INSERT
  5
966
100
AcDbEntity
  8
Detail
100
AcDbBlockReference
  2
B-36
 10
0.000000
 20
0.000000
 30
0.000000
 41
1.000000
 42
1.000000
 43
1.000000
 50
0.000000
  0
INSERT
  5
967
100
AcDbEntity
  8
Detail
100
AcDbBlockReference
  2
B-37
 10
0.000000
 20
0.000000
 30
0.000000
 41
1.000000
 42
1.000000
 43
1.000000
 50
0.000000
  0
INSERT
  5
968
100
AcDbEntity
  8
Detail
100
AcDbBlockReference
  2
B-38
 10
0.000000
 20
0.000000
 30
0.000000
 41
1.000000
 42
1.000000
 43
1.000000
 50
0.000000
  0
INSERT
  5
969
100
AcDbEntity
  8
Detail
100
AcDbBlockReference
  2
B-39
 10
0.000000
 20
0.000000
 30
0.000000
 41
1.000000
 42
1.000000
 43
1.000000
 50
0.000000
  0
INSERT
  5
96A
100
AcDbEntity
  8
Detail
100
AcDbBlockReference
  2
B-40
 10
0.000000
 20
0.000000
 30
0.000000
 41
1.000000
 42
1.000000
 43
1.000000
 50
0.000000
  0
INSERT
  5
96B
100
AcDbEntity
  8
Detail
100
AcDbBlockReference
  2
B-41
 10
0.000000
 20
0.000000
 30
0.000000
 41
1.000000
 42
1.000000
 43
1.000000
 50
0.000000
  0
INSERT
  5
96C
100
AcDbEntity
  8
Detail
100
AcDbBlockReference
  2
B-42
 10
0.000000
 20
0.000000
 30
0.000000
 41
1.000000
 42
1.000000
 43
1.000000
 50
0.000000
  0
INSERT
  5
96D
100
AcDbEntity
  8
Detail
100
AcDbBlockReference
  2
B-43
 10
0.000000
 20
0.000000
 30
0.000000
 41
1.000000
 42
1.000000
 43
1.000000
 50
0.000000
  0
INSERT
  5
96E
100
AcDbEntity
  8
Detail
100
AcDbBlockReference
  2
B-44
 10
0.000000
 20
0.000000
 30
0.000000
 41
1.000000
 42
1.000000
 43
1.000000
 50
0.000000
  0
INSERT
  5
96F
100
AcDbEntity
  8
Detail
100
AcDbBlockReference
  2
B-45
 10
0.000000
 20
0.000000
 30
0.000000
 41
1.000000
 42
1.000000
 43
1.000000
 50
0.000000
  0
INSERT
  5
970
100
AcDbEntity
  8
Detail
100
AcDbBlockReference
  2
B-46
 10
0.000000
 20
0.000000
 30
0.000000
 41
1.000000
 42
1.000000
 43
1.000000
 50
0.000000
  0
INSERT
  5
971
100
AcDbEntity
  8
Detail
100
AcDbBlockReference
  2
B-47
 10
0.000000
 20
0.000000
 30
0.000000
 41
1.000000
 42
1.000000
 43
1.000000
 50
0.000000
  0
INSERT
  5
972
100
AcDbEntity
  8
Detail
100
AcDbBlockReference
  2
B-48
 10
0.000000
 20
0.000000
 30
0.000000
 41
1.000000
 42
1.000000
 43
1.000000
 50
0.000000
  0
INSERT
  5
973
100
AcDbEntity
  8
Detail
100
AcDbBlockReference
  2
B-49
 10
0.000000
 20
0.000000
 30
0.000000
 41
1.000000
 42
1.000000
 43
1.000000
 50
0.000000
  0
INSERT
  5
974
100
AcDbEntity
  8
0
100
AcDbBlockReference
  2
B-50
 10
0.000000
 20
0.000000
 30
0.000000
 41
1.000000
 42
1.000000
 43
1.000000
 50
0.000000
  0
INSERT
  5
975
100
AcDbEntity
  8
0
100
AcDbBlockReference
  2
B-51
 10
0.000000
 20
0.000000
 30
0.000000
 41
1.000000
 42
1.000000
 43
1.000000
 50
0.000000
  0
INSERT
  5
976
100
AcDbEntity
  8
L
100
AcDbBlockReference
  2
B-52
 10
0.000000
 20
0.000000
 30
0.000000
 41
1.000000
 42
1.000000
 43
1.000000
 50
0.000000
  0
INSERT
  5
977
100
AcDbEntity
  8
Detail
100
AcDbBlockReference
  2
B-53
 10
0.000000
 20
0.000000
 30
0.000000
 41
1.000000
 42
1.000000
 43
1.000000
 50
0.000000
  0
INSERT
  5
978
100
AcDbEntity
  8
Detail
100
AcDbBlockReference
  2
B-54
 10
0.000000
 20
0.000000
 30
0.000000
 41
1.000000
 42
1.000000
 43
1.000000
 50
0.000000
  0
INSERT
  5
979
100
AcDbEntity
  8
0
100
AcDbBlockReference
  2
B-55
 10
0.000000
 20
0.000000
 30
0.000000
 41
1.000000
 42
1.000000
 43
1.000000
 50
0.000000
  0
INSERT
  5
97A
100
AcDbEntity
  8
Detail
100
AcDbBlockReference
  2
B-56
 10
0.000000
 20
0.000000
 30
0.000000
 41
1.000000
 42
1.000000
 43
1.000000
 50
0.000000
  0
INSERT
  5
97B
100
AcDbEntity
  8
Detail
100
AcDbBlockReference
  2
B-57
 10
0.000000
 20
0.000000
 30
0.000000
 41
1.000000
 42
1.000000
 43
1.000000
 50
0.000000
  0
INSERT
  5
97C
100
AcDbEntity
  8
Detail
100
AcDbBlockReference
  2
B-59
 10
0.000000
 20
0.000000
 30
0.000000
 41
1.000000
 42
1.000000
 43
1.000000
 50
0.000000
  0
INSERT
  5
97D
100
AcDbEntity
  8
Detail
100
AcDbBlockReference
  2
B-60
 10
0.000000
 20
0.000000
 30
0.000000
 41
1.000000
 42
1.000000
 43
1.000000
 50
0.000000
  0
INSERT
  5
97E
100
AcDbEntity
  8
Detail
100
AcDbBlockReference
  2
B-61
 10
0.000000
 20
0.000000
 30
0.000000
 41
1.000000
 42
1.000000
 43
1.000000
 50
0.000000
  0
INSERT
  5
97F
100
AcDbEntity
  8
Detail
100
AcDbBlockReference
  2
B-62
 10
0.000000
 20
0.000000
 30
0.000000
 41
1.000000
 42
1.000000
 43
1.000000
 50
0.000000
  0
INSERT
  5
980
100
AcDbEntity
  8
Detail
100
AcDbBlockReference
  2
B-64
 10
0.000000
 20
0.000000
 30
0.000000
 41
1.000000
 42
1.000000
 43
1.000000
 50
0.000000
  0
INSERT
  5
981
100
AcDbEntity
  8
Detail
100
AcDbBlockReference
  2
B-65
 10
0.000000
 20
0.000000
 30
0.000000
 41
1.000000
 42
1.000000
 43
1.000000
 50
0.000000
  0
INSERT
  5
982
100
AcDbEntity
  8
0
100
AcDbBlockReference
  2
B-66
 10
0.000000
 20
0.000000
 30
0.000000
 41
1.000000
 42
1.000000
 43
1.000000
 50
0.000000
  0
INSERT
  5
983
100
AcDbEntity
  8
Detail
100
AcDbBlockReference
  2
B-67
 10
0.000000
 20
0.000000
 30
0.000000
 41
1.000000
 42
1.000000
 43
1.000000
 50
0.000000
  0
INSERT
  5
984
100
AcDbEntity
  8
0
100
AcDbBlockReference
  2
B-68
 10
0.000000
 20
0.000000
 30
0.000000
 41
1.000000
 42
1.000000
 43
1.000000
 50
0.000000
  0
INSERT
  5
985
100
AcDbEntity
  8
Detail
100
AcDbBlockReference
  2
B-69
 10
0.000000
 20
0.000000
 30
0.000000
 41
1.000000
 42
1.000000
 43
1.000000
 50
0.000000
  0
INSERT
  5
986
100
AcDbEntity
  8
0
100
AcDbBlockReference
  2
B-70
 10
0.000000
 20
0.000000
 30
0.000000
 41
1.000000
 42
1.000000
 43
1.000000
 50
0.000000
  0
INSERT
  5
987
100
AcDbEntity
  8
Detail
100
AcDbBlockReference
  2
B-71
 10
0.000000
 20
0.000000
 30
0.000000
 41
1.000000
 42
1.000000
 43
1.000000
 50
0.000000
  0
INSERT
  5
988
100
AcDbEntity
  8
0
100
AcDbBlockReference
  2
B-72
 10
0.000000
 20
0.000000
 30
0.000000
 41
1.000000
 42
1.000000
 43
1.000000
 50
0.000000
  0
INSERT
  5
989
100
AcDbEntity
  8
Detail
100
AcDbBlockReference
  2
B-73
 10
0.000000
 20
0.000000
 30
0.000000
 41
1.000000
 42
1.000000
 43
1.000000
 50
0.000000
  0
INSERT
  5
98A
100
AcDbEntity
  8
Detail
100
AcDbBlockReference
  2
B-74
 10
0.000000
 20
0.000000
 30
0.000000
 41
1.000000
 42
1.000000
 43
1.000000
 50
0.000000
  0
INSERT
  5
98B
100
AcDbEntity
  8
Detail
100
AcDbBlockReference
  2
B-75
 10
0.000000
 20
0.000000
 30
0.000000
 41
1.000000
 42
1.000000
 43
1.000000
 50
0.000000
  0
INSERT
  5
98C
100
AcDbEntity
  8
Detail
100
AcDbBlockReference
  2
B-76
 10
0.000000
 20
0.000000
 30
0.000000
 41
1.000000
 42
1.000000
 43
1.000000
 50
0.000000
  0
INSERT
  5
98D
100
AcDbEntity
  8
L
100
AcDbBlockReference
  2
B-77
 10
0.000000
 20
0.000000
 30
0.000000
 41
1.000000
 42
1.000000
 43
1.000000
 50
0.000000
  0
INSERT
  5
98E
100
AcDbEntity
  8
L
100
AcDbBlockReference
  2
B-78
 10
0.000000
 20
0.000000
 30
0.000000
 41
1.000000
 42
1.000000
 43
1.000000
 50
0.000000
  0
INSERT
  5
98F
100
AcDbEntity
  8
L
100
AcDbBlockReference
  2
B-79
 10
0.000000
 20
0.000000
 30
0.000000
 41
1.000000
 42
1.000000
 43
1.000000
 50
0.000000
  0
INSERT
  5
990
100
AcDbEntity
  8
Detail
100
AcDbBlockReference
  2
B-80
 10
0.000000
 20
0.000000
 30
0.000000
 41
1.000000
 42
1.000000
 43
1.000000
 50
0.000000
  0
INSERT
  5
991
100
AcDbEntity
  8
L
100
AcDbBlockReference
  2
B-81
 10
0.000000
 20
0.000000
 30
0.000000
 41
1.000000
 42
1.000000
 43
1.000000
 50
0.000000
  0
ENDSEC
  0
SECTION
  2
OBJECTS
  0
DICTIONARY
  5
C
330
0
100
AcDbDictionary
281
     1
  3
ACAD_COLOR
350
6B
  3
ACAD_GROUP
350
D
  3
ACAD_IMAGE_DICT
350
1E2
  3
ACAD_IMAGE_VARS
350
1E3
  3
ACAD_MATERIAL
350
6A
  3
ACAD_MLINESTYLE
350
17
  3
ACAD_PLOTSETTINGS
350
19
  3
ACAD_PLOTSTYLENAME
350
E
  3
ACAD_SCALELIST
350
10C
  3
ACAD_TABLESTYLE
350
7E
  3
ACAD_VISUALSTYLE
350
EF
  3
ACDB_RECOMPOSE_DATA
350
15D
  3
AcDbVariableDictionary
350
5E
  0
DICTIONARY
  5
13C
330
10
100
AcDbDictionary
280
     1
281
     1
  0
DICTIONARY
  5
203
330
202
100
AcDbDictionary
280
     1
281
     1
  0
DICTIONARY
  5
6B
102
{ACAD_REACTORS
330
C
102
}
330
C
100
AcDbDictionary
281
     1
  0
DICTIONARY
  5
D
102
{ACAD_REACTORS
330
C
102
}
330
C
100
AcDbDictionary
281
     1
  0
DICTIONARY
  5
1E2
102
{ACAD_REACTORS
330
C
102
}
330
C
100
AcDbDictionary
281
     1
  3
WDVS mit Edelkratzputz_Fläche mit Dehnfuge_11_1.tif
350
232
  0
RASTERVARIABLES
  5
1E3
102
{ACAD_REACTORS
330
C
102
}
330
C
100
AcDbRasterVariables
 90
        0
 70
     1
 71
     1
 72
     1
  0
DICTIONARY
  5
6A
102
{ACAD_REACTORS
330
C
102
}
330
C
100
AcDbDictionary
281
     1
  3
ByBlock
350
ED
  3
ByLayer
350
EC
  3
Global
350
EE
  0
DICTIONARY
  5
12D
102
{ACAD_REACTORS
330
C
102
}
330
C
100
AcDbDictionary
281
     1
  3
Annotative
350
13B
  3
Standard
350
12E
  0
DICTIONARY
  5
17
102
{ACAD_REACTORS
330
C
102
}
330
C
100
AcDbDictionary
281
     1
  3
Standard
350
18
  0
DICTIONARY
  5
19
102
{ACAD_REACTORS
330
C
102
}
330
C
100
AcDbDictionary
281
     1
  0
ACDBDICTIONARYWDFLT
  5
E
102
{ACAD_REACTORS
330
C
102
}
330
C
100
AcDbDictionary
281
     1
  3
Normal
350
F
100
AcDbDictionaryWithDefault
340
F
  0
DICTIONARY
  5
10C
102
{ACAD_REACTORS
330
C
102
}
330
C
100
AcDbDictionary
281
     1
  3
A0
350
10D
  3
A1
350
1BE
  3
A2
350
1BF
  3
A3
350
1C0
  3
A4
350
1C1
  3
A5
350
1C2
  3
A6
350
1C3
  3
A7
350
1C4
  3
A8
350
1C5
  3
A9
350
1C6
  3
B0
350
1C7
  3
B1
350
1C8
  3
B2
350
1C9
  3
B3
350
1CA
  3
B4
350
1CB
  3
B5
350
1CC
  3
B6
350
1CD
  0
DICTIONARY
  5
7E
102
{ACAD_REACTORS
330
C
102
}
330
C
100
AcDbDictionary
281
     1
  3
Standard
350
7F
  0
DICTIONARY
  5
EF
102
{ACAD_REACTORS
330
C
102
}
330
C
100
AcDbDictionary
281
     1
  3
2dWireframe
350
F5
  3
3D Hidden
350
F7
  3
3dWireframe
350
F6
  3
Basic
350
F4
  3
Brighten
350
FB
  3
ColorChange
350
FF
  3
Conceptual
350
F8
  3
Dim
350
FA
  3
Facepattern
350
FE
  3
Flat
350
F0
  3
FlatWithEdges
350
F1
  3
Gouraud
350
F2
  3
GouraudWithEdges
350
F3
  3
Linepattern
350
FD
  3
Realistic
350
F9
  3
Thicken
350
FC
  0
XRECORD
  5
15D
102
{ACAD_REACTORS
330
C
102
}
330
C
100
AcDbXrecord
280
     1
 90
        1
330
7F
  0
DICTIONARY
  5
5E
102
{ACAD_REACTORS
330
C
102
}
330
C
100
AcDbDictionary
281
     1
  3
CANNOSCALE
350
146
  3
CMLEADERSTYLE
350
145
  3
CTABLESTYLE
350
84
  3
DIMASSOC
350
5F
  3
HIDETEXT
350
63
  3
LAYEREVAL
350
1AE
  3
LAYERNOTIFY
350
1AF
  0
MATERIAL
  5
ED
102
{ACAD_REACTORS
330
6A
102
}
330
6A
100
AcDbMaterial
  1
ByBlock
 94
       63
  0
MATERIAL
  5
EC
102
{ACAD_REACTORS
330
6A
102
}
330
6A
100
AcDbMaterial
  1
ByLayer
 94
       63
  0
MATERIAL
  5
EE
102
{ACAD_XDICTIONARY
360
173
102
}
102
{ACAD_REACTORS
330
6A
102
}
330
6A
100
AcDbMaterial
  1
Global
 43
0.0007999999797903
 43
0.0
 43
0.0
 43
0.0
 43
0.0
 43
0.0007999999797903
 43
0.0
 43
0.0
 43
0.0
 43
0.0
 43
1.0
 43
0.0
 43
0.0
 43
0.0
 43
0.0
 43
1.0
 49
0.0007999999797903
 49
0.0
 49
0.0
 49
0.0
 49
0.0
 49
0.0007999999797903
 49
0.0
 49
0.0
 49
0.0
 49
0.0
 49
1.0
 49
0.0
 49
0.0
 49
0.0
 49
0.0
 49
1.0
142
0.0007999999797903
142
0.0
142
0.0
142
0.0
142
0.0
142
0.0007999999797903
142
0.0
142
0.0
142
0.0
142
0.0
142
1.0
142
0.0
142
0.0
142
0.0
142
0.0
142
1.0
144
0.0007999999797903
144
0.0
144
0.0
144
0.0
144
0.0
144
0.0007999999797903
144
0.0
144
0.0
144
0.0
144
0.0
144
1.0
144
0.0
144
0.0
144
0.0
144
0.0
144
1.0
 94
       63
1001
ACAD
1070
    -1
1070
     3
1070
     0
1000

1071
        0
1070
     0
  0
MLINESTYLE
  5
18
102
{ACAD_REACTORS
330
17
102
}
330
17
100
AcDbMlineStyle
  2
STANDARD
 70
     0
  3

 62
   256
 51
90.0
 52
90.0
 71
     2
 49
0.5
 62
   256
  6
BYLAYER
 49
-0.5
 62
   256
  6
BYLAYER
  0
ACDBPLACEHOLDER
  5
F
102
{ACAD_REACTORS
330
E
102
}
330
E
  0
SCALE
  5
10D
102
{ACAD_REACTORS
330
10C
102
}
330
10C
100
AcDbScale
 70
     0
300
1:1
140
1.0
141
1.0
290
     1
  0
SCALE
  5
1BE
102
{ACAD_REACTORS
330
10C
102
}
330
10C
100
AcDbScale
 70
     0
300
1:2
140
1.0
141
2.0
290
     0
  0
SCALE
  5
1BF
102
{ACAD_REACTORS
330
10C
102
}
330
10C
100
AcDbScale
 70
     0
300
1:4
140
1.0
141
4.0
290
     0
  0
SCALE
  5
1C0
102
{ACAD_REACTORS
330
10C
102
}
330
10C
100
AcDbScale
 70
     0
300
1:5
140
1.0
141
5.0
290
     0
  0
SCALE
  5
1C1
102
{ACAD_REACTORS
330
10C
102
}
330
10C
100
AcDbScale
 70
     0
300
1:8
140
1.0
141
8.0
290
     0
  0
SCALE
  5
1C2
102
{ACAD_REACTORS
330
10C
102
}
330
10C
100
AcDbScale
 70
     0
300
1:10
140
1.0
141
10.0
290
     0
  0
SCALE
  5
1C3
102
{ACAD_REACTORS
330
10C
102
}
330
10C
100
AcDbScale
 70
     0
300
1:16
140
1.0
141
16.0
290
     0
  0
SCALE
  5
1C4
102
{ACAD_REACTORS
330
10C
102
}
330
10C
100
AcDbScale
 70
     0
300
1:20
140
1.0
141
20.0
290
     0
  0
SCALE
  5
1C5
102
{ACAD_REACTORS
330
10C
102
}
330
10C
100
AcDbScale
 70
     0
300
1:30
140
1.0
141
30.0
290
     0
  0
SCALE
  5
1C6
102
{ACAD_REACTORS
330
10C
102
}
330
10C
100
AcDbScale
 70
     0
300
1:40
140
1.0
141
40.0
290
     0
  0
SCALE
  5
1C7
102
{ACAD_REACTORS
330
10C
102
}
330
10C
100
AcDbScale
 70
     0
300
1:50
140
1.0
141
50.0
290
     0
  0
SCALE
  5
1C8
102
{ACAD_REACTORS
330
10C
102
}
330
10C
100
AcDbScale
 70
     0
300
1:100
140
1.0
141
100.0
290
     0
  0
SCALE
  5
1C9
102
{ACAD_REACTORS
330
10C
102
}
330
10C
100
AcDbScale
 70
     0
300
2:1
140
2.0
141
1.0
290
     0
  0
SCALE
  5
1CA
102
{ACAD_REACTORS
330
10C
102
}
330
10C
100
AcDbScale
 70
     0
300
4:1
140
4.0
141
1.0
290
     0
  0
SCALE
  5
1CB
102
{ACAD_REACTORS
330
10C
102
}
330
10C
100
AcDbScale
 70
     0
300
8:1
140
8.0
141
1.0
290
     0
  0
SCALE
  5
1CC
102
{ACAD_REACTORS
330
10C
102
}
330
10C
100
AcDbScale
 70
     0
300
10:1
140
10.0
141
1.0
290
     0
  0
SCALE
  5
1CD
102
{ACAD_REACTORS
330
10C
102
}
330
10C
100
AcDbScale
 70
     0
300
100:1
140
100.0
141
1.0
290
     0
  0
TABLESTYLE
  5
7F
102
{ACAD_XDICTIONARY
360
162
102
}
102
{ACAD_REACTORS
330
7E
102
}
330
7E
100
AcDbTableStyle
  3
Standard
 70
     0
 71
     0
 40
1.5
 41
1.5
280
     0
281
     0
  7
Standard
140
4.5
170
     2
 62
     0
 63
     7
283
     0
 90
      512
 91
        0
  1

274
    -2
284
     1
 64
     0
275
    -2
285
     1
 65
     0
276
    -2
286
     1
 66
     0
277
    -2
287
     1
 67
     0
278
    -2
288
     1
 68
     0
279
    -2
289
     1
 69
     0
  7
Standard
140
6.0
170
     5
 62
     0
 63
     7
283
     0
 90
      512
 91
        0
  1

274
    -2
284
     1
 64
     0
275
    -2
285
     1
 65
     0
276
    -2
286
     1
 66
     0
277
    -2
287
     1
 67
     0
278
    -2
288
     1
 68
     0
279
    -2
289
     1
 69
     0
  7
Standard
140
4.5
170
     5
 62
     0
 63
     7
283
     0
 90
      512
 91
        0
  1

274
    -2
284
     1
 64
     0
275
    -2
285
     1
 65
     0
276
    -2
286
     1
 66
     0
277
    -2
287
     1
 67
     0
278
    -2
288
     1
 68
     0
279
    -2
289
     1
 69
     0
  0
VISUALSTYLE
  5
F5
102
{ACAD_REACTORS
330
EF
102
}
330
EF
100
AcDbVisualStyle
  2
2dWireframe
 70
     4
 71
     0
 72
     2
 73
     1
 90
        0
 40
-0.6
 41
-30.0
 62
     5
 63
     7
421
 16777215
 74
     1
 91
        4
 64
     7
 65
   257
 75
     1
175
     1
 42
1.0
 92
        0
 66
   257
 43
1.0
 76
     1
 77
     6
 78
     2
 67
     7
 79
     5
170
     0
171
     0
290
     0
174
     0
 93
        1
 44
0.0
173
     0
291
     0
 45
0.0
  0
VISUALSTYLE
  5
F7
102
{ACAD_REACTORS
330
EF
102
}
330
EF
100
AcDbVisualStyle
  2
3D Hidden
 70
     6
 71
     1
 72
     2
 73
     2
 90
        0
 40
-0.6
 41
-30.0
 62
     5
 63
     7
421
 16777215
 74
     2
 91
        2
 64
     7
 65
   257
 75
     2
175
     1
 42
40.0
 92
        0
 66
   257
 43
1.0
 76
     1
 77
     6
 78
     2
 67
     7
 79
     3
170
     0
171
     0
290
     0
174
     0
 93
        1
 44
0.0
173
     0
291
     0
 45
0.0
  0
VISUALSTYLE
  5
F6
102
{ACAD_REACTORS
330
EF
102
}
330
EF
100
AcDbVisualStyle
  2
3dWireframe
 70
     5
 71
     0
 72
     2
 73
     1
 90
        0
 40
-0.6
 41
-30.0
 62
     5
 63
     7
421
 16777215
 74
     1
 91
        4
 64
     7
 65
   257
 75
     1
175
     1
 42
1.0
 92
        0
 66
   257
 43
1.0
 76
     1
 77
     6
 78
     2
 67
     7
 79
     5
170
     0
171
     0
290
     0
174
     0
 93
        1
 44
0.0
173
     0
291
     0
 45
0.0
  0
VISUALSTYLE
  5
F4
102
{ACAD_REACTORS
330
EF
102
}
330
EF
100
AcDbVisualStyle
  2
Basic
 70
     7
 71
     1
 72
     0
 73
     1
 90
        0
 40
-0.6
 41
-30.0
 62
     5
 63
     7
421
 16777215
 74
     0
 91
        4
 64
     7
 65
   257
 75
     1
175
     1
 42
1.0
 92
        8
 66
     7
 43
1.0
 76
     1
 77
     6
 78
     2
 67
     7
 79
     5
170
     0
171
     0
290
     0
174
     0
 93
        1
 44
0.0
173
     0
291
     1
 45
0.0
  0
VISUALSTYLE
  5
FB
102
{ACAD_REACTORS
330
EF
102
}
330
EF
100
AcDbVisualStyle
  2
Brighten
 70
    12
 71
     2
 72
     2
 73
     1
 90
        0
 40
-0.6
 41
-30.0
 62
     5
 63
     7
421
 16777215
 74
     1
 91
        4
 64
     7
 65
   257
 75
     1
175
     1
 42
1.0
 92
        8
 66
     7
 43
1.0
 76
     1
 77
     6
 78
     2
 67
     7
 79
     5
170
     0
171
     0
290
     0
174
     0
 93
        1
 44
50.0
173
     0
291
     1
 45
0.0
  0
VISUALSTYLE
  5
FF
102
{ACAD_REACTORS
330
EF
102
}
330
EF
100
AcDbVisualStyle
  2
ColorChange
 70
    16
 71
     2
 72
     2
 73
     3
 90
        0
 40
-0.6
 41
-30.0
 62
     5
 63
     8
421
  8421504
 74
     1
 91
        4
 64
     7
 65
   257
 75
     1
175
     1
 42
1.0
 92
        8
 66
     8
424
  8421504
 43
1.0
 76
     1
 77
     6
 78
     2
 67
     7
 79
     5
170
     0
171
     0
290
     0
174
     0
 93
        1
 44
0.0
173
     0
291
     1
 45
0.0
  0
VISUALSTYLE
  5
F8
102
{ACAD_REACTORS
330
EF
102
}
330
EF
100
AcDbVisualStyle
  2
Conceptual
 70
     9
 71
     3
 72
     2
 73
     1
 90
        0
 40
-0.6
 41
-30.0
 62
     5
 63
     7
421
 16777215
 74
     2
 91
        2
 64
     7
 65
   257
 75
     1
175
     1
 42
40.0
 92
        8
 66
     7
 43
1.0
 76
     1
 77
     6
 78
     2
 67
     7
 79
     3
170
     0
171
     0
290
     0
174
     0
 93
        1
 44
0.0
173
     0
291
     0
 45
0.0
  0
VISUALSTYLE
  5
FA
102
{ACAD_REACTORS
330
EF
102
}
330
EF
100
AcDbVisualStyle
  2
Dim
 70
    11
 71
     2
 72
     2
 73
     1
 90
        0
 40
-0.6
 41
-30.0
 62
     5
 63
     7
421
 16777215
 74
     1
 91
        4
 64
     7
 65
   257
 75
     1
175
     1
 42
1.0
 92
        8
 66
     7
 43
1.0
 76
     1
 77
     6
 78
     2
 67
     7
 79
     5
170
     0
171
     0
290
     0
174
     0
 93
        1
 44
-50.0
173
     0
291
     1
 45
0.0
  0
VISUALSTYLE
  5
FE
102
{ACAD_REACTORS
330
EF
102
}
330
EF
100
AcDbVisualStyle
  2
Facepattern
 70
    15
 71
     2
 72
     2
 73
     1
 90
        0
 40
-0.6
 41
-30.0
 62
     5
 63
     7
421
 16777215
 74
     1
 91
        4
 64
     7
 65
   257
 75
     1
175
     1
 42
1.0
 92
        8
 66
     7
 43
1.0
 76
     1
 77
     6
 78
     2
 67
     7
 79
     5
170
     0
171
     0
290
     0
174
     0
 93
        1
 44
0.0
173
     0
291
     1
 45
0.0
  0
VISUALSTYLE
  5
F0
102
{ACAD_REACTORS
330
EF
102
}
330
EF
100
AcDbVisualStyle
  2
Flat
 70
     0
 71
     2
 72
     1
 73
     1
 90
        2
 40
-0.6
 41
30.0
 62
     5
 63
     7
421
 16777215
 74
     0
 91
        4
 64
     7
 65
   257
 75
     1
175
     1
 42
1.0
 92
        8
 66
     7
 43
1.0
 76
     1
 77
     6
 78
     2
 67
     7
 79
     5
170
     0
171
     0
290
     0
174
     0
 93
        1
 44
0.0
173
     0
291
     1
 45
0.0
  0
VISUALSTYLE
  5
F1
102
{ACAD_REACTORS
330
EF
102
}
330
EF
100
AcDbVisualStyle
  2
FlatWithEdges
 70
     1
 71
     2
 72
     1
 73
     1
 90
        2
 40
-0.6
 41
30.0
 62
     5
 63
     7
421
 16777215
 74
     1
 91
        4
 64
     7
 65
   257
 75
     1
175
     1
 42
1.0
 92
        0
 66
   257
 43
1.0
 76
     1
 77
     6
 78
     2
 67
     7
 79
     5
170
     0
171
     0
290
     0
174
     0
 93
        1
 44
0.0
173
     0
291
     1
 45
0.0
  0
VISUALSTYLE
  5
F2
102
{ACAD_REACTORS
330
EF
102
}
330
EF
100
AcDbVisualStyle
  2
Gouraud
 70
     2
 71
     2
 72
     2
 73
     1
 90
        2
 40
-0.6
 41
30.0
 62
     5
 63
     7
421
 16777215
 74
     0
 91
        4
 64
     7
 65
   257
 75
     1
175
     1
 42
1.0
 92
        0
 66
     7
 43
1.0
 76
     1
 77
     6
 78
     2
 67
     7
 79
     5
170
     0
171
     0
290
     0
174
     0
 93
        1
 44
0.0
173
     0
291
     1
 45
0.0
  0
VISUALSTYLE
  5
F3
102
{ACAD_REACTORS
330
EF
102
}
330
EF
100
AcDbVisualStyle
  2
GouraudWithEdges
 70
     3
 71
     2
 72
     2
 73
     1
 90
        2
 40
-0.6
 41
30.0
 62
     5
 63
     7
421
 16777215
 74
     1
 91
        4
 64
     7
 65
   257
 75
     1
175
     1
 42
1.0
 92
        0
 66
   257
 43
1.0
 76
     1
 77
     6
 78
     2
 67
     7
 79
     5
170
     0
171
     0
290
     0
174
     0
 93
        1
 44
0.0
173
     0
291
     1
 45
0.0
  0
VISUALSTYLE
  5
FD
102
{ACAD_REACTORS
330
EF
102
}
330
EF
100
AcDbVisualStyle
  2
Linepattern
 70
    14
 71
     2
 72
     2
 73
     1
 90
        0
 40
-0.6
 41
-30.0
 62
     5
 63
     7
421
 16777215
 74
     1
 91
        4
 64
     7
 65
   257
 75
     7
175
     7
 42
1.0
 92
        8
 66
     7
 43
1.0
 76
     1
 77
     6
 78
     2
 67
     7
 79
     5
170
     0
171
     0
290
     0
174
     0
 93
        1
 44
0.0
173
     0
291
     1
 45
0.0
  0
VISUALSTYLE
  5
F9
102
{ACAD_REACTORS
330
EF
102
}
330
EF
100
AcDbVisualStyle
  2
Realistic
 70
     8
 71
     2
 72
     2
 73
     1
 90
        0
 40
-0.6
 41
-30.0
 62
     5
 63
     7
421
 16777215
 74
     1
 91
        0
 64
     7
 65
   257
 75
     1
175
     1
 42
1.0
 92
        8
 66
     8
424
  7895160
 43
1.0
 76
     1
 77
     6
 78
     2
 67
     7
 79
     5
170
     0
171
     0
290
     0
174
     0
 93
       13
 44
0.0
173
     0
291
     0
 45
0.0
  0
VISUALSTYLE
  5
FC
102
{ACAD_REACTORS
330
EF
102
}
330
EF
100
AcDbVisualStyle
  2
Thicken
 70
    13
 71
     2
 72
     2
 73
     1
 90
        0
 40
-0.6
 41
-30.0
 62
     5
 63
     7
421
 16777215
 74
     1
 91
        4
 64
     7
 65
   257
 75
     1
175
     1
 42
1.0
 92
       12
 66
     7
 43
1.0
 76
     1
 77
     6
 78
     2
 67
     7
 79
     5
170
     0
171
     0
290
     0
174
     0
 93
        1
 44
0.0
173
     0
291
     1
 45
0.0
  0
DICTIONARYVAR
  5
146
102
{ACAD_REACTORS
330
5E
102
}
330
5E
100
DictionaryVariables
280
     0
  1
1:1
  0
DICTIONARYVAR
  5
145
102
{ACAD_REACTORS
330
5E
102
}
330
5E
100
DictionaryVariables
280
     0
  1
STANDARD
  0
DICTIONARYVAR
  5
84
102
{ACAD_REACTORS
330
5E
102
}
330
5E
100
DictionaryVariables
280
     0
  1
STANDARD
  0
DICTIONARYVAR
  5
5F
102
{ACAD_REACTORS
330
5E
102
}
330
5E
100
DictionaryVariables
280
     0
  1
2
  0
DICTIONARYVAR
  5
63
102
{ACAD_REACTORS
330
5E
102
}
330
5E
100
DictionaryVariables
280
     0
  1
1
  0
DICTIONARYVAR
  5
1AE
102
{ACAD_REACTORS
330
5E
102
}
330
5E
100
DictionaryVariables
280
     0
  1
0
  0
DICTIONARYVAR
  5
1AF
102
{ACAD_REACTORS
330
5E
102
}
330
5E
100
DictionaryVariables
280
     0
  1
0
  0
DICTIONARY
  5
173
330
EE
100
AcDbDictionary
280
     1
281
     1
  3
BUMPTILE
360
175
  3
DIFFUSETILE
360
174
  3
OPACITYTILE
360
176
  3
REFLECTIONTILE
360
177
  0
DICTIONARY
  5
162
330
7F
100
AcDbDictionary
280
     1
281
     1
  3
ACAD_ROUNDTRIP_2008_TABLESTYLE_CELLSTYLEMAP
360
1E7
  0
XRECORD
  5
175
102
{ACAD_REACTORS
330
173
102
}
330
173
100
AcDbXrecord
280
     1
270
     1
271
     1
  0
XRECORD
  5
174
102
{ACAD_REACTORS
330
173
102
}
330
173
100
AcDbXrecord
280
     1
270
     1
271
     1
  0
XRECORD
  5
176
102
{ACAD_REACTORS
330
173
102
}
330
173
100
AcDbXrecord
280
     1
270
     1
271
     1
  0
XRECORD
  5
177
102
{ACAD_REACTORS
330
173
102
}
330
173
100
AcDbXrecord
280
     1
270
     1
271
     1
  0
CELLSTYLEMAP
  5
1E7
102
{ACAD_REACTORS
330
162
102
}
330
162
100
AcDbCellStyleMap
 90
        3
300
CELLSTYLE
  1
TABLEFORMAT_BEGIN
 90
        5
170
     1
 91
        0
 92
    32768
 62
   257
 93
        1
300
CONTENTFORMAT
  1
CONTENTFORMAT_BEGIN
 90
        0
 91
        0
 92
      512
 93
        0
300

 40
0.0
140
1.0
 94
        5
 62
     0
340
11
144
6.0
309
CONTENTFORMAT_END
171
     1
301
MARGIN
  1
CELLMARGIN_BEGIN
 40
1.5
 40
1.5
 40
1.5
 40
1.5
 40
4.5
 40
4.5
309
CELLMARGIN_END
 94
        6
 95
        1
302
GRIDFORMAT
  1
GRIDFORMAT_BEGIN
 90
        0
 91
        1
 62
     0
 92
       -2
340
AFD
 93
        0
 40
1.125
309
GRIDFORMAT_END
 95
        2
302
GRIDFORMAT
  1
GRIDFORMAT_BEGIN
 90
        0
 91
        1
 62
     0
 92
       -2
340
AFD
 93
        0
 40
1.125
309
GRIDFORMAT_END
 95
        4
302
GRIDFORMAT
  1
GRIDFORMAT_BEGIN
 90
        0
 91
        1
 62
     0
 92
       -2
340
AFD
 93
        0
 40
1.125
309
GRIDFORMAT_END
 95
        8
302
GRIDFORMAT
  1
GRIDFORMAT_BEGIN
 90
        0
 91
        1
 62
     0
 92
       -2
340
AFD
 93
        0
 40
1.125
309
GRIDFORMAT_END
 95
       16
302
GRIDFORMAT
  1
GRIDFORMAT_BEGIN
 90
        0
 91
        1
 62
     0
 92
       -2
340
AFD
 93
        0
 40
1.125
309
GRIDFORMAT_END
 95
       32
302
GRIDFORMAT
  1
GRIDFORMAT_BEGIN
 90
        0
 91
        1
 62
     0
 92
       -2
340
AFD
 93
        0
 40
1.125
309
GRIDFORMAT_END
309
TABLEFORMAT_END
  1
CELLSTYLE_BEGIN
 90
        1
 91
        1
300
_TITLE
309
CELLSTYLE_END
300
CELLSTYLE
  1
TABLEFORMAT_BEGIN
 90
        5
170
     1
 91
        0
 92
        0
 62
   257
 93
        1
300
CONTENTFORMAT
  1
CONTENTFORMAT_BEGIN
 90
        0
 91
        0
 92
      512
 93
        0
300

 40
0.0
140
1.0
 94
        5
 62
     0
340
11
144
4.5
309
CONTENTFORMAT_END
171
     1
301
MARGIN
  1
CELLMARGIN_BEGIN
 40
1.5
 40
1.5
 40
1.5
 40
1.5
 40
4.5
 40
4.5
309
CELLMARGIN_END
 94
        6
 95
        1
302
GRIDFORMAT
  1
GRIDFORMAT_BEGIN
 90
        0
 91
        1
 62
     0
 92
       -2
340
AFD
 93
        0
 40
1.125
309
GRIDFORMAT_END
 95
        2
302
GRIDFORMAT
  1
GRIDFORMAT_BEGIN
 90
        0
 91
        1
 62
     0
 92
       -2
340
AFD
 93
        0
 40
1.125
309
GRIDFORMAT_END
 95
        4
302
GRIDFORMAT
  1
GRIDFORMAT_BEGIN
 90
        0
 91
        1
 62
     0
 92
       -2
340
AFD
 93
        0
 40
1.125
309
GRIDFORMAT_END
 95
        8
302
GRIDFORMAT
  1
GRIDFORMAT_BEGIN
 90
        0
 91
        1
 62
     0
 92
       -2
340
AFD
 93
        0
 40
1.125
309
GRIDFORMAT_END
 95
       16
302
GRIDFORMAT
  1
GRIDFORMAT_BEGIN
 90
        0
 91
        1
 62
     0
 92
       -2
340
AFD
 93
        0
 40
1.125
309
GRIDFORMAT_END
 95
       32
302
GRIDFORMAT
  1
GRIDFORMAT_BEGIN
 90
        0
 91
        1
 62
     0
 92
       -2
340
AFD
 93
        0
 40
1.125
309
GRIDFORMAT_END
309
TABLEFORMAT_END
  1
CELLSTYLE_BEGIN
 90
        2
 91
        1
300
_HEADER
309
CELLSTYLE_END
300
CELLSTYLE
  1
TABLEFORMAT_BEGIN
 90
        5
170
     1
 91
        0
 92
        0
 62
   257
 93
        1
300
CONTENTFORMAT
  1
CONTENTFORMAT_BEGIN
 90
        0
 91
        0
 92
      512
 93
        0
300

 40
0.0
140
1.0
 94
        2
 62
     0
340
11
144
4.5
309
CONTENTFORMAT_END
171
     1
301
MARGIN
  1
CELLMARGIN_BEGIN
 40
1.5
 40
1.5
 40
1.5
 40
1.5
 40
4.5
 40
4.5
309
CELLMARGIN_END
 94
        6
 95
        1
302
GRIDFORMAT
  1
GRIDFORMAT_BEGIN
 90
        0
 91
        1
 62
     0
 92
       -2
340
AFD
 93
        0
 40
1.125
309
GRIDFORMAT_END
 95
        2
302
GRIDFORMAT
  1
GRIDFORMAT_BEGIN
 90
        0
 91
        1
 62
     0
 92
       -2
340
AFD
 93
        0
 40
1.125
309
GRIDFORMAT_END
 95
        4
302
GRIDFORMAT
  1
GRIDFORMAT_BEGIN
 90
        0
 91
        1
 62
     0
 92
       -2
340
AFD
 93
        0
 40
1.125
309
GRIDFORMAT_END
 95
        8
302
GRIDFORMAT
  1
GRIDFORMAT_BEGIN
 90
        0
 91
        1
 62
     0
 92
       -2
340
AFD
 93
        0
 40
1.125
309
GRIDFORMAT_END
 95
       16
302
GRIDFORMAT
  1
GRIDFORMAT_BEGIN
 90
        0
 91
        1
 62
     0
 92
       -2
340
AFD
 93
        0
 40
1.125
309
GRIDFORMAT_END
 95
       32
302
GRIDFORMAT
  1
GRIDFORMAT_BEGIN
 90
        0
 91
        1
 62
     0
 92
       -2
340
AFD
 93
        0
 40
1.125
309
GRIDFORMAT_END
309
TABLEFORMAT_END
  1
CELLSTYLE_BEGIN
 90
        3
 91
        2
300
_DATA
309
CELLSTYLE_END
  0
IMAGEDEF_REACTOR
  5
233
330
231
100
AcDbRasterImageDefReactor
 90
     2
330
231
  0
IMAGEDEF
  5
232
102
{ACAD_REACTORS
330
5E
330
233
102
}
330
5E
100
AcDbRasterImageDef
 90
     0
  1
WDVS mit Edelkratzputz_Fläche mit Dehnfuge_11_1.tif
 10
395.000000
 20
405.000000
 11
0.002532
 21
0.002469
280
     1
281
     0
  0
ENDSEC
  0
EOF
