  0
SECTION
  2
HEADER
  9
$ACADVER
  1
AC1024
  9
$ACADMAINTVER
 70
     6
  9
$DWGCODEPAGE
  3
ANSI_1252
  9
$INSBASE
 10
0.0
 20
0.0
 30
0.0
  9
$EXTMIN
 10
-262.500018
 20
-371.249941
 30
0.000000
  9
$EXTMAX
 10
237.500023
 20
346.250078
 30
0.000000
  9
$LIMMIN
 10
0.0
 20
0.0
  9
$LIMMAX
 10
420.0
 20
297.0
  9
$ORTHOMODE
 70
     0
  9
$REGENMODE
 70
     1
  9
$FILLMODE
 70
     1
  9
$QTEXTMODE
 70
     0
  9
$MIRRTEXT
 70
     0
  9
$LTSCALE
 40
25.000000
  9
$ATTMODE
 70
     1
  9
$TEXTSIZE
 40
2.5
  9
$TRACEWID
 40
1.0
  9
$TEXTSTYLE
  7
Standard
  9
$CLAYER
  8
0
  9
$CELTYPE
  6
ByLayer
  9
$CECOLOR
 62
   256
  9
$CELTSCALE
 40
1.0
  9
$DISPSILH
 70
     0
  9
$DIMSCALE
 40
1.0
  9
$DIMASZ
 40
2.5
  9
$DIMEXO
 40
0.625
  9
$DIMDLI
 40
3.75
  9
$DIMRND
 40
0.0
  9
$DIMDLE
 40
0.0
  9
$DIMEXE
 40
1.25
  9
$DIMTP
 40
0.0
  9
$DIMTM
 40
0.0
  9
$DIMTXT
 40
2.5
  9
$DIMCEN
 40
2.5
  9
$DIMTSZ
 40
0.0
  9
$DIMTOL
 70
     0
  9
$DIMLIM
 70
     0
  9
$DIMTIH
 70
     0
  9
$DIMTOH
 70
     0
  9
$DIMSE1
 70
     0
  9
$DIMSE2
 70
     0
  9
$DIMTAD
 70
     1
  9
$DIMZIN
 70
     8
  9
$DIMBLK
  1

  9
$DIMASO
 70
     1
  9
$DIMSHO
 70
     1
  9
$DIMPOST
  1

  9
$DIMAPOST
  1

  9
$DIMALT
 70
     0
  9
$DIMALTD
 70
     3
  9
$DIMALTF
 40
0.03937007874016
  9
$DIMLFAC
 40
1.0
  9
$DIMTOFL
 70
     1
  9
$DIMTVP
 40
0.0
  9
$DIMTIX
 70
     0
  9
$DIMSOXD
 70
     0
  9
$DIMSAH
 70
     0
  9
$DIMBLK1
  1

  9
$DIMBLK2
  1

  9
$DIMSTYLE
  2
ISO-25
  9
$DIMCLRD
 70
     0
  9
$DIMCLRE
 70
     0
  9
$DIMCLRT
 70
     0
  9
$DIMTFAC
 40
1.0
  9
$DIMGAP
 40
0.625
  9
$DIMJUST
 70
     0
  9
$DIMSD1
 70
     0
  9
$DIMSD2
 70
     0
  9
$DIMTOLJ
 70
     0
  9
$DIMTZIN
 70
     8
  9
$DIMALTZ
 70
     0
  9
$DIMALTTZ
 70
     0
  9
$DIMUPT
 70
     0
  9
$DIMDEC
 70
     2
  9
$DIMTDEC
 70
     2
  9
$DIMALTU
 70
     2
  9
$DIMALTTD
 70
     3
  9
$DIMTXSTY
  7
Standard
  9
$DIMAUNIT
 70
     0
  9
$DIMADEC
 70
     0
  9
$DIMALTRND
 40
0.0
  9
$DIMAZIN
 70
     0
  9
$DIMDSEP
 70
    44
  9
$DIMATFIT
 70
     3
  9
$DIMFRAC
 70
     0
  9
$DIMLDRBLK
  1

  9
$DIMLUNIT
 70
     2
  9
$DIMLWD
 70
    -2
  9
$DIMLWE
 70
    -2
  9
$DIMTMOVE
 70
     0
  9
$DIMFXL
 40
1.0
  9
$DIMFXLON
 70
     0
  9
$DIMJOGANG
 40
0.7853981633974483
  9
$DIMTFILL
 70
     0
  9
$DIMTFILLCLR
 70
     0
  9
$DIMARCSYM
 70
     0
  9
$DIMLTYPE
  6

  9
$DIMLTEX1
  6

  9
$DIMLTEX2
  6

  9
$DIMTXTDIRECTION
 70
     0
  9
$LUNITS
 70
     2
  9
$LUPREC
 70
     4
  9
$SKETCHINC
 40
1.0
  9
$FILLETRAD
 40
10.0
  9
$AUNITS
 70
     0
  9
$AUPREC
 70
     0
  9
$MENU
  1
.
  9
$ELEVATION
 40
0.0
  9
$PELEVATION
 40
0.0
  9
$THICKNESS
 40
0.0
  9
$LIMCHECK
 70
     0
  9
$CHAMFERA
 40
10.0
  9
$CHAMFERB
 40
10.0
  9
$CHAMFERC
 40
20.0
  9
$CHAMFERD
 40
0.0
  9
$SKPOLY
 70
     0
  9
$TDCREATE
 40
2452006.439837951
  9
$TDUCREATE
 40
2452006.356504618
  9
$TDUPDATE
 40
2452006.439963946
  9
$TDUUPDATE
 40
2452006.356630613
  9
$TDINDWG
 40
0.0001273843
  9
$TDUSRTIMER
 40
0.0001272685
  9
$USRTIMER
 70
     1
  9
$ANGBASE
 50
0.0
  9
$ANGDIR
 70
     0
  9
$PDMODE
 70
     0
  9
$PDSIZE
 40
0.0
  9
$PLINEWID
 40
0.0
  9
$SPLFRAME
 70
     0
  9
$SPLINETYPE
 70
     6
  9
$SPLINESEGS
 70
     8
  9
$HANDSEED
  5
863
  9
$SURFTAB1
 70
     6
  9
$SURFTAB2
 70
     6
  9
$SURFTYPE
 70
     6
  9
$SURFU
 70
     6
  9
$SURFV
 70
     6
  9
$UCSBASE
  2

  9
$UCSNAME
  2

  9
$UCSORG
 10
0.0
 20
0.0
 30
0.0
  9
$UCSXDIR
 10
1.0
 20
0.0
 30
0.0
  9
$UCSYDIR
 10
0.0
 20
1.0
 30
0.0
  9
$UCSORTHOREF
  2

  9
$UCSORTHOVIEW
 70
     0
  9
$UCSORGTOP
 10
0.0
 20
0.0
 30
0.0
  9
$UCSORGBOTTOM
 10
0.0
 20
0.0
 30
0.0
  9
$UCSORGLEFT
 10
0.0
 20
0.0
 30
0.0
  9
$UCSORGRIGHT
 10
0.0
 20
0.0
 30
0.0
  9
$UCSORGFRONT
 10
0.0
 20
0.0
 30
0.0
  9
$UCSORGBACK
 10
0.0
 20
0.0
 30
0.0
  9
$PUCSBASE
  2

  9
$PUCSNAME
  2

  9
$PUCSORG
 10
0.0
 20
0.0
 30
0.0
  9
$PUCSXDIR
 10
1.0
 20
0.0
 30
0.0
  9
$PUCSYDIR
 10
0.0
 20
1.0
 30
0.0
  9
$PUCSORTHOREF
  2

  9
$PUCSORTHOVIEW
 70
     0
  9
$PUCSORGTOP
 10
0.0
 20
0.0
 30
0.0
  9
$PUCSORGBOTTOM
 10
0.0
 20
0.0
 30
0.0
  9
$PUCSORGLEFT
 10
0.0
 20
0.0
 30
0.0
  9
$PUCSORGRIGHT
 10
0.0
 20
0.0
 30
0.0
  9
$PUCSORGFRONT
 10
0.0
 20
0.0
 30
0.0
  9
$PUCSORGBACK
 10
0.0
 20
0.0
 30
0.0
  9
$USERI1
 70
     0
  9
$USERI2
 70
     0
  9
$USERI3
 70
     0
  9
$USERI4
 70
     0
  9
$USERI5
 70
     0
  9
$USERR1
 40
0.0
  9
$USERR2
 40
0.0
  9
$USERR3
 40
0.0
  9
$USERR4
 40
0.0
  9
$USERR5
 40
0.0
  9
$WORLDVIEW
 70
     1
  9
$SHADEDGE
 70
     3
  9
$SHADEDIF
 70
    70
  9
$TILEMODE
 70
     1
  9
$MAXACTVP
 70
    64
  9
$PINSBASE
 10
0.0
 20
0.0
 30
0.0
  9
$PLIMCHECK
 70
     0
  9
$PEXTMIN
 10
1.000000000000000E+20
 20
1.000000000000000E+20
 30
1.000000000000000E+20
  9
$PEXTMAX
 10
-1.000000000000000E+20
 20
-1.000000000000000E+20
 30
-1.000000000000000E+20
  9
$PLIMMIN
 10
0.0
 20
0.0
  9
$PLIMMAX
 10
420.0
 20
297.0
  9
$UNITMODE
 70
     0
  9
$VISRETAIN
 70
     1
  9
$PLINEGEN
 70
     0
  9
$PSLTSCALE
 70
     1
  9
$TREEDEPTH
 70
  3020
  9
$CMLSTYLE
  2
Standard
  9
$CMLJUST
 70
     0
  9
$CMLSCALE
 40
20.0
  9
$PROXYGRAPHICS
 70
     1
  9
$MEASUREMENT
 70
     1
  9
$CELWEIGHT
370
    -1
  9
$ENDCAPS
280
     0
  9
$JOINSTYLE
280
     0
  9
$LWDISPLAY
290
     0
  9
$INSUNITS
 70
     4
  9
$HYPERLINKBASE
  1

  9
$STYLESHEET
  1

  9
$XEDIT
290
     1
  9
$CEPSNTYPE
380
     0
  9
$PSTYLEMODE
290
     1
  9
$FINGERPRINTGUID
  2

  9
$VERSIONGUID
  2

  9
$EXTNAMES
290
     1
  9
$PSVPSCALE
 40
0.0
  9
$OLESTARTUP
290
     0
  9
$SORTENTS
280
   127
  9
$INDEXCTL
280
     0
  9
$HIDETEXT
280
     1
  9
$XCLIPFRAME
280
     2
  9
$HALOGAP
280
     0
  9
$OBSCOLOR
 70
   257
  9
$OBSLTYPE
280
     0
  9
$INTERSECTIONDISPLAY
280
     0
  9
$INTERSECTIONCOLOR
 70
   257
  9
$DIMASSOC
280
     2
  9
$PROJECTNAME
  1

  9
$CAMERADISPLAY
290
     0
  9
$LENSLENGTH
 40
50.0
  9
$CAMERAHEIGHT
 40
0.0
  9
$STEPSPERSEC
 40
2.0
  9
$STEPSIZE
 40
6.0
  9
$3DDWFPREC
 40
2.0
  9
$PSOLWIDTH
 40
5.0
  9
$PSOLHEIGHT
 40
80.0
  9
$LOFTANG1
 40
1.570796326794896
  9
$LOFTANG2
 40
1.570796326794896
  9
$LOFTMAG1
 40
0.0
  9
$LOFTMAG2
 40
0.0
  9
$LOFTPARAM
 70
     7
  9
$LOFTNORMALS
280
     1
  9
$LATITUDE
 40
37.795
  9
$LONGITUDE
 40
-122.394
  9
$NORTHDIRECTION
 40
0.0
  9
$TIMEZONE
 70
 -8000
  9
$LIGHTGLYPHDISPLAY
280
     1
  9
$TILEMODELIGHTSYNCH
280
     1
  9
$CMATERIAL
347
EC
  9
$SOLIDHIST
280
     1
  9
$SHOWHIST
280
     1
  9
$DWFFRAME
280
     2
  9
$DGNFRAME
280
     0
  9
$REALWORLDSCALE
290
     1
  9
$INTERFERECOLOR
 62
     1
  9
$INTERFEREOBJVS
345
F9
  9
$INTERFEREVPVS
346
F6
  9
$CSHADOW
280
     0
  9
$SHADOWPLANELOCATION
 40
0.0
  0
ENDSEC
  0
SECTION
  2
CLASSES
  0
CLASS
  1
ACDBDICTIONARYWDFLT
  2
AcDbDictionaryWithDefault
  3
ObjectDBX Classes
 90
        0
 91
        1
280
     0
281
     0
  0
CLASS
  1
ACDBPLACEHOLDER
  2
AcDbPlaceHolder
  3
ObjectDBX Classes
 90
        0
 91
        1
280
     0
281
     0
  0
CLASS
  1
LAYOUT
  2
AcDbLayout
  3
ObjectDBX Classes
 90
        0
 91
        2
280
     0
281
     0
  0
CLASS
  1
DICTIONARYVAR
  2
AcDbDictionaryVar
  3
ObjectDBX Classes
 90
        0
 91
        7
280
     0
281
     0
  0
CLASS
  1
TABLESTYLE
  2
AcDbTableStyle
  3
ObjectDBX Classes
 90
     4095
 91
        1
280
     0
281
     0
  0
CLASS
  1
MATERIAL
  2
AcDbMaterial
  3
ObjectDBX Classes
 90
     1153
 91
        3
280
     0
281
     0
  0
CLASS
  1
VISUALSTYLE
  2
AcDbVisualStyle
  3
ObjectDBX Classes
 90
     4095
 91
       16
280
     0
281
     0
  0
CLASS
  1
SCALE
  2
AcDbScale
  3
ObjectDBX Classes
 90
     1153
 91
       17
280
     0
281
     0
  0
CLASS
  1
MLEADERSTYLE
  2
AcDbMLeaderStyle
  3
ACDB_MLEADERSTYLE_CLASS
 90
     4095
 91
        1
280
     0
281
     0
  0
CLASS
  1
CELLSTYLEMAP
  2
AcDbCellStyleMap
  3
ObjectDBX Classes
 90
     1152
 91
        2
280
     0
281
     0
  0
CLASS
  1
EXACXREFPANELOBJECT
  2
ExAcXREFPanelObject
  3
EXAC_ESW
 90
    33793
 91
        0
280
     0
281
     0
  0
CLASS
  1
NPOCOLLECTION
  2
AcDbImpNonPersistentObjectsCollection
  3
ObjectDBX Classes
 90
     1153
 91
        0
280
     0
281
     0
  0
CLASS
  1
LAYER_INDEX
  2
AcDbLayerIndex
  3
ObjectDBX Classes
 90
        0
 91
        0
280
     0
281
     0
  0
CLASS
  1
SPATIAL_INDEX
  2
AcDbSpatialIndex
  3
ObjectDBX Classes
 90
        0
 91
        0
280
     0
281
     0
  0
CLASS
  1
IDBUFFER
  2
AcDbIdBuffer
  3
ObjectDBX Classes
 90
        0
 91
        0
280
     0
281
     0
  0
CLASS
  1
RASTERVARIABLES
  2
AcDbRasterVariables
  3
ISM
 90
        0
 91
        2
280
     0
281
     0
  0
CLASS
  1
IMAGEDEF
  2
AcDbRasterImageDef
  3
ISM
 90
        0
 91
        5
280
     0
281
     0
  0
CLASS
  1
IMAGEDEF_REACTOR
  2
AcDbRasterImageDefReactor
  3
ISM
 90
        1
 91
        5
280
     0
281
     0
  0
CLASS
  1
IMAGE
  2
AcDbRasterImage
  3
ISM
 90
     2175
 91
        5
280
     0
281
     1
  0
CLASS
  1
LWPOLYLINE
  2
AcDbPolyline
  3
ObjectDBX Classes
 90
        0
 91
        0
280
     0
281
     1
  0
CLASS
  1
OLE2FRAME
  2
AcDbOle2Frame
  3
ObjectDBX Classes
 90
        0
 91
        0
280
     0
281
     1
  0
CLASS
  1
HATCH
  2
AcDbHatch
  3
ObjectDBX Classes
 90
        0
 91
        0
280
     0
281
     1
  0
CLASS
  1
XRECORD
  2
AcDbXrecord
  3
ObjectDBX Classes
 90
        0
 91
        9
280
     0
281
     0
  0
CLASS
  1
SORTENTSTABLE
  2
AcDbSortentsTable
  3
ObjectDBX Classes
 90
        0
 91
        0
280
     0
281
     0
  0
CLASS
  1
OBJECT_PTR
  2
CAseDLPNTableRecord
  3
"ASE-LPNTableRecord"
 90
    32769
 91
        0
280
     0
281
     0
  0
CLASS
  1
PLOTSETTINGS
  2
AcDbPlotSettings
  3
ObjectDBX Classes
 90
        0
 91
        0
280
     0
281
     0
  0
CLASS
  1
VBA_PROJECT
  2
AcDbVbaProject
  3
acad
 90
        0
 91
        0
280
     0
281
     0
  0
CLASS
  1
WIPEOUT
  2
AcDbWipeout
  3
WipeOut|AutoCAD Express Tool|expresstools@autodesk.com
 90
    32895
 91
        0
280
     0
281
     1
  0
CLASS
  1
WIPEOUTVARIABLES
  2
AcDbWipeoutVariables
  3
WipeOut|AutoCAD Express Tool|expresstools@autodesk.com
 90
    32768
 91
        0
280
     0
281
     0
  0
CLASS
  1
RTEXT
  2
RText
  3
RText|AutoCAD Express Tool|expresstools@autodesk.com
 90
    32768
 91
        0
280
     0
281
     1
  0
CLASS
  1
ARCALIGNEDTEXT
  2
AcDbArcAlignedText
  3
ATEXT|AutoCAD Express Tool|expresstools@autodesk.com
 90
    32768
 91
        0
280
     0
281
     1
  0
ENDSEC
  0
SECTION
  2
TABLES
  0
TABLE
  2
VPORT
  5
806
100
AcDbSymbolTable
 70
     1
  0
VPORT
  5
807
100
AcDbSymbolTableRecord
100
AcDbViewportTableRecord
  2
*ACTIVE
 70
     0
 10
0.000000
 20
0.000000
 11
1.000000
 21
1.000000
 12
50.000000
 22
50.000000
 13
0.000000
 23
0.000000
 14
1.000000
 24
1.000000
 15
10.000000
 25
10.000000
 16
0.000000
 26
0.000000
 36
1.000000
 17
0.000000
 27
0.000000
 37
0.000000
 40
100.000000
 41
1.387409
 42
50.000000
 43
0.000000
 44
0.000000
 50
0.000000
 51
0.000000
 71
     0
 72
   100
 73
     1
 74
     1
 75
     0
 76
     0
 77
     0
 78
     0
  0
ENDTAB
  0
TABLE
  2
LTYPE
  5
808
330
0
100
AcDbSymbolTable
 70
     9
  0
LTYPE
  5
809
330
808
100
AcDbSymbolTableRecord
100
AcDbLinetypeTableRecord
  2
ByBlock
 70
     0
  3

 72
    65
 73
     0
 40
0.000000
  0
LTYPE
  5
80A
330
808
100
AcDbSymbolTableRecord
100
AcDbLinetypeTableRecord
  2
ByLayer
 70
     0
  3

 72
    65
 73
     0
 40
0.000000
  0
LTYPE
  5
80B
330
808
100
AcDbSymbolTableRecord
100
AcDbLinetypeTableRecord
  2
CONTINUOUS
 70
     0
  3
Solid line
 72
    65
 73
     0
 40
0.000000
  0
LTYPE
  5
80C
330
808
100
AcDbSymbolTableRecord
100
AcDbLinetypeTableRecord
  2
HIDDEN
 70
     0
  3
_ _ _ _ _ _ _ _ _ _ _ _ _ _ _ _ _ _ _ _ _ _ _
 72
    65
 73
     2
 40
0.375000
 49
0.250000
 74
     0
 49
-0.125000
 74
     0
  0
LTYPE
  5
80D
330
808
100
AcDbSymbolTableRecord
100
AcDbLinetypeTableRecord
  2
DOT
 70
     0
  3
...............................................
 72
    65
 73
     2
 40
0.250000
 49
0.000000
 74
     0
 49
-0.250000
 74
     0
  0
LTYPE
  5
80E
330
808
100
AcDbSymbolTableRecord
100
AcDbLinetypeTableRecord
  2
DASHED
 70
     0
  3
__ __ __ __ __ __ __ __ __ __ __ __ __ __ __ 
 72
    65
 73
     2
 40
0.750000
 49
0.500000
 74
     0
 49
-0.250000
 74
     0
  0
LTYPE
  5
80F
330
808
100
AcDbSymbolTableRecord
100
AcDbLinetypeTableRecord
  2
DIVIDE
 70
     0
  3
__ . . __ . . __ . . __ . . __ . . __ . . __
 72
    65
 73
     6
 40
1.250000
 49
0.500000
 74
     0
 49
-0.250000
 74
     0
 49
0.000000
 74
     0
 49
-0.250000
 74
     0
 49
0.000000
 74
     0
 49
-0.250000
 74
     0
  0
LTYPE
  5
810
330
808
100
AcDbSymbolTableRecord
100
AcDbLinetypeTableRecord
  2
DASHDOT
 70
     0
  3
__ . __ . __ . __ . __ . __ . __ . __ . __ . __
 72
    65
 73
     4
 40
1.000000
 49
0.500000
 74
     0
 49
-0.250000
 74
     0
 49
0.000000
 74
     0
 49
-0.250000
 74
     0
  0
LTYPE
  5
811
330
808
100
AcDbSymbolTableRecord
100
AcDbLinetypeTableRecord
  2
BORDER
 70
     0
  3
__ __ . __ __ . __ __ . __ __ . __ __ . __ __
 72
    65
 73
     6
 40
1.750000
 49
0.500000
 74
     0
 49
-0.250000
 74
     0
 49
0.500000
 74
     0
 49
-0.250000
 74
     0
 49
0.000000
 74
     0
 49
-0.250000
 74
     0
  0
LTYPE
  5
812
330
808
100
AcDbSymbolTableRecord
100
AcDbLinetypeTableRecord
  2
CENTER
 70
     0
  3
____ _ ____ _ ____ _ ____ _ ____ _ ____ _ ____
 72
    65
 73
     4
 40
2.000000
 49
1.250000
 74
     0
 49
-0.250000
 74
     0
 49
0.250000
 74
     0
 49
-0.250000
 74
     0
  0
LTYPE
  5
813
330
808
100
AcDbSymbolTableRecord
100
AcDbLinetypeTableRecord
  2
PHANTOM
 70
     0
  3
_____ _ _ _____ _ _ _____ _ _ _____ _ _ ____
 72
    65
 73
     6
 40
2.500000
 49
1.250000
 74
     0
 49
-0.250000
 74
     0
 49
0.250000
 74
     0
 49
-0.250000
 74
     0
 49
0.250000
 74
     0
 49
-0.250000
 74
     0
  0
ENDTAB
  0
TABLE
  2
LAYER
  5
814
100
AcDbSymbolTable
 70
     3
  0
LAYER
  5
815
100
AcDbSymbolTableRecord
100
AcDbLayerTableRecord
  2
0
 70
     0
 62
     7
  6
CONTINUOUS
370
    -3
390
     0
  0
LAYER
  5
816
100
AcDbSymbolTableRecord
100
AcDbLayerTableRecord
  2
SCHRAFF
 70
     0
 62
     7
  6
CONTINUOUS
370
    -3
390
     0
  0
LAYER
  5
817
100
AcDbSymbolTableRecord
100
AcDbLayerTableRecord
  2
Detail
 70
     0
 62
     7
  6
CONTINUOUS
370
    -3
390
     0
  0
ENDTAB
  0
TABLE
  2
STYLE
  5
818
100
AcDbSymbolTable
 70
     2
  0
STYLE
  5
201
100
AcDbSymbolTableRecord
100
AcDbTextStyleTableRecord
  2
STANDARD
 70
     0
 40
0.000000
 41
1.000000
 50
0.000000
 71
     0
 42
3.500000
  3
txt
  4

  0
STYLE
  5
239
100
AcDbSymbolTableRecord
100
AcDbTextStyleTableRecord
  2
Arial
 70
     0
 40
0.000000
 41
1.000000
 50
0.000000
 71
     0
 42
3.500000
  3
Arial.ttf
  4

1001
ACAD
1000
Arial
1071
     0
  0
ENDTAB
  0
TABLE
  2
DIMSTYLE
  5
819
100
AcDbSymbolTable
 70
     0
100
AcDbDimStyleTable
  0
ENDTAB
  0
TABLE
  2
VIEW
  5
81A
100
AcDbSymbolTable
 70
     0
  0
ENDTAB
  0
TABLE
  2
UCS
  5
81B
100
AcDbSymbolTable
 70
     0
  0
ENDTAB
  0
TABLE
  2
APPID
  5
81C
100
AcDbSymbolTable
 70
     1
  0
APPID
  5
81D
100
AcDbSymbolTableRecord
100
AcDbRegAppTableRecord
  2
ACAD
 70
     0
  0
ENDTAB
  0
TABLE
  2
BLOCK_RECORD
  5
81E
100
AcDbSymbolTable
 70
    69
  0
BLOCK_RECORD
  5
202
102
{ACAD_XDICTIONARY
360
203
102
}
100
AcDbSymbolTableRecord
100
AcDbBlockTableRecord
  2
*Model_Space
  0
BLOCK_RECORD
  5
81F
100
AcDbSymbolTableRecord
100
AcDbBlockTableRecord
  2
*Paper_Space
  0
BLOCK_RECORD
  5
820
100
AcDbSymbolTableRecord
100
AcDbBlockTableRecord
  2
*Paper_Space0
  0
BLOCK_RECORD
  5
821
100
AcDbSymbolTableRecord
100
AcDbBlockTableRecord
  2
B
  0
BLOCK_RECORD
  5
822
100
AcDbSymbolTableRecord
100
AcDbBlockTableRecord
  2
B-2
  0
BLOCK_RECORD
  5
823
100
AcDbSymbolTableRecord
100
AcDbBlockTableRecord
  2
B-3
  0
BLOCK_RECORD
  5
824
100
AcDbSymbolTableRecord
100
AcDbBlockTableRecord
  2
B-4
  0
BLOCK_RECORD
  5
825
100
AcDbSymbolTableRecord
100
AcDbBlockTableRecord
  2
B-5
  0
BLOCK_RECORD
  5
826
100
AcDbSymbolTableRecord
100
AcDbBlockTableRecord
  2
B-6
  0
BLOCK_RECORD
  5
827
100
AcDbSymbolTableRecord
100
AcDbBlockTableRecord
  2
B-7
  0
BLOCK_RECORD
  5
828
100
AcDbSymbolTableRecord
100
AcDbBlockTableRecord
  2
B-8
  0
BLOCK_RECORD
  5
829
100
AcDbSymbolTableRecord
100
AcDbBlockTableRecord
  2
B-9
  0
BLOCK_RECORD
  5
82A
100
AcDbSymbolTableRecord
100
AcDbBlockTableRecord
  2
B-10
  0
BLOCK_RECORD
  5
82B
100
AcDbSymbolTableRecord
100
AcDbBlockTableRecord
  2
B-11
  0
BLOCK_RECORD
  5
82C
100
AcDbSymbolTableRecord
100
AcDbBlockTableRecord
  2
B-12
  0
BLOCK_RECORD
  5
82D
100
AcDbSymbolTableRecord
100
AcDbBlockTableRecord
  2
B-13
  0
BLOCK_RECORD
  5
82E
100
AcDbSymbolTableRecord
100
AcDbBlockTableRecord
  2
B-14
  0
BLOCK_RECORD
  5
82F
100
AcDbSymbolTableRecord
100
AcDbBlockTableRecord
  2
B-15
  0
BLOCK_RECORD
  5
830
100
AcDbSymbolTableRecord
100
AcDbBlockTableRecord
  2
B-16
  0
BLOCK_RECORD
  5
831
100
AcDbSymbolTableRecord
100
AcDbBlockTableRecord
  2
B-17
  0
BLOCK_RECORD
  5
832
100
AcDbSymbolTableRecord
100
AcDbBlockTableRecord
  2
B-18
  0
BLOCK_RECORD
  5
833
100
AcDbSymbolTableRecord
100
AcDbBlockTableRecord
  2
B-19
  0
BLOCK_RECORD
  5
834
100
AcDbSymbolTableRecord
100
AcDbBlockTableRecord
  2
B-20
  0
BLOCK_RECORD
  5
835
100
AcDbSymbolTableRecord
100
AcDbBlockTableRecord
  2
B-21
  0
BLOCK_RECORD
  5
836
100
AcDbSymbolTableRecord
100
AcDbBlockTableRecord
  2
B-22
  0
BLOCK_RECORD
  5
837
100
AcDbSymbolTableRecord
100
AcDbBlockTableRecord
  2
B-23
  0
BLOCK_RECORD
  5
838
100
AcDbSymbolTableRecord
100
AcDbBlockTableRecord
  2
B-24
  0
BLOCK_RECORD
  5
839
100
AcDbSymbolTableRecord
100
AcDbBlockTableRecord
  2
B-25
  0
BLOCK_RECORD
  5
83A
100
AcDbSymbolTableRecord
100
AcDbBlockTableRecord
  2
B-26
  0
BLOCK_RECORD
  5
83B
100
AcDbSymbolTableRecord
100
AcDbBlockTableRecord
  2
B-27
  0
BLOCK_RECORD
  5
83C
100
AcDbSymbolTableRecord
100
AcDbBlockTableRecord
  2
B-28
  0
BLOCK_RECORD
  5
83D
100
AcDbSymbolTableRecord
100
AcDbBlockTableRecord
  2
B-29
  0
BLOCK_RECORD
  5
83E
100
AcDbSymbolTableRecord
100
AcDbBlockTableRecord
  2
B-30
  0
BLOCK_RECORD
  5
83F
100
AcDbSymbolTableRecord
100
AcDbBlockTableRecord
  2
B-31
  0
BLOCK_RECORD
  5
840
100
AcDbSymbolTableRecord
100
AcDbBlockTableRecord
  2
B-32
  0
BLOCK_RECORD
  5
841
100
AcDbSymbolTableRecord
100
AcDbBlockTableRecord
  2
B-33
  0
BLOCK_RECORD
  5
842
100
AcDbSymbolTableRecord
100
AcDbBlockTableRecord
  2
B-34
  0
BLOCK_RECORD
  5
843
100
AcDbSymbolTableRecord
100
AcDbBlockTableRecord
  2
glasleiste
  0
BLOCK_RECORD
  5
844
100
AcDbSymbolTableRecord
100
AcDbBlockTableRecord
  2
glas
  0
BLOCK_RECORD
  5
845
100
AcDbSymbolTableRecord
100
AcDbBlockTableRecord
  2
rahmen
  0
BLOCK_RECORD
  5
846
100
AcDbSymbolTableRecord
100
AcDbBlockTableRecord
  2
fluegel
  0
BLOCK_RECORD
  5
847
100
AcDbSymbolTableRecord
100
AcDbBlockTableRecord
  2
B-35
  0
BLOCK_RECORD
  5
848
100
AcDbSymbolTableRecord
100
AcDbBlockTableRecord
  2
B-36
  0
BLOCK_RECORD
  5
849
100
AcDbSymbolTableRecord
100
AcDbBlockTableRecord
  2
B-37
  0
BLOCK_RECORD
  5
84A
100
AcDbSymbolTableRecord
100
AcDbBlockTableRecord
  2
B-38
  0
BLOCK_RECORD
  5
84B
100
AcDbSymbolTableRecord
100
AcDbBlockTableRecord
  2
B-39
  0
BLOCK_RECORD
  5
84C
100
AcDbSymbolTableRecord
100
AcDbBlockTableRecord
  2
B-40
  0
BLOCK_RECORD
  5
84D
100
AcDbSymbolTableRecord
100
AcDbBlockTableRecord
  2
B-41
  0
BLOCK_RECORD
  5
84E
100
AcDbSymbolTableRecord
100
AcDbBlockTableRecord
  2
B-42
  0
BLOCK_RECORD
  5
84F
100
AcDbSymbolTableRecord
100
AcDbBlockTableRecord
  2
B-43
  0
BLOCK_RECORD
  5
850
100
AcDbSymbolTableRecord
100
AcDbBlockTableRecord
  2
B-44
  0
BLOCK_RECORD
  5
851
100
AcDbSymbolTableRecord
100
AcDbBlockTableRecord
  2
B-45
  0
BLOCK_RECORD
  5
852
100
AcDbSymbolTableRecord
100
AcDbBlockTableRecord
  2
B-46
  0
BLOCK_RECORD
  5
853
100
AcDbSymbolTableRecord
100
AcDbBlockTableRecord
  2
B-47
  0
BLOCK_RECORD
  5
854
100
AcDbSymbolTableRecord
100
AcDbBlockTableRecord
  2
B-49
  0
BLOCK_RECORD
  5
855
100
AcDbSymbolTableRecord
100
AcDbBlockTableRecord
  2
B-50
  0
BLOCK_RECORD
  5
856
100
AcDbSymbolTableRecord
100
AcDbBlockTableRecord
  2
B-51
  0
BLOCK_RECORD
  5
857
100
AcDbSymbolTableRecord
100
AcDbBlockTableRecord
  2
B-52
  0
BLOCK_RECORD
  5
858
100
AcDbSymbolTableRecord
100
AcDbBlockTableRecord
  2
B-53
  0
BLOCK_RECORD
  5
859
100
AcDbSymbolTableRecord
100
AcDbBlockTableRecord
  2
B-54
  0
BLOCK_RECORD
  5
85A
100
AcDbSymbolTableRecord
100
AcDbBlockTableRecord
  2
B-55
  0
BLOCK_RECORD
  5
85B
100
AcDbSymbolTableRecord
100
AcDbBlockTableRecord
  2
B-56
  0
BLOCK_RECORD
  5
85C
100
AcDbSymbolTableRecord
100
AcDbBlockTableRecord
  2
B-57
  0
BLOCK_RECORD
  5
85D
100
AcDbSymbolTableRecord
100
AcDbBlockTableRecord
  2
B-58
  0
BLOCK_RECORD
  5
85E
100
AcDbSymbolTableRecord
100
AcDbBlockTableRecord
  2
B-59
  0
BLOCK_RECORD
  5
85F
100
AcDbSymbolTableRecord
100
AcDbBlockTableRecord
  2
B-60
  0
BLOCK_RECORD
  5
860
100
AcDbSymbolTableRecord
100
AcDbBlockTableRecord
  2
B-61
  0
BLOCK_RECORD
  5
861
100
AcDbSymbolTableRecord
100
AcDbBlockTableRecord
  2
B-62
  0
BLOCK_RECORD
  5
862
100
AcDbSymbolTableRecord
100
AcDbBlockTableRecord
  2
B-63
  0
ENDTAB
  0
ENDSEC
  0
SECTION
  2
BLOCKS
  0
BLOCK
  5
204
100
AcDbEntity
  8
0
100
AcDbBlockBegin
  2
*Model_Space
 70
     0
 10
0.000000
 20
0.000000
 30
0.000000
  3
*Model_Space
  1

  0
ENDBLK
  5
205
100
AcDbEntity
  8
0
100
AcDbBlockEnd
  0
BLOCK
  5
206
100
AcDbEntity
 67
     1
  8
0
100
AcDbBlockBegin
  2
*Paper_Space
 70
     0
 10
0.000000
 20
0.000000
 30
0.000000
  3
*Paper_Space
  1

  0
ENDBLK
  5
207
100
AcDbEntity
 67
     1
  8
0
100
AcDbBlockEnd
  0
BLOCK
  5
208
100
AcDbEntity
 67
     1
  8
0
100
AcDbBlockBegin
  2
*Paper_Space0
 70
     0
 10
0.000000
 20
0.000000
 30
0.000000
  3
*Paper_Space0
  1

  0
ENDBLK
  5
209
100
AcDbEntity
 67
     1
  8
0
100
AcDbBlockEnd
  0
BLOCK
  5
20A
100
AcDbEntity
  8
SCHRAFF
100
AcDbBlockBegin
  2
B
 70
    66
 10
0.000000
 20
0.000000
 30
0.000000
  0
HATCH
  5
20B
100
AcDbEntity
  8
SCHRAFF
 62
     8
440
     0
100
AcDbHatch
 10
0.000000
 20
0.000000
 30
0.000000
210
0.000000
220
0.000000
230
1.000000
  2
SOLID
 70
     1
 71
     1
 91
     1
 92
    18
 72
     1
 73
     0
 93
     5
 10
-82.500034
 20
-60.249922
 42
0.000000
 10
-82.500034
 20
-80.249922
 42
0.000000
 10
-80.000027
 20
-80.249922
 42
0.000000
 10
-80.000027
 20
-60.249922
 42
0.000000
 10
-82.500034
 20
-60.249922
 42
0.000000
 97
     0
 75
     0
 76
     1
 98
     0
  0
ENDBLK
  5
20C
100
AcDbEntity
  8
0
100
AcDbBlockEnd
  0
BLOCK
  5
20D
100
AcDbEntity
  8
SCHRAFF
100
AcDbBlockBegin
  2
B-2
 70
    66
 10
0.000000
 20
0.000000
 30
0.000000
  0
IMAGE
  5
20E
100
AcDbEntity
  8
SCHRAFF
100
AcDbRasterImage
 10
140.969928
 20
-349.249941
 30
0.000000
 11
0.204938
 21
-0.000000
 31
0.000000
 12
-0.000000
 22
0.204938
 32
-0.000000
 13
395.000000
 23
405.000000
340
20F
 70
     7
280
     0
281
    50
282
    50
283
     0
360
210
 71
     1
 91
     2
 14
-0.500000
 24
-0.500000
 14
394.500000
 24
404.500000
  0
ENDBLK
  5
211
100
AcDbEntity
  8
0
100
AcDbBlockEnd
  0
BLOCK
  5
212
100
AcDbEntity
  8
SCHRAFF
100
AcDbBlockBegin
  2
B-3
 70
    66
 10
0.000000
 20
0.000000
 30
0.000000
  0
HATCH
  5
213
100
AcDbEntity
  8
SCHRAFF
 62
    21
440
     0
100
AcDbHatch
 10
0.000000
 20
0.000000
 30
0.000000
210
0.000000
220
0.000000
230
1.000000
  2
SOLID
 70
     1
 71
     1
 91
     1
 92
    18
 72
     1
 73
     0
 93
   483
 10
12.499982
 20
-70.249922
 42
0.000000
 10
-77.500018
 20
-70.249922
 42
0.000000
 10
-80.000027
 20
-70.249922
 42
0.000000
 10
-80.000027
 20
-80.249922
 42
0.000000
 10
-77.500018
 20
-80.249922
 42
0.000000
 10
-76.500018
 20
-80.749922
 42
0.000000
 10
-75.500018
 20
-80.249922
 42
0.000000
 10
-74.500018
 20
-80.249922
 42
0.000000
 10
-73.500018
 20
-79.749922
 42
0.000000
 10
-72.500018
 20
-80.249922
 42
0.000000
 10
-71.500018
 20
-80.249922
 42
0.000000
 10
-70.500018
 20
-80.749922
 42
0.000000
 10
-69.500018
 20
-80.249922
 42
0.000000
 10
-68.500018
 20
-80.249922
 42
0.000000
 10
-67.500018
 20
-79.749922
 42
0.000000
 10
-66.500018
 20
-80.249922
 42
0.000000
 10
-65.500018
 20
-80.249922
 42
0.000000
 10
-64.500018
 20
-80.749922
 42
0.000000
 10
-63.500018
 20
-80.249922
 42
0.000000
 10
-62.500018
 20
-80.249922
 42
0.000000
 10
-61.500018
 20
-79.749922
 42
0.000000
 10
-60.500018
 20
-80.249922
 42
0.000000
 10
-59.500018
 20
-80.249922
 42
0.000000
 10
-58.500018
 20
-80.749922
 42
0.000000
 10
-57.500018
 20
-80.249922
 42
0.000000
 10
-56.500018
 20
-80.249922
 42
0.000000
 10
-55.500018
 20
-79.749922
 42
0.000000
 10
-54.500018
 20
-80.249922
 42
0.000000
 10
-53.500018
 20
-80.249922
 42
0.000000
 10
-52.500018
 20
-80.749922
 42
0.000000
 10
-51.500018
 20
-80.249922
 42
0.000000
 10
-50.500018
 20
-80.249922
 42
0.000000
 10
-49.500018
 20
-79.749922
 42
0.000000
 10
-48.500018
 20
-80.249922
 42
0.000000
 10
-47.500018
 20
-80.249922
 42
0.000000
 10
-46.500018
 20
-80.749922
 42
0.000000
 10
-45.500018
 20
-80.249922
 42
0.000000
 10
-44.500018
 20
-80.249922
 42
0.000000
 10
-43.500018
 20
-79.749922
 42
0.000000
 10
-42.500018
 20
-80.249922
 42
0.000000
 10
-41.500018
 20
-80.249922
 42
0.000000
 10
-40.500018
 20
-80.749922
 42
0.000000
 10
-39.500018
 20
-80.249922
 42
0.000000
 10
-38.500018
 20
-80.249922
 42
0.000000
 10
-37.500018
 20
-79.749922
 42
0.000000
 10
-36.500018
 20
-80.249922
 42
0.000000
 10
-35.500018
 20
-80.249922
 42
0.000000
 10
-34.500018
 20
-80.749922
 42
0.000000
 10
-33.500018
 20
-80.249922
 42
0.000000
 10
-32.500018
 20
-80.249922
 42
0.000000
 10
-31.500018
 20
-79.749922
 42
0.000000
 10
-30.500018
 20
-80.249922
 42
0.000000
 10
-29.500018
 20
-80.249922
 42
0.000000
 10
-28.500018
 20
-80.749922
 42
0.000000
 10
-27.500018
 20
-80.249922
 42
0.000000
 10
-26.500018
 20
-80.249922
 42
0.000000
 10
-25.500018
 20
-79.749922
 42
0.000000
 10
-24.500018
 20
-80.249922
 42
0.000000
 10
-23.500018
 20
-80.249922
 42
0.000000
 10
-22.500018
 20
-80.749922
 42
0.000000
 10
-21.500018
 20
-80.249922
 42
0.000000
 10
-20.500018
 20
-80.249922
 42
0.000000
 10
-19.500018
 20
-79.749922
 42
0.000000
 10
-18.500018
 20
-80.249922
 42
0.000000
 10
-17.500018
 20
-80.249922
 42
0.000000
 10
-16.500018
 20
-80.749922
 42
0.000000
 10
-15.500018
 20
-80.249922
 42
0.000000
 10
-14.500018
 20
-80.249922
 42
0.000000
 10
-13.500018
 20
-79.749922
 42
0.000000
 10
-12.500018
 20
-80.249922
 42
0.000000
 10
-11.500018
 20
-80.249922
 42
0.000000
 10
-10.500018
 20
-80.749922
 42
0.000000
 10
-9.492351
 20
-80.249922
 42
0.000000
 10
-8.500018
 20
-80.249922
 42
0.000000
 10
-7.500018
 20
-79.749922
 42
0.000000
 10
-6.500018
 20
-80.249922
 42
0.000000
 10
-5.500018
 20
-80.249922
 42
0.000000
 10
-4.500018
 20
-80.749922
 42
0.000000
 10
-3.500018
 20
-80.249922
 42
0.000000
 10
-2.500018
 20
-80.249922
 42
0.000000
 10
-1.500018
 20
-79.749922
 42
0.000000
 10
-0.500018
 20
-80.249922
 42
0.000000
 10
0.499982
 20
-80.249922
 42
0.000000
 10
1.499982
 20
-80.749922
 42
0.000000
 10
2.499982
 20
-80.249922
 42
0.000000
 10
3.499982
 20
-80.249922
 42
0.000000
 10
4.499982
 20
-79.749922
 42
0.000000
 10
5.499982
 20
-80.249922
 42
0.000000
 10
6.499982
 20
-80.249922
 42
0.000000
 10
7.499982
 20
-80.749922
 42
0.000000
 10
8.499982
 20
-80.249922
 42
0.000000
 10
9.499982
 20
-80.249922
 42
0.000000
 10
10.499982
 20
-79.749922
 42
0.000000
 10
11.499982
 20
-80.249922
 42
0.000000
 10
12.499982
 20
-80.249922
 42
0.000000
 10
13.499982
 20
-80.749922
 42
0.000000
 10
14.499982
 20
-80.249922
 42
0.000000
 10
15.499982
 20
-80.249922
 42
0.000000
 10
16.499982
 20
-79.749922
 42
0.000000
 10
17.499982
 20
-80.249922
 42
0.000000
 10
18.499982
 20
-80.249922
 42
0.000000
 10
19.499982
 20
-80.749922
 42
0.000000
 10
20.499982
 20
-80.249922
 42
0.000000
 10
22.499982
 20
-80.249922
 42
0.000000
 10
22.499982
 20
-79.249922
 42
0.000000
 10
22.499982
 20
-78.249922
 42
0.000000
 10
22.999982
 20
-77.249922
 42
0.000000
 10
22.499982
 20
-76.249922
 42
0.000000
 10
22.499982
 20
-75.249922
 42
0.000000
 10
21.999982
 20
-74.249922
 42
0.000000
 10
22.499982
 20
-73.249922
 42
0.000000
 10
22.499982
 20
-72.257589
 42
0.000000
 10
22.999982
 20
-71.249922
 42
0.000000
 10
22.499982
 20
-70.249922
 42
0.000000
 10
22.499982
 20
-69.249922
 42
0.000000
 10
21.999982
 20
-68.249922
 42
0.000000
 10
22.499982
 20
-67.249922
 42
0.000000
 10
22.499982
 20
-66.249922
 42
0.000000
 10
22.999982
 20
-65.249922
 42
0.000000
 10
22.499982
 20
-64.249922
 42
0.000000
 10
22.499982
 20
-63.249922
 42
0.000000
 10
21.999982
 20
-62.249922
 42
0.000000
 10
22.499982
 20
-61.249922
 42
0.000000
 10
22.499982
 20
-60.257589
 42
0.000000
 10
22.999982
 20
-59.249922
 42
0.000000
 10
22.499982
 20
-58.249922
 42
0.000000
 10
22.499982
 20
-57.249922
 42
0.000000
 10
21.999982
 20
-56.249922
 42
0.000000
 10
22.499982
 20
-55.249922
 42
0.000000
 10
22.499982
 20
-54.249922
 42
0.000000
 10
22.999982
 20
-53.249922
 42
0.000000
 10
22.499982
 20
-52.249922
 42
0.000000
 10
22.499982
 20
-51.249922
 42
0.000000
 10
21.999982
 20
-50.249922
 42
0.000000
 10
22.499982
 20
-49.249922
 42
0.000000
 10
22.499982
 20
-48.249922
 42
0.000000
 10
22.999982
 20
-47.249922
 42
0.000000
 10
22.499982
 20
-46.249922
 42
0.000000
 10
22.499982
 20
-45.249922
 42
0.000000
 10
21.999982
 20
-44.249922
 42
0.000000
 10
22.499982
 20
-43.249922
 42
0.000000
 10
22.499982
 20
-42.249922
 42
0.000000
 10
22.999982
 20
-41.249922
 42
0.000000
 10
22.499982
 20
-40.249922
 42
0.000000
 10
22.499982
 20
-39.249922
 42
0.000000
 10
21.999982
 20
-38.249922
 42
0.000000
 10
22.499982
 20
-37.249922
 42
0.000000
 10
22.499982
 20
-36.249922
 42
0.000000
 10
22.999982
 20
-35.249922
 42
0.000000
 10
22.499982
 20
-34.249922
 42
0.000000
 10
22.499982
 20
-33.249922
 42
0.000000
 10
21.999982
 20
-32.249922
 42
0.000000
 10
22.499982
 20
-31.249922
 42
0.000000
 10
22.499982
 20
-30.249922
 42
0.000000
 10
22.999982
 20
-29.249922
 42
0.000000
 10
22.499982
 20
-28.249922
 42
0.000000
 10
22.499982
 20
-27.249922
 42
0.000000
 10
21.999982
 20
-26.249922
 42
0.000000
 10
22.499982
 20
-25.249922
 42
0.000000
 10
22.499982
 20
-24.249922
 42
0.000000
 10
22.999982
 20
-23.249922
 42
0.000000
 10
22.499982
 20
-22.249922
 42
0.000000
 10
22.499982
 20
-21.249922
 42
0.000000
 10
21.999982
 20
-20.249922
 42
0.000000
 10
22.499982
 20
-19.249922
 42
0.000000
 10
22.499982
 20
-18.249922
 42
0.000000
 10
22.999982
 20
-17.249922
 42
0.000000
 10
22.499982
 20
-16.249922
 42
0.000000
 10
22.499982
 20
-15.249922
 42
0.000000
 10
21.999982
 20
-14.249922
 42
0.000000
 10
22.499982
 20
-13.249922
 42
0.000000
 10
22.499982
 20
-12.249922
 42
0.000000
 10
22.999982
 20
-11.249922
 42
0.000000
 10
22.499982
 20
-10.249922
 42
0.000000
 10
22.499982
 20
-9.249922
 42
0.000000
 10
21.999982
 20
-8.249922
 42
0.000000
 10
22.499982
 20
-7.249922
 42
0.000000
 10
22.499982
 20
-6.249922
 42
0.000000
 10
22.999982
 20
-5.249922
 42
0.000000
 10
22.499982
 20
-4.249922
 42
0.000000
 10
22.499982
 20
-3.249922
 42
0.000000
 10
21.999982
 20
-2.249922
 42
0.000000
 10
22.499982
 20
-1.249922
 42
0.000000
 10
22.499982
 20
-0.249922
 42
0.000000
 10
22.999982
 20
0.750078
 42
0.000000
 10
22.499982
 20
1.750078
 42
0.000000
 10
22.499982
 20
2.750078
 42
0.000000
 10
21.999982
 20
3.750078
 42
0.000000
 10
22.499982
 20
4.750078
 42
0.000000
 10
22.499982
 20
5.750078
 42
0.000000
 10
22.999982
 20
6.750078
 42
0.000000
 10
22.499982
 20
7.750078
 42
0.000000
 10
22.499982
 20
8.750078
 42
0.000000
 10
21.999982
 20
9.750078
 42
0.000000
 10
22.499982
 20
10.750078
 42
0.000000
 10
22.499982
 20
11.750078
 42
0.000000
 10
22.999982
 20
12.750078
 42
0.000000
 10
22.499982
 20
13.750078
 42
0.000000
 10
22.499982
 20
14.750078
 42
0.000000
 10
21.999982
 20
15.750078
 42
0.000000
 10
22.499982
 20
16.750078
 42
0.000000
 10
22.499982
 20
17.750078
 42
0.000000
 10
22.999982
 20
18.750078
 42
0.000000
 10
22.499982
 20
19.750078
 42
0.000000
 10
22.499982
 20
20.750078
 42
0.000000
 10
21.999982
 20
21.750078
 42
0.000000
 10
22.499982
 20
22.750078
 42
0.000000
 10
22.499982
 20
23.750078
 42
0.000000
 10
22.999982
 20
24.750078
 42
0.000000
 10
22.499982
 20
25.750078
 42
0.000000
 10
22.499982
 20
26.750078
 42
0.000000
 10
21.999982
 20
27.750078
 42
0.000000
 10
22.499982
 20
28.750078
 42
0.000000
 10
22.499982
 20
29.750078
 42
0.000000
 10
22.999982
 20
30.750078
 42
0.000000
 10
22.499982
 20
31.750078
 42
0.000000
 10
22.499982
 20
32.750078
 42
0.000000
 10
21.999982
 20
33.750078
 42
0.000000
 10
22.499982
 20
34.750078
 42
0.000000
 10
22.499982
 20
35.750078
 42
0.000000
 10
22.999982
 20
36.750078
 42
0.000000
 10
22.499982
 20
37.750078
 42
0.000000
 10
22.499982
 20
38.750078
 42
0.000000
 10
21.999982
 20
39.750078
 42
0.000000
 10
22.499982
 20
40.750078
 42
0.000000
 10
22.499982
 20
41.750078
 42
0.000000
 10
22.999982
 20
42.750078
 42
0.000000
 10
22.499982
 20
43.750078
 42
0.000000
 10
22.499982
 20
44.750078
 42
0.000000
 10
21.999982
 20
45.750078
 42
0.000000
 10
22.499982
 20
46.750078
 42
0.000000
 10
22.499982
 20
47.750078
 42
0.000000
 10
22.999982
 20
48.750078
 42
0.000000
 10
22.499982
 20
49.750078
 42
0.000000
 10
22.499982
 20
50.750078
 42
0.000000
 10
21.999982
 20
51.750078
 42
0.000000
 10
22.499982
 20
52.750078
 42
0.000000
 10
22.499982
 20
53.750078
 42
0.000000
 10
22.999982
 20
54.750078
 42
0.000000
 10
22.499982
 20
55.750078
 42
0.000000
 10
22.499982
 20
56.750078
 42
0.000000
 10
21.999982
 20
57.750078
 42
0.000000
 10
22.499982
 20
58.750078
 42
0.000000
 10
22.499982
 20
59.750078
 42
0.000000
 10
22.999982
 20
60.750078
 42
0.000000
 10
22.499982
 20
61.750078
 42
0.000000
 10
22.499982
 20
62.750078
 42
0.000000
 10
21.999982
 20
63.750078
 42
0.000000
 10
22.499982
 20
64.750078
 42
0.000000
 10
22.499982
 20
65.750078
 42
0.000000
 10
22.999982
 20
66.750078
 42
0.000000
 10
22.499982
 20
67.750078
 42
0.000000
 10
22.499982
 20
68.750078
 42
0.000000
 10
21.999982
 20
69.750078
 42
0.000000
 10
22.499982
 20
70.750078
 42
0.000000
 10
22.499982
 20
71.750078
 42
0.000000
 10
22.999982
 20
72.750078
 42
0.000000
 10
22.499982
 20
73.750078
 42
0.000000
 10
22.499982
 20
74.750078
 42
0.000000
 10
21.999982
 20
75.750078
 42
0.000000
 10
22.499982
 20
76.750078
 42
0.000000
 10
22.499982
 20
77.742411
 42
0.000000
 10
22.999982
 20
78.750078
 42
0.000000
 10
22.499982
 20
79.750078
 42
0.000000
 10
22.499982
 20
80.750078
 42
0.000000
 10
21.999982
 20
81.750078
 42
0.000000
 10
22.499982
 20
82.750078
 42
0.000000
 10
22.499982
 20
83.750078
 42
0.000000
 10
22.999982
 20
84.750078
 42
0.000000
 10
22.499982
 20
85.750078
 42
0.000000
 10
22.499982
 20
86.750078
 42
0.000000
 10
21.999982
 20
87.750078
 42
0.000000
 10
22.499982
 20
88.750078
 42
0.000000
 10
22.499982
 20
89.750078
 42
0.000000
 10
22.999982
 20
90.750078
 42
0.000000
 10
22.499982
 20
91.750078
 42
0.000000
 10
22.499982
 20
92.750078
 42
0.000000
 10
21.999982
 20
93.750078
 42
0.000000
 10
22.499982
 20
94.750078
 42
0.000000
 10
22.499982
 20
95.750078
 42
0.000000
 10
22.999982
 20
96.750078
 42
0.000000
 10
22.499982
 20
97.750078
 42
0.000000
 10
22.499982
 20
98.750078
 42
0.000000
 10
21.999982
 20
99.750078
 42
0.000000
 10
22.499982
 20
100.750078
 42
0.000000
 10
22.499982
 20
101.750078
 42
0.000000
 10
22.999982
 20
102.750078
 42
0.000000
 10
22.499982
 20
103.750078
 42
0.000000
 10
22.499982
 20
104.750078
 42
0.000000
 10
21.999982
 20
105.750078
 42
0.000000
 10
22.499982
 20
106.750078
 42
0.000000
 10
22.499982
 20
107.750078
 42
0.000000
 10
22.999982
 20
108.750078
 42
0.000000
 10
22.504380
 20
109.741282
 42
0.000000
 10
22.499982
 20
110.750078
 42
0.000000
 10
21.999982
 20
111.750078
 42
0.000000
 10
22.499982
 20
112.750078
 42
0.000000
 10
22.499982
 20
113.750078
 42
0.000000
 10
22.999982
 20
114.750078
 42
0.000000
 10
22.499982
 20
115.750078
 42
0.000000
 10
22.499982
 20
116.750078
 42
0.000000
 10
21.999982
 20
117.750078
 42
0.000000
 10
22.499982
 20
118.750078
 42
0.000000
 10
22.499982
 20
119.750078
 42
0.000000
 10
22.999982
 20
120.750078
 42
0.000000
 10
22.499982
 20
121.750078
 42
0.000000
 10
22.499982
 20
122.750078
 42
0.000000
 10
21.999982
 20
123.750078
 42
0.000000
 10
22.499982
 20
124.750078
 42
0.000000
 10
22.499982
 20
125.750078
 42
0.000000
 10
22.999982
 20
126.750078
 42
0.000000
 10
22.499982
 20
127.750078
 42
0.000000
 10
22.499982
 20
128.750078
 42
0.000000
 10
21.999982
 20
129.750078
 42
0.000000
 10
22.499982
 20
130.750078
 42
0.000000
 10
22.499982
 20
131.750078
 42
0.000000
 10
22.999982
 20
132.750078
 42
0.000000
 10
22.499982
 20
133.750078
 42
0.000000
 10
22.499982
 20
134.750078
 42
0.000000
 10
21.999982
 20
135.750078
 42
0.000000
 10
22.499982
 20
136.750078
 42
0.000000
 10
22.499982
 20
137.750078
 42
0.000000
 10
22.999982
 20
138.750078
 42
0.000000
 10
22.499982
 20
139.750078
 42
0.000000
 10
22.499982
 20
140.750078
 42
0.000000
 10
21.999982
 20
141.750078
 42
0.000000
 10
22.499982
 20
142.750078
 42
0.000000
 10
22.499982
 20
143.750078
 42
0.000000
 10
22.999982
 20
144.750078
 42
0.000000
 10
22.499982
 20
145.750078
 42
0.000000
 10
22.499982
 20
146.750078
 42
0.000000
 10
21.999982
 20
147.750078
 42
0.000000
 10
22.499982
 20
148.750078
 42
0.000000
 10
22.499982
 20
149.750078
 42
0.000000
 10
22.999982
 20
150.750078
 42
0.000000
 10
22.499982
 20
151.750078
 42
0.000000
 10
22.499982
 20
152.750078
 42
0.000000
 10
21.999982
 20
153.750078
 42
0.000000
 10
22.499982
 20
154.750078
 42
0.000000
 10
22.499982
 20
155.750078
 42
0.000000
 10
22.999982
 20
156.750078
 42
0.000000
 10
22.499982
 20
157.750078
 42
0.000000
 10
22.499982
 20
158.750078
 42
0.000000
 10
21.999982
 20
159.750078
 42
0.000000
 10
22.499982
 20
160.750078
 42
0.000000
 10
22.499982
 20
161.750078
 42
0.000000
 10
22.999982
 20
162.750078
 42
0.000000
 10
22.499982
 20
163.750078
 42
0.000000
 10
22.499982
 20
164.750078
 42
0.000000
 10
21.999982
 20
165.750078
 42
0.000000
 10
22.499982
 20
166.750078
 42
0.000000
 10
22.499982
 20
167.750078
 42
0.000000
 10
22.999982
 20
168.750078
 42
0.000000
 10
22.499982
 20
169.750078
 42
0.000000
 10
22.499982
 20
170.750078
 42
0.000000
 10
21.999982
 20
171.750078
 42
0.000000
 10
22.499982
 20
172.750078
 42
0.000000
 10
22.499982
 20
173.750078
 42
0.000000
 10
22.999982
 20
174.750078
 42
0.000000
 10
22.499982
 20
175.750078
 42
0.000000
 10
22.499982
 20
176.750078
 42
0.000000
 10
21.999982
 20
177.750078
 42
0.000000
 10
22.499982
 20
178.750078
 42
0.000000
 10
22.499982
 20
179.750078
 42
0.000000
 10
22.999982
 20
180.750078
 42
0.000000
 10
22.499982
 20
181.750078
 42
0.000000
 10
22.499982
 20
182.750078
 42
0.000000
 10
21.999982
 20
183.750078
 42
0.000000
 10
22.499982
 20
184.750078
 42
0.000000
 10
22.499982
 20
185.742411
 42
0.000000
 10
22.999982
 20
186.750078
 42
0.000000
 10
22.499982
 20
187.750078
 42
0.000000
 10
22.499982
 20
188.750078
 42
0.000000
 10
21.999982
 20
189.750078
 42
0.000000
 10
22.499982
 20
190.750078
 42
0.000000
 10
22.499982
 20
191.750078
 42
0.000000
 10
22.999982
 20
192.750078
 42
0.000000
 10
22.499982
 20
193.750078
 42
0.000000
 10
22.499982
 20
194.750078
 42
0.000000
 10
21.999982
 20
195.750078
 42
0.000000
 10
22.499982
 20
196.750078
 42
0.000000
 10
22.499982
 20
197.750078
 42
0.000000
 10
22.999982
 20
198.750078
 42
0.000000
 10
22.499982
 20
199.750078
 42
0.000000
 10
22.499982
 20
200.750078
 42
0.000000
 10
21.999982
 20
201.750078
 42
0.000000
 10
22.499982
 20
202.750078
 42
0.000000
 10
22.499982
 20
203.750078
 42
0.000000
 10
22.999982
 20
204.750078
 42
0.000000
 10
22.499982
 20
205.750078
 42
0.000000
 10
22.499982
 20
206.750078
 42
0.000000
 10
21.999982
 20
207.750078
 42
0.000000
 10
22.499982
 20
208.750078
 42
0.000000
 10
22.499982
 20
209.750078
 42
0.000000
 10
22.999982
 20
210.750078
 42
0.000000
 10
22.499982
 20
211.750078
 42
0.000000
 10
22.499982
 20
212.750078
 42
0.000000
 10
21.999982
 20
213.750078
 42
0.000000
 10
22.499982
 20
214.750078
 42
0.000000
 10
22.499982
 20
215.750078
 42
0.000000
 10
22.999982
 20
216.750078
 42
0.000000
 10
22.499982
 20
217.750078
 42
0.000000
 10
22.499982
 20
218.750078
 42
0.000000
 10
21.999982
 20
219.750078
 42
0.000000
 10
22.499982
 20
220.750078
 42
0.000000
 10
22.499982
 20
221.742411
 42
0.000000
 10
22.999982
 20
222.750078
 42
0.000000
 10
22.499982
 20
223.750078
 42
0.000000
 10
22.499982
 20
224.750078
 42
0.000000
 10
21.999982
 20
225.750078
 42
0.000000
 10
22.499982
 20
226.750078
 42
0.000000
 10
22.499982
 20
227.750078
 42
0.000000
 10
22.999982
 20
228.750078
 42
0.000000
 10
22.499982
 20
229.750078
 42
0.000000
 10
22.499982
 20
230.750078
 42
0.000000
 10
21.999982
 20
231.750078
 42
0.000000
 10
22.499982
 20
232.750078
 42
0.000000
 10
22.499982
 20
233.749978
 42
0.000000
 10
22.999982
 20
234.749978
 42
0.000000
 10
22.499982
 20
235.750078
 42
0.000000
 10
22.499982
 20
236.750078
 42
0.000000
 10
21.999982
 20
237.750078
 42
0.000000
 10
22.499982
 20
238.750078
 42
0.000000
 10
22.499982
 20
239.750078
 42
0.000000
 10
22.999982
 20
240.750078
 42
0.000000
 10
22.499982
 20
241.750078
 42
0.000000
 10
22.499982
 20
242.750078
 42
0.000000
 10
21.999982
 20
243.750078
 42
0.000000
 10
22.499982
 20
244.750078
 42
0.000000
 10
22.499982
 20
245.750078
 42
0.000000
 10
22.999982
 20
246.750078
 42
0.000000
 10
22.499982
 20
247.750078
 42
0.000000
 10
22.499982
 20
248.736071
 42
0.000000
 10
21.999982
 20
249.750078
 42
0.000000
 10
22.499982
 20
250.750078
 42
0.000000
 10
22.499982
 20
251.742411
 42
0.000000
 10
22.999982
 20
252.750078
 42
0.000000
 10
22.499982
 20
253.750078
 42
0.000000
 10
22.499982
 20
254.750078
 42
0.000000
 10
21.999982
 20
255.750078
 42
0.000000
 10
22.499982
 20
256.750078
 42
0.000000
 10
22.499982
 20
257.750078
 42
0.000000
 10
22.999982
 20
258.750078
 42
0.000000
 10
22.499982
 20
259.750078
 42
0.000000
 10
22.499982
 20
260.750078
 42
0.000000
 10
21.999982
 20
261.750078
 42
0.000000
 10
22.499982
 20
262.750078
 42
0.000000
 10
22.499982
 20
263.750078
 42
0.000000
 10
22.999982
 20
264.750078
 42
0.000000
 10
22.499982
 20
265.750078
 42
0.000000
 10
22.499982
 20
266.750078
 42
0.000000
 10
21.999982
 20
267.750078
 42
0.000000
 10
22.499982
 20
268.750078
 42
0.000000
 10
22.499982
 20
269.750078
 42
0.000000
 10
22.999982
 20
270.750078
 42
0.000000
 10
22.499982
 20
271.750078
 42
0.000000
 10
22.499982
 20
272.750078
 42
0.000000
 10
21.999982
 20
273.750078
 42
0.000000
 10
22.499982
 20
274.750078
 42
0.000000
 10
22.499982
 20
275.750078
 42
0.000000
 10
22.999982
 20
276.750078
 42
0.000000
 10
22.499982
 20
277.750078
 42
0.000000
 10
22.499982
 20
278.750078
 42
0.000000
 10
21.999982
 20
279.750078
 42
0.000000
 10
22.499982
 20
280.750078
 42
0.000000
 10
22.499982
 20
281.750078
 42
0.000000
 10
22.999982
 20
282.750078
 42
0.000000
 10
22.499982
 20
283.750078
 42
0.000000
 10
22.499982
 20
284.750078
 42
0.000000
 10
21.999982
 20
285.750078
 42
0.000000
 10
22.499982
 20
286.750078
 42
0.000000
 10
22.499982
 20
287.742411
 42
0.000000
 10
22.999982
 20
288.750078
 42
0.000000
 10
22.499982
 20
289.750078
 42
0.000000
 10
22.499982
 20
290.750078
 42
0.000000
 10
21.999982
 20
291.750078
 42
0.000000
 10
22.499982
 20
292.750078
 42
0.000000
 10
22.499982
 20
293.750078
 42
0.000000
 10
22.999982
 20
294.750078
 42
0.000000
 10
22.499982
 20
295.750078
 42
0.000000
 10
22.499982
 20
296.250078
 42
0.000000
 10
12.499982
 20
296.250078
 42
0.000000
 10
12.499982
 20
-70.249922
 42
0.000000
 97
     0
 75
     0
 76
     1
 98
     0
  0
ENDBLK
  5
214
100
AcDbEntity
  8
0
100
AcDbBlockEnd
  0
BLOCK
  5
215
100
AcDbEntity
  8
SCHRAFF
100
AcDbBlockBegin
  2
B-4
 70
    66
 10
0.000000
 20
0.000000
 30
0.000000
  0
HATCH
  5
216
100
AcDbEntity
  8
SCHRAFF
 62
    51
440
     0
100
AcDbHatch
 10
0.000000
 20
0.000000
 30
0.000000
210
0.000000
220
0.000000
230
1.000000
  2
SOLID
 70
     1
 71
     1
 91
     1
 92
    18
 72
     1
 73
     0
 93
     5
 10
-17.514215
 20
9.750078
 42
0.000000
 10
2.499982
 20
9.750078
 42
0.000000
 10
2.499982
 20
69.750078
 42
0.000000
 10
-17.514215
 20
69.750078
 42
0.000000
 10
-17.514215
 20
9.750078
 42
0.000000
 97
     0
 75
     0
 76
     1
 98
     0
  0
ENDBLK
  5
217
100
AcDbEntity
  8
0
100
AcDbBlockEnd
  0
BLOCK
  5
218
100
AcDbEntity
  8
SCHRAFF
100
AcDbBlockBegin
  2
B-5
 70
    66
 10
0.000000
 20
0.000000
 30
0.000000
  0
HATCH
  5
219
100
AcDbEntity
  8
SCHRAFF
  6
CONTINUOUS
 62
     9
100
AcDbHatch
 10
0.000000
 20
0.000000
 30
0.000000
210
0.000000
220
0.000000
230
1.000000
  2
_U
 70
     0
 71
     1
 91
     1
 92
    18
 72
     1
 73
     0
 93
     5
 10
-17.514215
 20
9.750078
 42
0.000000
 10
2.499982
 20
9.750078
 42
0.000000
 10
2.499982
 20
69.750078
 42
0.000000
 10
-17.514215
 20
69.750078
 42
0.000000
 10
-17.514215
 20
9.750078
 42
0.000000
 97
     0
 75
     0
 76
     0
 52
0.000000
 41
1.000000
 77
     0
 78
     1
 53
90.000000
 43
-0.000000
 44
0.000000
 45
-6.875000
 46
0.000000
 79
     0
 98
     0
  0
ENDBLK
  5
21A
100
AcDbEntity
  8
0
100
AcDbBlockEnd
  0
BLOCK
  5
21B
100
AcDbEntity
  8
SCHRAFF
100
AcDbBlockBegin
  2
B-6
 70
    66
 10
0.000000
 20
0.000000
 30
0.000000
  0
HATCH
  5
21C
100
AcDbEntity
  8
SCHRAFF
 62
   254
440
     0
100
AcDbHatch
 10
0.000000
 20
0.000000
 30
0.000000
210
0.000000
220
0.000000
230
1.000000
  2
SOLID
 70
     1
 71
     1
 91
     1
 92
    18
 72
     1
 73
     0
 93
     5
 10
-82.500018
 20
-25.249922
 42
0.000000
 10
-77.500018
 20
-25.249922
 42
0.000000
 10
-77.500018
 20
296.250078
 42
0.000000
 10
-82.500018
 20
296.250078
 42
0.000000
 10
-82.500018
 20
-25.249922
 42
0.000000
 97
     0
 75
     0
 76
     1
 98
     0
  0
HATCH
  5
21D
100
AcDbEntity
  8
SCHRAFF
 62
     9
440
     0
100
AcDbHatch
 10
0.000000
 20
0.000000
 30
0.000000
210
0.000000
220
0.000000
230
1.000000
  2
SOLID
 70
     1
 71
     1
 91
     1
 92
    18
 72
     1
 73
     0
 93
     7
 10
-80.000034
 20
-70.249922
 42
0.000000
 10
12.499982
 20
-70.249922
 42
0.000000
 10
12.499982
 20
296.250078
 42
0.000000
 10
2.499982
 20
296.250078
 42
0.000000
 10
2.499982
 20
-60.249922
 42
0.000000
 10
-80.000034
 20
-60.249922
 42
0.000000
 10
-80.000034
 20
-70.249922
 42
0.000000
 97
     0
 75
     0
 76
     1
 98
     0
  0
ENDBLK
  5
21E
100
AcDbEntity
  8
0
100
AcDbBlockEnd
  0
BLOCK
  5
21F
100
AcDbEntity
  8
SCHRAFF
100
AcDbBlockBegin
  2
B-7
 70
    66
 10
0.000000
 20
0.000000
 30
0.000000
  0
HATCH
  5
220
100
AcDbEntity
  8
SCHRAFF
 62
    51
440
     0
100
AcDbHatch
 10
0.000000
 20
0.000000
 30
0.000000
210
0.000000
220
0.000000
230
1.000000
  2
SOLID
 70
     1
 71
     1
 91
     1
 92
    18
 72
     1
 73
     0
 93
     9
 10
-77.500018
 20
-60.249922
 42
0.000000
 10
2.499982
 20
-60.249922
 42
0.000000
 10
2.499982
 20
9.750078
 42
0.000000
 10
-17.514215
 20
9.750078
 42
0.000000
 10
-17.514215
 20
69.750078
 42
0.000000
 10
2.499982
 20
69.750078
 42
0.000000
 10
2.499982
 20
296.250078
 42
0.000000
 10
-77.500018
 20
296.250078
 42
0.000000
 10
-77.500018
 20
-60.249922
 42
0.000000
 97
     0
 75
     0
 76
     1
 98
     0
  0
ENDBLK
  5
221
100
AcDbEntity
  8
0
100
AcDbBlockEnd
  0
BLOCK
  5
222
100
AcDbEntity
  8
Detail
100
AcDbBlockBegin
  2
B-8
 70
    66
 10
0.000000
 20
0.000000
 30
0.000000
  0
LWPOLYLINE
  5
223
100
AcDbEntity
  8
Detail
  6
CONTINUOUS
 62
     6
100
AcDbPolyline
 90
     4
 10
-82.500018
 20
296.250078
 42
0.000000
 10
-82.500018
 20
-25.249922
 42
0.000000
 10
-77.500018
 20
-25.249922
 42
0.000000
 10
-77.500018
 20
296.250078
 42
0.000000
  0
ENDBLK
  5
228
100
AcDbEntity
  8
0
100
AcDbBlockEnd
  0
BLOCK
  5
229
100
AcDbEntity
  8
Detail
100
AcDbBlockBegin
  2
B-9
 70
    66
 10
0.000000
 20
0.000000
 30
0.000000
  0
LWPOLYLINE
  5
22A
100
AcDbEntity
  8
Detail
  6
CONTINUOUS
 62
     6
100
AcDbPolyline
 90
     6
 10
2.499982
 20
296.250078
 42
0.000000
 10
2.499982
 20
-60.249922
 42
0.000000
 10
-80.000034
 20
-60.249922
 42
0.000000
 10
-80.000034
 20
-70.249922
 42
0.000000
 10
12.499982
 20
-70.249922
 42
0.000000
 10
12.499982
 20
296.250078
 42
0.000000
  0
ENDBLK
  5
231
100
AcDbEntity
  8
0
100
AcDbBlockEnd
  0
BLOCK
  5
232
100
AcDbEntity
  8
SCHRAFF
100
AcDbBlockBegin
  2
B-10
 70
    66
 10
0.000000
 20
0.000000
 30
0.000000
  0
HATCH
  5
233
100
AcDbEntity
  8
SCHRAFF
  6
CONTINUOUS
 62
     9
100
AcDbHatch
 10
0.000000
 20
0.000000
 30
0.000000
210
0.000000
220
0.000000
230
1.000000
  2
_U
 70
     0
 71
     1
 91
     1
 92
    18
 72
     1
 73
     0
 93
     9
 10
-77.500018
 20
-60.249922
 42
0.000000
 10
2.499982
 20
-60.249922
 42
0.000000
 10
2.499982
 20
9.750078
 42
0.000000
 10
-17.514215
 20
9.750078
 42
0.000000
 10
-17.514215
 20
69.750078
 42
0.000000
 10
2.499982
 20
69.750078
 42
0.000000
 10
2.499982
 20
296.250078
 42
0.000000
 10
-77.500018
 20
296.250078
 42
0.000000
 10
-77.500018
 20
-60.249922
 42
0.000000
 97
     0
 75
     0
 76
     0
 52
0.000000
 41
1.000000
 77
     0
 78
     1
 53
90.000000
 43
-0.000000
 44
0.000000
 45
-13.750000
 46
0.000000
 79
     0
 98
     0
  0
ENDBLK
  5
234
100
AcDbEntity
  8
0
100
AcDbBlockEnd
  0
BLOCK
  5
235
100
AcDbEntity
  8
SCHRAFF
100
AcDbBlockBegin
  2
B-11
 70
    66
 10
0.000000
 20
0.000000
 30
0.000000
  0
HATCH
  5
236
100
AcDbEntity
  8
SCHRAFF
  6
CONTINUOUS
 62
     9
100
AcDbHatch
 10
0.000000
 20
0.000000
 30
0.000000
210
0.000000
220
0.000000
230
1.000000
  2
_U
 70
     0
 71
     1
 91
     1
 92
    18
 72
     1
 73
     0
 93
     5
 10
-212.500018
 20
-25.249922
 42
0.000000
 10
-82.500018
 20
-25.249922
 42
0.000000
 10
-82.500018
 20
296.250078
 42
0.000000
 10
-212.500018
 20
296.250078
 42
0.000000
 10
-212.500018
 20
-25.249922
 42
0.000000
 97
     0
 75
     0
 76
     0
 52
0.000000
 41
1.000000
 77
     0
 78
     1
 53
44.999996
 43
-0.000000
 44
0.000000
 45
-17.677668
 46
17.677671
 79
     0
 98
     0
  0
ENDBLK
  5
237
100
AcDbEntity
  8
0
100
AcDbBlockEnd
  0
BLOCK
  5
238
100
AcDbEntity
  8
Detail
100
AcDbBlockBegin
  2
B-12
 70
    66
 10
0.000000
 20
0.000000
 30
0.000000
  0
MTEXT
  5
23A
100
AcDbEntity
  8
Detail
 62
     7
100
AcDbMText
 10
-211.093768
 20
-225.937541
 30
0.000000
 40
3.750000
 41
353.430000
 71
     7
 72
     5
  1
Capatect Details sind allgemeine planerische Vorschläge. Sie stellen schematisch die Ausführung dar. Ihnen zugrunde liegen die entsprechenden 
  7
Arial
 50
0.000000
  0
MTEXT
  5
23B
100
AcDbEntity
  8
Detail
 62
     7
100
AcDbMText
 10
-211.093768
 20
-231.562541
 30
0.000000
 40
3.750000
 41
392.765625
 71
     7
 72
     5
  1
Produktdatenblätter sowie Systemzulassungen. Die Möglichkeit der Detailanwendung sowie deren Vollständigkeit sind im speziellen Anwendungsfall vom Planer / 
  7
Arial
 50
0.000000
  0
MTEXT
  5
23C
100
AcDbEntity
  8
Detail
 62
     7
100
AcDbMText
 10
-211.093768
 20
-237.187541
 30
0.000000
 40
3.750000
 41
107.887500
 71
     7
 72
     5
  1
Unternehmer eigenverantwortlich zu prüfen. 
  7
Arial
 50
0.000000
  0
ENDBLK
  5
23D
100
AcDbEntity
  8
0
100
AcDbBlockEnd
  0
BLOCK
  5
23E
100
AcDbEntity
  8
Detail
100
AcDbBlockBegin
  2
B-13
 70
    66
 10
0.000000
 20
0.000000
 30
0.000000
  0
LWPOLYLINE
  5
23F
100
AcDbEntity
  8
Detail
  6
CONTINUOUS
 62
     3
100
AcDbPolyline
 90
     8
 10
-77.500018
 20
296.250078
 42
0.000000
 10
-77.500018
 20
-60.249922
 42
0.000000
 10
2.499982
 20
-60.249922
 42
0.000000
 10
2.499982
 20
9.750078
 42
0.000000
 10
-17.514215
 20
9.750078
 42
0.000000
 10
-17.514215
 20
69.750078
 42
0.000000
 10
2.499982
 20
69.750078
 42
0.000000
 10
2.499982
 20
296.250078
 42
0.000000
  0
ENDBLK
  5
248
100
AcDbEntity
  8
0
100
AcDbBlockEnd
  0
BLOCK
  5
249
100
AcDbEntity
  8
Detail
100
AcDbBlockBegin
  2
B-14
 70
    66
 10
0.000000
 20
0.000000
 30
0.000000
  0
LWPOLYLINE
  5
24A
100
AcDbEntity
  8
Detail
  6
HIDDEN
 62
     9
100
AcDbPolyline
 90
     3
 10
-80.000034
 20
-69.249922
 42
0.000000
 10
11.499982
 20
-69.249922
 42
0.000000
 10
11.499982
 20
296.250078
 42
0.000000
  0
ENDBLK
  5
24E
100
AcDbEntity
  8
0
100
AcDbBlockEnd
  0
BLOCK
  5
24F
100
AcDbEntity
  8
Detail
100
AcDbBlockBegin
  2
B-15
 70
    66
 10
0.000000
 20
0.000000
 30
0.000000
  0
LWPOLYLINE
  5
250
100
AcDbEntity
  8
Detail
  6
HIDDEN
 62
     9
100
AcDbPolyline
 90
     2
 10
3.499982
 20
-10.749922
 42
0.000000
 10
3.499982
 20
39.250078
 42
0.000000
  0
ENDBLK
  5
253
100
AcDbEntity
  8
0
100
AcDbBlockEnd
  0
BLOCK
  5
254
100
AcDbEntity
  8
Detail
100
AcDbBlockBegin
  2
B-16
 70
    66
 10
0.000000
 20
0.000000
 30
0.000000
  0
MTEXT
  5
255
100
AcDbEntity
  8
Detail
 62
     7
100
AcDbMText
 10
84.374982
 20
17.249978
 30
0.000000
 40
5.000000
 41
38.902500
 71
     1
 72
     5
  1
Klebemörtel
  7
Arial
 50
0.000000
  0
ENDBLK
  5
256
100
AcDbEntity
  8
0
100
AcDbBlockEnd
  0
BLOCK
  5
257
100
AcDbEntity
  8
SCHRAFF
100
AcDbBlockBegin
  2
B-17
 70
    66
 10
0.000000
 20
0.000000
 30
0.000000
  0
HATCH
  5
258
100
AcDbEntity
  8
SCHRAFF
 62
     7
440
     0
100
AcDbHatch
 10
0.000000
 20
0.000000
 30
0.000000
210
0.000000
220
0.000000
230
1.000000
  2
SOLID
 70
     1
 71
     1
 91
     1
 92
    18
 72
     1
 73
     0
 93
     3
 10
-79.500018
 20
14.750078
 42
1.000000
 10
-80.500018
 20
14.750078
 42
1.000000
 10
-79.500018
 20
14.750078
 42
0.000000
 97
     0
 75
     0
 76
     1
 98
     0
  0
LWPOLYLINE
  5
259
100
AcDbEntity
  8
Detail
  6
CONTINUOUS
 62
     7
100
AcDbPolyline
 90
     2
 10
82.499982
 20
14.750078
 42
0.000000
 10
-80.000018
 20
14.750078
 42
0.000000
  0
CIRCLE
  5
25C
100
AcDbEntity
  8
Detail
  6
CONTINUOUS
 62
     7
100
AcDbCircle
 10
-80.000018
 20
14.750078
 40
0.500000
  0
ENDBLK
  5
25D
100
AcDbEntity
  8
0
100
AcDbBlockEnd
  0
BLOCK
  5
25E
100
AcDbEntity
  8
SCHRAFF
100
AcDbBlockBegin
  2
B-18
 70
    66
 10
0.000000
 20
0.000000
 30
0.000000
  0
HATCH
  5
25F
100
AcDbEntity
  8
SCHRAFF
 62
     7
440
     0
100
AcDbHatch
 10
0.000000
 20
0.000000
 30
0.000000
210
0.000000
220
0.000000
230
1.000000
  2
SOLID
 70
     1
 71
     1
 91
     1
 92
    18
 72
     1
 73
     0
 93
     3
 10
-37.000018
 20
-10.249922
 42
1.000000
 10
-38.000018
 20
-10.249922
 42
1.000000
 10
-37.000018
 20
-10.249922
 42
0.000000
 97
     0
 75
     0
 76
     1
 98
     0
  0
LWPOLYLINE
  5
260
100
AcDbEntity
  8
Detail
  6
CONTINUOUS
 62
     7
100
AcDbPolyline
 90
     2
 10
82.499982
 20
-10.249922
 42
0.000000
 10
-37.500018
 20
-10.249922
 42
0.000000
  0
CIRCLE
  5
263
100
AcDbEntity
  8
Detail
  6
CONTINUOUS
 62
     7
100
AcDbCircle
 10
-37.500018
 20
-10.249922
 40
0.500000
  0
ENDBLK
  5
264
100
AcDbEntity
  8
0
100
AcDbBlockEnd
  0
BLOCK
  5
265
100
AcDbEntity
  8
Detail
100
AcDbBlockBegin
  2
B-19
 70
    66
 10
0.000000
 20
0.000000
 30
0.000000
  0
MTEXT
  5
266
100
AcDbEntity
  8
Detail
 62
     7
100
AcDbMText
 10
84.374982
 20
-7.750022
 30
0.000000
 40
5.000000
 41
59.482500
 71
     1
 72
     5
  1
WDVS-Dämmstoff
  7
Arial
 50
0.000000
  0
ENDBLK
  5
267
100
AcDbEntity
  8
0
100
AcDbBlockEnd
  0
BLOCK
  5
268
100
AcDbEntity
  8
SCHRAFF
100
AcDbBlockBegin
  2
B-20
 70
    66
 10
0.000000
 20
0.000000
 30
0.000000
  0
HATCH
  5
269
100
AcDbEntity
  8
SCHRAFF
 62
     7
440
     0
100
AcDbHatch
 10
0.000000
 20
0.000000
 30
0.000000
210
0.000000
220
0.000000
230
1.000000
  2
SOLID
 70
     1
 71
     1
 91
     1
 92
    18
 72
     1
 73
     0
 93
     3
 10
-15.514215
 20
39.750078
 42
1.000000
 10
-16.514215
 20
39.750078
 42
1.000000
 10
-15.514215
 20
39.750078
 42
0.000000
 97
     0
 75
     0
 76
     1
 98
     0
  0
LWPOLYLINE
  5
26A
100
AcDbEntity
  8
Detail
  6
CONTINUOUS
 62
     7
100
AcDbPolyline
 90
     2
 10
83.217887
 20
39.750078
 42
0.000000
 10
-16.014215
 20
39.750078
 42
0.000000
  0
CIRCLE
  5
26D
100
AcDbEntity
  8
Detail
  6
CONTINUOUS
 62
     7
100
AcDbCircle
 10
-16.014215
 20
39.750078
 40
0.500000
  0
ENDBLK
  5
26E
100
AcDbEntity
  8
0
100
AcDbBlockEnd
  0
BLOCK
  5
26F
100
AcDbEntity
  8
Detail
100
AcDbBlockBegin
  2
B-21
 70
    66
 10
0.000000
 20
0.000000
 30
0.000000
  0
MTEXT
  5
270
100
AcDbEntity
  8
Detail
 62
     7
100
AcDbMText
 10
84.374982
 20
37.249978
 30
0.000000
 40
5.000000
 41
82.372500
 71
     7
 72
     5
  1
Verdübelung versenkt mit
  7
Arial
 50
0.000000
  0
MTEXT
  5
271
100
AcDbEntity
  8
Detail
 62
     7
100
AcDbMText
 10
84.374982
 20
29.749978
 30
0.000000
 40
5.000000
 41
82.635000
 71
     7
 72
     5
  1
Thermorondell abgedeckt
  7
Arial
 50
0.000000
  0
ENDBLK
  5
272
100
AcDbEntity
  8
0
100
AcDbBlockEnd
  0
BLOCK
  5
273
100
AcDbEntity
  8
Detail
100
AcDbBlockBegin
  2
B-22
 70
    66
 10
0.000000
 20
0.000000
 30
0.000000
  0
MTEXT
  5
274
100
AcDbEntity
  8
Detail
 62
     7
100
AcDbMText
 10
84.374982
 20
-37.750022
 30
0.000000
 40
5.000000
 41
134.662500
 71
     7
 72
     5
  1
Armierungsschicht mit Glasfasergewebe, 
  7
Arial
 50
0.000000
  0
MTEXT
  5
275
100
AcDbEntity
  8
Detail
 62
     7
100
AcDbMText
 10
84.374982
 20
-45.250022
 30
0.000000
 40
5.000000
 41
68.985000
 71
     7
 72
     5
  1
aufgerauht, ca. 8 mm
  7
Arial
 50
0.000000
  0
ENDBLK
  5
276
100
AcDbEntity
  8
0
100
AcDbBlockEnd
  0
BLOCK
  5
277
100
AcDbEntity
  8
SCHRAFF
100
AcDbBlockBegin
  2
B-23
 70
    66
 10
0.000000
 20
0.000000
 30
0.000000
  0
HATCH
  5
278
100
AcDbEntity
  8
SCHRAFF
 62
     7
440
     0
100
AcDbHatch
 10
0.000000
 20
0.000000
 30
0.000000
210
0.000000
220
0.000000
230
1.000000
  2
SOLID
 70
     1
 71
     1
 91
     1
 92
    18
 72
     1
 73
     0
 93
     3
 10
7.999982
 20
-35.249922
 42
1.000000
 10
6.999982
 20
-35.249922
 42
1.000000
 10
7.999982
 20
-35.249922
 42
0.000000
 97
     0
 75
     0
 76
     1
 98
     0
  0
LWPOLYLINE
  5
279
100
AcDbEntity
  8
Detail
  6
CONTINUOUS
 62
     7
100
AcDbPolyline
 90
     2
 10
82.499982
 20
-35.249922
 42
0.000000
 10
7.499982
 20
-35.249922
 42
0.000000
  0
CIRCLE
  5
27C
100
AcDbEntity
  8
Detail
  6
CONTINUOUS
 62
     7
100
AcDbCircle
 10
7.499982
 20
-35.249922
 40
0.500000
  0
ENDBLK
  5
27D
100
AcDbEntity
  8
0
100
AcDbBlockEnd
  0
BLOCK
  5
27E
100
AcDbEntity
  8
Detail
100
AcDbBlockBegin
  2
B-24
 70
    66
 10
0.000000
 20
0.000000
 30
0.000000
  0
MTEXT
  5
27F
100
AcDbEntity
  8
Detail
 62
     7
100
AcDbMText
 10
84.374982
 20
-57.750022
 30
0.000000
 40
5.000000
 41
44.257500
 71
     1
 72
     5
  1
Edelkratzputz
  7
Arial
 50
0.000000
  0
ENDBLK
  5
280
100
AcDbEntity
  8
0
100
AcDbBlockEnd
  0
BLOCK
  5
281
100
AcDbEntity
  8
SCHRAFF
100
AcDbBlockBegin
  2
B-25
 70
    66
 10
0.000000
 20
0.000000
 30
0.000000
  0
HATCH
  5
282
100
AcDbEntity
  8
SCHRAFF
 62
     7
440
     0
100
AcDbHatch
 10
0.000000
 20
0.000000
 30
0.000000
210
0.000000
220
0.000000
230
1.000000
  2
SOLID
 70
     1
 71
     1
 91
     1
 92
    18
 72
     1
 73
     0
 93
     3
 10
17.999982
 20
-60.249922
 42
1.000000
 10
16.999982
 20
-60.249922
 42
1.000000
 10
17.999982
 20
-60.249922
 42
0.000000
 97
     0
 75
     0
 76
     1
 98
     0
  0
LWPOLYLINE
  5
283
100
AcDbEntity
  8
Detail
  6
CONTINUOUS
 62
     7
100
AcDbPolyline
 90
     2
 10
82.499982
 20
-60.249922
 42
0.000000
 10
17.499982
 20
-60.249922
 42
0.000000
  0
CIRCLE
  5
286
100
AcDbEntity
  8
Detail
  6
CONTINUOUS
 62
     7
100
AcDbCircle
 10
17.499982
 20
-60.249922
 40
0.500000
  0
ENDBLK
  5
287
100
AcDbEntity
  8
0
100
AcDbBlockEnd
  0
BLOCK
  5
288
100
AcDbEntity
  8
Detail
100
AcDbBlockBegin
  2
B-26
 70
    66
 10
0.000000
 20
0.000000
 30
0.000000
  0
LWPOLYLINE
  5
289
100
AcDbEntity
  8
Detail
  6
HIDDEN
 62
     9
100
AcDbPolyline
 90
     2
 10
-47.000018
 20
-61.249922
 42
0.000000
 10
-80.000034
 20
-61.249922
 42
0.000000
  0
ENDBLK
  5
28C
100
AcDbEntity
  8
0
100
AcDbBlockEnd
  0
BLOCK
  5
28D
100
AcDbEntity
  8
Detail
100
AcDbBlockBegin
  2
B-27
 70
    66
 10
0.000000
 20
0.000000
 30
0.000000
  0
MTEXT
  5
28E
100
AcDbEntity
  8
Detail
 62
     7
100
AcDbMText
 10
84.374982
 20
-82.750022
 30
0.000000
 40
5.000000
 41
84.262500
 71
     1
 72
     5
  1
Gewebe-Eckschutz "Plus"
  7
Arial
 50
0.000000
  0
ENDBLK
  5
28F
100
AcDbEntity
  8
0
100
AcDbBlockEnd
  0
BLOCK
  5
290
100
AcDbEntity
  8
Detail
100
AcDbBlockBegin
  2
B-28
 70
    66
 10
0.000000
 20
0.000000
 30
0.000000
  0
LWPOLYLINE
  5
291
100
AcDbEntity
  8
Detail
  6
CONTINUOUS
 62
     6
100
AcDbPolyline
 90
     2
 10
237.500023
 20
-246.249941
 42
0.000000
 10
-237.500018
 20
-246.249941
 42
0.000000
  0
ENDBLK
  5
294
100
AcDbEntity
  8
0
100
AcDbBlockEnd
  0
BLOCK
  5
295
100
AcDbEntity
  8
Detail
100
AcDbBlockBegin
  2
B-29
 70
    66
 10
0.000000
 20
0.000000
 30
0.000000
  0
LWPOLYLINE
  5
296
100
AcDbEntity
  8
Detail
  6
CONTINUOUS
 62
     9
100
AcDbPolyline
 90
    17
 10
-138.000016
 20
-27.749922
 42
-0.262676
 10
-137.568451
 20
-26.985123
 42
-0.082357
 10
-135.049765
 20
-25.982155
 42
-0.034537
 10
-131.781918
 20
-25.440223
 42
-0.024669
 10
-127.927229
 20
-25.249922
 42
-0.024669
 10
-124.072540
 20
-25.440223
 42
-0.034537
 10
-120.804693
 20
-25.982155
 42
-0.082357
 10
-118.286007
 20
-26.985123
 42
-0.262676
 10
-117.854442
 20
-27.749922
 42
-0.262676
 10
-118.286007
 20
-28.514721
 42
-0.082357
 10
-120.804693
 20
-29.517689
 42
-0.034537
 10
-124.072540
 20
-30.059621
 42
-0.024669
 10
-127.927229
 20
-30.249922
 42
-0.024669
 10
-131.781918
 20
-30.059621
 42
-0.034537
 10
-135.049765
 20
-29.517689
 42
-0.082357
 10
-137.568451
 20
-28.514721
 42
-0.262676
 10
-138.000016
 20
-27.749922
 42
0.000000
  0
ENDBLK
  5
2A8
100
AcDbEntity
  8
0
100
AcDbBlockEnd
  0
BLOCK
  5
2A9
100
AcDbEntity
  8
Detail
100
AcDbBlockBegin
  2
B-30
 70
    66
 10
0.000000
 20
0.000000
 30
0.000000
  0
LWPOLYLINE
  5
2AA
100
AcDbEntity
  8
Detail
  6
CONTINUOUS
 62
     9
100
AcDbPolyline
 90
    17
 10
-134.373813
 20
-27.749922
 42
-0.262676
 10
-134.097611
 20
-27.260451
 42
-0.082357
 10
-132.485652
 20
-26.618551
 42
-0.034537
 10
-130.394230
 20
-26.271715
 42
-0.024669
 10
-127.927229
 20
-26.149922
 42
-0.024669
 10
-125.460228
 20
-26.271715
 42
-0.034537
 10
-123.368806
 20
-26.618551
 42
-0.082357
 10
-121.756847
 20
-27.260451
 42
-0.262676
 10
-121.480645
 20
-27.749922
 42
-0.262676
 10
-121.756847
 20
-28.239394
 42
-0.082357
 10
-123.368806
 20
-28.881293
 42
-0.034537
 10
-125.460228
 20
-29.228129
 42
-0.024669
 10
-127.927229
 20
-29.349922
 42
-0.024669
 10
-130.394230
 20
-29.228129
 42
-0.034537
 10
-132.485652
 20
-28.881293
 42
-0.082357
 10
-134.097611
 20
-28.239394
 42
-0.262676
 10
-134.373813
 20
-27.749922
 42
0.000000
  0
ENDBLK
  5
2BC
100
AcDbEntity
  8
0
100
AcDbBlockEnd
  0
BLOCK
  5
2BD
100
AcDbEntity
  8
Detail
100
AcDbBlockBegin
  2
B-31
 70
    66
 10
0.000000
 20
0.000000
 30
0.000000
  0
LWPOLYLINE
  5
2BE
100
AcDbEntity
  8
Detail
  6
CONTINUOUS
 62
     9
100
AcDbPolyline
 90
    17
 10
-88.626221
 20
-27.749922
 42
0.262676
 10
-88.902423
 20
-27.260451
 42
0.082357
 10
-90.514382
 20
-26.618551
 42
0.034537
 10
-92.605804
 20
-26.271715
 42
0.024669
 10
-95.072805
 20
-26.149922
 42
0.024669
 10
-97.539806
 20
-26.271715
 42
0.034537
 10
-99.631228
 20
-26.618551
 42
0.082357
 10
-101.243187
 20
-27.260451
 42
0.262676
 10
-101.519389
 20
-27.749922
 42
0.262676
 10
-101.243187
 20
-28.239394
 42
0.082357
 10
-99.631228
 20
-28.881293
 42
0.034537
 10
-97.539806
 20
-29.228129
 42
0.024669
 10
-95.072805
 20
-29.349922
 42
0.024669
 10
-92.605804
 20
-29.228129
 42
0.034537
 10
-90.514382
 20
-28.881293
 42
0.082357
 10
-88.902423
 20
-28.239394
 42
0.262676
 10
-88.626221
 20
-27.749922
 42
0.000000
  0
ENDBLK
  5
2D0
100
AcDbEntity
  8
0
100
AcDbBlockEnd
  0
BLOCK
  5
2D1
100
AcDbEntity
  8
Detail
100
AcDbBlockBegin
  2
B-32
 70
    66
 10
0.000000
 20
0.000000
 30
0.000000
  0
LWPOLYLINE
  5
2D2
100
AcDbEntity
  8
Detail
  6
CONTINUOUS
 62
     9
100
AcDbPolyline
 90
    17
 10
-85.000018
 20
-27.749922
 42
0.262676
 10
-85.431583
 20
-26.985123
 42
0.082357
 10
-87.950269
 20
-25.982155
 42
0.034537
 10
-91.218116
 20
-25.440223
 42
0.024669
 10
-95.072805
 20
-25.249922
 42
0.024669
 10
-98.927494
 20
-25.440223
 42
0.034537
 10
-102.195341
 20
-25.982155
 42
0.082357
 10
-104.714027
 20
-26.985123
 42
0.262676
 10
-105.145592
 20
-27.749922
 42
0.262676
 10
-104.714027
 20
-28.514721
 42
0.082357
 10
-102.195341
 20
-29.517689
 42
0.034537
 10
-98.927494
 20
-30.059621
 42
0.024669
 10
-95.072805
 20
-30.249922
 42
0.024669
 10
-91.218116
 20
-30.059621
 42
0.034537
 10
-87.950269
 20
-29.517689
 42
0.082357
 10
-85.431583
 20
-28.514721
 42
0.262676
 10
-85.000018
 20
-27.749922
 42
0.000000
  0
ENDBLK
  5
2E4
100
AcDbEntity
  8
0
100
AcDbBlockEnd
  0
BLOCK
  5
2E5
100
AcDbEntity
  8
Detail
100
AcDbBlockBegin
  2
B-33
 70
    66
 10
0.000000
 20
0.000000
 30
0.000000
  0
ENDBLK
  5
2E6
100
AcDbEntity
  8
0
100
AcDbBlockEnd
  0
BLOCK
  5
2E7
100
AcDbEntity
  8
Detail
100
AcDbBlockBegin
  2
B-34
 70
    66
 10
0.000000
 20
0.000000
 30
0.000000
  0
LWPOLYLINE
  5
2E8
100
AcDbEntity
  8
Detail
  6
CONTINUOUS
 62
     2
100
AcDbPolyline
 90
     3
 10
-82.500018
 20
296.250078
 42
0.000000
 10
-82.500018
 20
-25.249922
 42
0.000000
 10
-212.500018
 20
-25.249922
 42
0.000000
  0
ENDBLK
  5
2EC
100
AcDbEntity
  8
0
100
AcDbBlockEnd
  0
BLOCK
  5
2ED
100
AcDbEntity
  8
SCHRAFF
100
AcDbBlockBegin
  2
glasleiste
 70
    66
 10
0.000000
 20
0.000000
 30
0.000000
  0
HATCH
  5
2EE
100
AcDbEntity
  8
SCHRAFF
  6
CONTINUOUS
 62
     9
100
AcDbHatch
 10
0.000000
 20
0.000000
 30
0.000000
210
0.000000
220
0.000000
230
1.000000
  2
_U
 70
     0
 71
     1
 91
     1
 92
    18
 72
     1
 73
     0
 93
    15
 10
-140.292258
 20
-165.249921
 42
0.000000
 10
-158.009894
 20
-160.502495
 42
-0.339455
 10
-159.492256
 20
-158.570643
 42
0.000000
 10
-159.492256
 20
-149.249921
 42
-0.414214
 10
-157.492256
 20
-147.249921
 42
0.000000
 10
-156.492256
 20
-147.249922
 42
0.000000
 10
-135.292258
 20
-147.249921
 42
0.000000
 10
-135.292258
 20
-157.249921
 42
0.000000
 10
-135.492258
 20
-157.249921
 42
0.000000
 10
-139.492258
 20
-157.249921
 42
0.000000
 10
-140.992258
 20
-159.249921
 42
0.000000
 10
-140.992258
 20
-161.249921
 42
0.000000
 10
-139.492258
 20
-161.249921
 42
0.000000
 10
-139.492258
 20
-164.270126
 42
-0.356393
 10
-140.292258
 20
-165.249921
 42
0.000000
 97
     0
 75
     0
 76
     0
 52
0.000000
 41
1.000000
 77
     0
 78
     1
 53
45.000000
 43
-0.000000
 44
0.000000
 45
-2.209709
 46
2.209709
 79
     0
 98
     0
  0
LWPOLYLINE
  5
2EF
100
AcDbEntity
  8
Detail
  6
CONTINUOUS
 62
     3
100
AcDbPolyline
 90
     2
 10
-158.009895
 20
-160.502494
 42
0.000000
 10
-140.292258
 20
-165.249920
 42
0.000000
  0
LWPOLYLINE
  5
2F2
100
AcDbEntity
  8
Detail
  6
CONTINUOUS
 62
     4
100
AcDbPolyline
 90
     2
 10
-134.492258
 20
-167.249920
 42
0.000000
 10
-140.292258
 20
-165.249920
 42
0.000000
  0
LWPOLYLINE
  5
2F5
100
AcDbEntity
  8
Detail
  6
CONTINUOUS
 62
     4
100
AcDbPolyline
 90
     2
 10
-134.492258
 20
-158.249920
 42
0.000000
 10
-134.492258
 20
-167.249920
 42
0.000000
  0
LWPOLYLINE
  5
2F8
100
AcDbEntity
  8
Detail
  6
CONTINUOUS
 62
     3
100
AcDbPolyline
 90
     2
 10
-135.292258
 20
-157.249920
 42
0.000000
 10
-135.292258
 20
-147.249920
 42
0.000000
  0
LWPOLYLINE
  5
2FB
100
AcDbEntity
  8
Detail
  6
CONTINUOUS
 62
     4
100
AcDbPolyline
 90
     2
 10
-135.492258
 20
-157.249920
 42
-0.414214
 10
-134.492258
 20
-158.249920
 42
0.000000
  0
LWPOLYLINE
  5
2FE
100
AcDbEntity
  8
Detail
  6
CONTINUOUS
 62
     3
100
AcDbPolyline
 90
     2
 10
-139.492258
 20
-157.249920
 42
0.000000
 10
-135.292258
 20
-157.249920
 42
0.000000
  0
LWPOLYLINE
  5
301
100
AcDbEntity
  8
Detail
  6
CONTINUOUS
 62
     3
100
AcDbPolyline
 90
     2
 10
-140.992258
 20
-159.249920
 42
0.000000
 10
-139.492258
 20
-157.249920
 42
0.000000
  0
LWPOLYLINE
  5
304
100
AcDbEntity
  8
Detail
  6
CONTINUOUS
 62
     3
100
AcDbPolyline
 90
     2
 10
-140.992258
 20
-161.249920
 42
0.000000
 10
-140.992258
 20
-159.249920
 42
0.000000
  0
LWPOLYLINE
  5
307
100
AcDbEntity
  8
Detail
  6
CONTINUOUS
 62
     3
100
AcDbPolyline
 90
     3
 10
-139.492258
 20
-164.270124
 42
0.000000
 10
-139.492258
 20
-161.249920
 42
0.000000
 10
-140.992258
 20
-161.249920
 42
0.000000
  0
LWPOLYLINE
  5
30B
100
AcDbEntity
  8
Detail
  6
CONTINUOUS
 62
     3
100
AcDbPolyline
 90
     2
 10
-140.292258
 20
-165.249920
 42
0.356394
 10
-139.492258
 20
-164.270125
 42
0.000000
  0
LWPOLYLINE
  5
30E
100
AcDbEntity
  8
Detail
  6
CONTINUOUS
 62
     3
100
AcDbPolyline
 90
     3
 10
-159.492257
 20
-149.249920
 42
0.000000
 10
-159.492257
 20
-158.570642
 42
0.339454
 10
-158.009895
 20
-160.502493
 42
0.000000
  0
LWPOLYLINE
  5
312
100
AcDbEntity
  8
Detail
  6
CONTINUOUS
 62
     3
100
AcDbPolyline
 90
     2
 10
-157.492257
 20
-147.249920
 42
0.414214
 10
-159.492257
 20
-149.249920
 42
0.000000
  0
LWPOLYLINE
  5
315
100
AcDbEntity
  8
Detail
  6
CONTINUOUS
 62
     3
100
AcDbPolyline
 90
     2
 10
-135.292258
 20
-147.249920
 42
0.000000
 10
-157.492257
 20
-147.249920
 42
0.000000
  0
ENDBLK
  5
318
100
AcDbEntity
  8
0
100
AcDbBlockEnd
  0
BLOCK
  5
319
100
AcDbEntity
  8
Detail
100
AcDbBlockBegin
  2
glas
 70
    66
 10
0.000000
 20
0.000000
 30
0.000000
  0
LWPOLYLINE
  5
31A
100
AcDbEntity
  8
Detail
  6
CONTINUOUS
 62
     4
100
AcDbPolyline
 90
     2
 10
-114.500069
 20
-152.249920
 42
0.000000
 10
-114.500069
 20
-192.988514
 42
0.000000
  0
LWPOLYLINE
  5
31D
100
AcDbEntity
  8
Detail
  6
CONTINUOUS
 62
     4
100
AcDbPolyline
 90
     2
 10
-130.492257
 20
-152.249922
 42
0.000000
 10
-130.492257
 20
-192.988516
 42
0.000000
  0
LWPOLYLINE
  5
320
100
AcDbEntity
  8
Detail
  6
CONTINUOUS
 62
     4
100
AcDbPolyline
 90
     2
 10
-130.492257
 20
-166.249922
 42
0.000000
 10
-114.500069
 20
-166.249920
 42
0.000000
  0
LWPOLYLINE
  5
323
100
AcDbEntity
  8
Detail
  6
CONTINUOUS
 62
     4
100
AcDbPolyline
 90
     2
 10
-134.492258
 20
-192.988517
 42
0.000000
 10
-134.492258
 20
-152.249923
 42
0.000000
  0
LWPOLYLINE
  5
326
100
AcDbEntity
  8
Detail
  6
CONTINUOUS
 62
     4
100
AcDbPolyline
 90
     2
 10
-110.500070
 20
-152.249921
 42
0.000000
 10
-110.500070
 20
-192.988515
 42
0.000000
  0
LWPOLYLINE
  5
329
100
AcDbEntity
  8
Detail
  6
CONTINUOUS
 62
     4
100
AcDbPolyline
 90
     2
 10
-134.492258
 20
-152.249923
 42
0.000000
 10
-130.492257
 20
-152.249922
 42
0.000000
  0
LWPOLYLINE
  5
32C
100
AcDbEntity
  8
Detail
  6
CONTINUOUS
 62
     4
100
AcDbPolyline
 90
     2
 10
-114.500069
 20
-152.249920
 42
0.000000
 10
-110.500070
 20
-152.249921
 42
0.000000
  0
LWPOLYLINE
  5
32F
100
AcDbEntity
  8
Detail
  6
CONTINUOUS
 62
     4
100
AcDbPolyline
 90
     2
 10
-114.500069
 20
-152.249920
 42
0.000000
 10
-130.492257
 20
-152.249922
 42
0.000000
  0
LWPOLYLINE
  5
332
100
AcDbEntity
  8
Detail
  6
CONTINUOUS
 62
     4
100
AcDbPolyline
 90
     2
 10
-114.500069
 20
-156.249920
 42
0.000000
 10
-130.492257
 20
-156.249922
 42
0.000000
  0
ENDBLK
  5
335
100
AcDbEntity
  8
0
100
AcDbBlockEnd
  0
BLOCK
  5
336
100
AcDbEntity
  8
SCHRAFF
100
AcDbBlockBegin
  2
rahmen
 70
    66
 10
0.000000
 20
0.000000
 30
0.000000
  0
HATCH
  5
337
100
AcDbEntity
  8
SCHRAFF
  6
CONTINUOUS
 62
     9
100
AcDbHatch
 10
0.000000
 20
0.000000
 30
0.000000
210
0.000000
220
0.000000
230
1.000000
  2
_U
 70
     0
 71
     1
 91
     1
 92
    18
 72
     1
 73
     0
 93
    31
 10
-109.700034
 20
-100.249922
 42
0.000000
 10
-113.700033
 20
-100.249922
 42
0.000000
 10
-113.700033
 20
-107.749920
 42
0.000000
 10
-114.200033
 20
-108.249920
 42
0.000000
 10
-118.000033
 20
-108.249920
 42
-0.414214
 10
-119.500033
 20
-106.749920
 42
0.000000
 10
-119.500033
 20
-102.249920
 42
0.414213
 10
-121.500033
 20
-100.249922
 42
0.000000
 10
-124.500033
 20
-100.249922
 42
-0.414214
 10
-125.500033
 20
-99.249921
 42
0.000000
 10
-125.500032
 20
-96.249921
 42
0.000000
 10
-133.500033
 20
-96.249921
 42
0.000000
 10
-133.500033
 20
-99.249921
 42
-0.414214
 10
-134.500033
 20
-100.249922
 42
0.000000
 10
-139.000032
 20
-100.249922
 42
-0.414214
 10
-140.500033
 20
-98.749922
 42
0.000000
 10
-140.500032
 20
-31.749922
 42
0.000000
 10
-139.000032
 20
-30.249922
 42
0.000000
 10
-84.000035
 20
-30.249922
 42
0.000000
 10
-82.500035
 20
-31.749922
 42
0.000000
 10
-82.500035
 20
-125.062623
 42
-0.339454
 10
-84.352987
 20
-127.477437
 42
0.000000
 10
-93.991216
 20
-130.059992
 42
-0.493145
 10
-95.250035
 20
-129.094066
 42
0.000000
 10
-95.250035
 20
-113.749920
 42
0.414213
 10
-96.750034
 20
-112.249920
 42
0.000000
 10
-108.500035
 20
-112.249920
 42
-0.414213
 10
-109.500034
 20
-111.249920
 42
0.000000
 10
-109.500034
 20
-108.249920
 42
0.000000
 10
-109.700034
 20
-108.249920
 42
0.000000
 10
-109.700034
 20
-100.249922
 42
0.000000
 97
     0
 75
     0
 76
     0
 52
0.000000
 41
1.000000
 77
     0
 78
     1
 53
45.000003
 43
-0.000000
 44
0.000000
 45
-2.209709
 46
2.209709
 79
     0
 98
     0
  0
LWPOLYLINE
  5
338
100
AcDbEntity
  8
Detail
  6
CONTINUOUS
 62
     3
100
AcDbPolyline
 90
    31
 10
-113.700034
 20
-107.749921
 42
0.000000
 10
-113.700034
 20
-100.249921
 42
0.000000
 10
-109.700034
 20
-100.249921
 42
0.000000
 10
-109.700034
 20
-108.249921
 42
0.000000
 10
-109.500034
 20
-108.249921
 42
0.000000
 10
-109.500034
 20
-111.249921
 42
0.414214
 10
-108.500034
 20
-112.249921
 42
0.000000
 10
-96.750034
 20
-112.249921
 42
-0.414214
 10
-95.250034
 20
-113.749921
 42
0.000000
 10
-95.250034
 20
-129.094067
 42
0.493145
 10
-93.991215
 20
-130.059993
 42
0.000000
 10
-84.352986
 20
-127.477438
 42
0.339454
 10
-82.500034
 20
-125.062623
 42
0.000000
 10
-82.500034
 20
-31.749921
 42
0.000000
 10
-84.000034
 20
-30.249921
 42
0.000000
 10
-139.000034
 20
-30.249921
 42
0.000000
 10
-140.500034
 20
-31.749921
 42
0.000000
 10
-140.500034
 20
-98.749921
 42
0.414214
 10
-139.000034
 20
-100.249921
 42
0.000000
 10
-134.500034
 20
-100.249921
 42
0.414214
 10
-133.500034
 20
-99.249921
 42
0.000000
 10
-133.500034
 20
-96.249921
 42
0.000000
 10
-125.500034
 20
-96.249921
 42
0.000000
 10
-125.500034
 20
-99.249921
 42
0.414214
 10
-124.500034
 20
-100.249921
 42
0.000000
 10
-121.500034
 20
-100.249921
 42
-0.414214
 10
-119.500034
 20
-102.249921
 42
0.000000
 10
-119.500034
 20
-106.749921
 42
0.414214
 10
-118.000034
 20
-108.249921
 42
0.000000
 10
-114.200034
 20
-108.249921
 42
0.000000
 10
-113.700034
 20
-107.749921
 42
0.000000
  0
POLYLINE
  5
358
100
AcDbEntity
  8
Detail
 66
     1
  6
CONTINUOUS
 62
     4
100
AcDb2dPolyline
  0
VERTEX
  5
359
100
AcDbEntity
  8
Detail
100
AcDbVertex
100
AcDb2dVertex
 10
-111.400198
 20
-117.804412
 42
0.203482
  0
VERTEX
  5
35A
100
AcDbEntity
  8
Detail
100
AcDbVertex
100
AcDb2dVertex
 10
-111.450206
 20
-118.584377
 42
-0.308188
  0
VERTEX
  5
35B
100
AcDbEntity
  8
Detail
100
AcDbVertex
100
AcDb2dVertex
 10
-111.282275
 20
-118.858316
 42
-0.887236
  0
VERTEX
  5
35C
100
AcDbEntity
  8
Detail
100
AcDbVertex
100
AcDb2dVertex
 10
-112.274131
 20
-118.813116
 42
0.000000
  0
VERTEX
  5
35D
100
AcDbEntity
  8
Detail
100
AcDbVertex
100
AcDb2dVertex
 10
-112.698686
 20
-112.779247
 42
0.679251
  0
VERTEX
  5
35E
100
AcDbEntity
  8
Detail
100
AcDbVertex
100
AcDb2dVertex
 10
-113.408345
 20
-112.556885
 42
0.150740
  0
VERTEX
  5
35F
100
AcDbEntity
  8
Detail
100
AcDbVertex
100
AcDb2dVertex
 10
-113.507216
 20
-112.803077
 42
0.000000
  0
VERTEX
  5
360
100
AcDbEntity
  8
Detail
100
AcDbVertex
100
AcDb2dVertex
 10
-113.272813
 20
-118.865860
 42
0.210504
  0
VERTEX
  5
361
100
AcDbEntity
  8
Detail
100
AcDbVertex
100
AcDb2dVertex
 10
-112.719983
 20
-119.941546
 42
0.183556
  0
VERTEX
  5
362
100
AcDbEntity
  8
Detail
100
AcDbVertex
100
AcDb2dVertex
 10
-112.188723
 20
-120.226018
 42
0.320371
  0
VERTEX
  5
363
100
AcDbEntity
  8
Detail
100
AcDbVertex
100
AcDb2dVertex
 10
-110.612452
 20
-119.481404
 42
0.000000
  0
VERTEX
  5
364
100
AcDbEntity
  8
Detail
100
AcDbVertex
100
AcDb2dVertex
 10
-107.966500
 20
-115.307713
 42
0.000000
  0
VERTEX
  5
365
100
AcDbEntity
  8
Detail
100
AcDbVertex
100
AcDb2dVertex
 10
-107.757148
 20
-114.921120
 42
0.000000
  0
VERTEX
  5
366
100
AcDbEntity
  8
Detail
100
AcDbVertex
100
AcDb2dVertex
 10
-106.721700
 20
-112.779780
 42
0.082849
  0
VERTEX
  5
367
100
AcDbEntity
  8
Detail
100
AcDbVertex
100
AcDb2dVertex
 10
-106.700034
 20
-112.649921
 42
0.718680
  0
VERTEX
  5
368
100
AcDbEntity
  8
Detail
100
AcDbVertex
100
AcDb2dVertex
 10
-107.418714
 20
-112.408171
 42
0.000000
  0
VERTEX
  5
369
100
AcDbEntity
  8
Detail
100
AcDbVertex
100
AcDb2dVertex
 10
-107.469539
 20
-112.475170
 42
-0.234622
  0
VERTEX
  5
36A
100
AcDbEntity
  8
Detail
100
AcDbVertex
100
AcDb2dVertex
 10
-108.425580
 20
-112.849921
 42
0.000000
  0
VERTEX
  5
36B
100
AcDbEntity
  8
Detail
 62
     3
100
AcDbVertex
100
AcDb2dVertex
 10
-108.509675
 20
-112.849921
 42
-0.500491
  0
VERTEX
  5
36C
100
AcDbEntity
  8
Detail
100
AcDbVertex
100
AcDb2dVertex
 10
-109.700034
 20
-110.403699
 42
0.000000
  0
SEQEND
  5
36D
100
AcDbEntity
  8
Detail
  0
LWPOLYLINE
  5
36E
100
AcDbEntity
  8
Detail
  6
CONTINUOUS
 62
     4
100
AcDbPolyline
 90
     4
 10
-109.700034
 20
-101.999921
 42
0.414214
 10
-110.950034
 20
-100.749921
 42
0.198912
 10
-111.907141
 20
-101.042814
 42
0.000000
 10
-113.700034
 20
-102.835707
 42
0.000000
  0
LWPOLYLINE
  5
373
100
AcDbEntity
  8
Detail
  6
CONTINUOUS
 62
     4
100
AcDbPolyline
 90
     5
 10
-113.700034
 20
-103.542814
 42
0.000000
 10
-112.002677
 20
-102.492894
 42
-0.723524
 10
-111.711778
 20
-102.737281
 42
-0.231341
 10
-113.664253
 20
-106.367394
 42
0.095440
 10
-113.700034
 20
-106.553136
 42
0.000000
  0
LWPOLYLINE
  5
379
100
AcDbEntity
  8
Detail
  6
CONTINUOUS
 62
     4
100
AcDbPolyline
 90
     3
 10
-113.700034
 20
-107.008301
 42
0.305615
 10
-113.512534
 20
-107.286408
 42
-0.724202
 10
-113.700034
 20
-108.249921
 42
0.000000
  0
POLYLINE
  5
37D
100
AcDbEntity
  8
Detail
 66
     1
  6
CONTINUOUS
 62
     4
100
AcDb2dPolyline
  0
VERTEX
  5
37E
100
AcDbEntity
  8
Detail
100
AcDbVertex
100
AcDb2dVertex
 10
-115.300034
 20
-108.249921
 42
0.373804
  0
VERTEX
  5
37F
100
AcDbEntity
  8
Detail
100
AcDbVertex
100
AcDb2dVertex
 10
-115.696125
 20
-108.594140
 42
0.146794
  0
VERTEX
  5
380
100
AcDbEntity
  8
Detail
 62
     3
100
AcDbVertex
100
AcDb2dVertex
 10
-115.678765
 20
-108.707779
 42
0.243289
  0
VERTEX
  5
381
100
AcDbEntity
  8
Detail
100
AcDbVertex
100
AcDb2dVertex
 10
-114.330781
 20
-109.569079
 42
0.000000
  0
VERTEX
  5
382
100
AcDbEntity
  8
Detail
100
AcDbVertex
100
AcDb2dVertex
 10
-112.807748
 20
-109.825895
 42
-0.308709
  0
VERTEX
  5
383
100
AcDbEntity
  8
Detail
100
AcDbVertex
100
AcDb2dVertex
 10
-112.157688
 20
-110.451093
 42
0.000000
  0
VERTEX
  5
384
100
AcDbEntity
  8
Detail
100
AcDbVertex
100
AcDb2dVertex
 10
-111.751900
 20
-112.392642
 42
0.305486
  0
VERTEX
  5
385
100
AcDbEntity
  8
Detail
100
AcDbVertex
100
AcDb2dVertex
 10
-110.550443
 20
-113.561848
 42
-0.446187
  0
VERTEX
  5
386
100
AcDbEntity
  8
Detail
100
AcDbVertex
100
AcDb2dVertex
 10
-109.925411
 20
-114.575358
 42
0.000000
  0
VERTEX
  5
387
100
AcDbEntity
  8
Detail
100
AcDbVertex
100
AcDb2dVertex
 10
-111.400198
 20
-117.804412
 42
0.000000
  0
SEQEND
  5
388
100
AcDbEntity
  8
Detail
  0
LWPOLYLINE
  5
389
100
AcDbEntity
  8
Detail
  6
CONTINUOUS
 62
     4
100
AcDbPolyline
 90
     2
 10
-113.700034
 20
-108.249921
 42
0.000000
 10
-114.300034
 20
-108.249921
 42
0.000000
  0
LWPOLYLINE
  5
38C
100
AcDbEntity
  8
Detail
  6
CONTINUOUS
 62
     4
100
AcDbPolyline
 90
     2
 10
-109.700034
 20
-110.403699
 42
0.000000
 10
-109.700034
 20
-108.249920
 42
0.000000
  0
ENDBLK
  5
38F
100
AcDbEntity
  8
0
100
AcDbBlockEnd
  0
BLOCK
  5
390
100
AcDbEntity
  8
SCHRAFF
100
AcDbBlockBegin
  2
fluegel
 70
    66
 10
0.000000
 20
0.000000
 30
0.000000
  0
HATCH
  5
391
100
AcDbEntity
  8
SCHRAFF
  6
CONTINUOUS
 62
     9
100
AcDbHatch
 10
0.000000
 20
0.000000
 30
0.000000
210
0.000000
220
0.000000
230
1.000000
  2
_U
 70
     0
 71
     1
 91
     1
 92
    18
 72
     1
 73
     0
 93
    56
 10
-92.500035
 20
-138.722399
 42
0.000000
 10
-92.500072
 20
-157.968290
 42
-0.291474
 10
-93.943527
 20
-160.234060
 42
0.000000
 10
-104.700072
 20
-165.249919
 42
-0.356394
 10
-105.500071
 20
-164.270123
 42
0.000000
 10
-105.500072
 20
-161.749919
 42
-0.414213
 10
-105.000071
 20
-161.249919
 42
0.000000
 10
-104.500072
 20
-161.249919
 42
0.414214
 10
-104.000071
 20
-160.749919
 42
0.000000
 10
-104.000072
 20
-159.749919
 42
0.000000
 10
-104.917467
 20
-158.220928
 42
0.263447
 10
-106.632453
 20
-157.249919
 42
0.000000
 10
-110.000071
 20
-157.249919
 42
0.000000
 10
-110.500071
 20
-156.749919
 42
0.000000
 10
-110.500071
 20
-148.549920
 42
0.576922
 10
-112.748402
 20
-147.249920
 42
0.000000
 10
-114.732744
 20
-147.249920
 42
-0.339454
 10
-115.698669
 20
-146.508739
 42
0.000000
 10
-116.710568
 20
-142.732282
 42
0.339454
 10
-118.642420
 20
-141.249920
 42
0.000000
 10
-121.857721
 20
-141.249919
 42
0.339454
 10
-123.789573
 20
-142.732282
 42
0.000000
 10
-124.801472
 20
-146.508739
 42
-0.339455
 10
-125.767398
 20
-147.249920
 42
0.000000
 10
-149.000070
 20
-147.249920
 42
-0.414214
 10
-150.000070
 20
-146.249920
 42
0.000000
 10
-150.000070
 20
-143.249920
 42
0.000000
 10
-155.500069
 20
-143.249920
 42
0.000000
 10
-155.500069
 20
-146.249920
 42
-0.414214
 10
-156.500070
 20
-147.249920
 42
0.000000
 10
-158.000069
 20
-147.249920
 42
-0.414214
 10
-160.500070
 20
-144.749920
 42
0.000000
 10
-160.500069
 20
-94.749922
 42
-0.414214
 10
-158.000070
 20
-92.249921
 42
0.000000
 10
-142.000032
 20
-92.249922
 42
-0.414213
 10
-140.500033
 20
-93.749921
 42
0.000000
 10
-140.500032
 20
-110.249919
 42
0.414214
 10
-138.500032
 20
-112.249920
 42
0.000000
 10
-115.000033
 20
-112.249920
 42
-0.414213
 10
-113.500033
 20
-113.749920
 42
0.000000
 10
-113.500033
 20
-122.249919
 42
0.414214
 10
-111.500034
 20
-124.249920
 42
0.000000
 10
-109.151026
 20
-124.249920
 42
-0.339454
 10
-107.702137
 20
-125.361692
 42
0.000000
 10
-106.958188
 20
-128.138148
 42
0.339455
 10
-105.509298
 20
-129.249919
 42
0.000000
 10
-102.990772
 20
-129.249919
 42
0.339454
 10
-101.541882
 20
-128.138149
 42
0.000000
 10
-100.797932
 20
-125.361692
 42
-0.339454
 10
-99.349044
 20
-124.249920
 42
0.000000
 10
-97.500035
 20
-124.249920
 42
-0.414214
 10
-96.000034
 20
-125.749920
 42
0.000000
 10
-96.000035
 20
-135.268590
 42
0.393578
 10
-94.624978
 20
-136.744866
 42
0.000000
 10
-93.982397
 20
-136.790544
 42
-0.339455
 10
-92.500035
 20
-138.722400
 42
0.000000
 97
     0
 75
     0
 76
     0
 52
0.000000
 41
1.000000
 77
     0
 78
     1
 53
45.000003
 43
-0.000000
 44
0.000000
 45
-2.209705
 46
2.209705
 79
     0
 98
     0
  0
LWPOLYLINE
  5
392
100
AcDbEntity
  8
Detail
  6
CONTINUOUS
 62
     3
100
AcDbPolyline
 90
    15
 10
-92.500034
 20
-138.722400
 42
0.339455
 10
-93.982396
 20
-136.790545
 42
0.000000
 10
-94.624977
 20
-136.744866
 42
-0.393577
 10
-96.000034
 20
-135.268591
 42
0.000000
 10
-96.000034
 20
-125.749921
 42
0.414214
 10
-97.500034
 20
-124.249921
 42
0.000000
 10
-99.349044
 20
-124.249921
 42
0.339454
 10
-100.797932
 20
-125.361692
 42
0.000000
 10
-101.541882
 20
-128.138149
 42
-0.339454
 10
-102.990770
 20
-129.249921
 42
0.000000
 10
-105.509298
 20
-129.249921
 42
-0.339454
 10
-106.958186
 20
-128.138149
 42
0.000000
 10
-107.702136
 20
-125.361692
 42
0.339454
 10
-109.151025
 20
-124.249921
 42
0.000000
 10
-111.500033
 20
-124.249920
 42
0.000000
  0
LWPOLYLINE
  5
3A2
100
AcDbEntity
  8
Detail
  6
CONTINUOUS
 62
     3
100
AcDbPolyline
 90
     2
 10
-113.500033
 20
-122.249920
 42
0.000000
 10
-113.500034
 20
-113.749921
 42
0.000000
  0
LWPOLYLINE
  5
3A5
100
AcDbEntity
  8
Detail
  6
CONTINUOUS
 62
     3
100
AcDbPolyline
 90
     2
 10
-113.500033
 20
-122.249920
 42
0.414214
 10
-111.500033
 20
-124.249920
 42
0.000000
  0
LWPOLYLINE
  5
3A8
100
AcDbEntity
  8
Detail
  6
CONTINUOUS
 62
     3
100
AcDbPolyline
 90
     3
 10
-113.500033
 20
-113.749920
 42
0.414213
 10
-115.000034
 20
-112.249920
 42
0.000000
 10
-138.500033
 20
-112.249920
 42
0.000000
  0
LWPOLYLINE
  5
3AC
100
AcDbEntity
  8
Detail
  6
CONTINUOUS
 62
     3
100
AcDbPolyline
 90
     2
 10
-140.500033
 20
-110.249920
 42
0.000000
 10
-140.500034
 20
-93.749921
 42
0.000000
  0
LWPOLYLINE
  5
3AF
100
AcDbEntity
  8
Detail
  6
CONTINUOUS
 62
     3
100
AcDbPolyline
 90
     2
 10
-140.500033
 20
-110.249920
 42
0.414214
 10
-138.500033
 20
-112.249920
 42
0.000000
  0
LWPOLYLINE
  5
3B2
100
AcDbEntity
  8
Detail
  6
CONTINUOUS
 62
     3
100
AcDbPolyline
 90
    36
 10
-140.500033
 20
-93.749921
 42
0.414214
 10
-142.000034
 20
-92.249920
 42
0.000000
 10
-158.000071
 20
-92.249921
 42
0.414214
 10
-160.500071
 20
-94.749921
 42
0.000000
 10
-160.500071
 20
-144.749921
 42
0.414214
 10
-158.000071
 20
-147.249921
 42
0.000000
 10
-156.500071
 20
-147.249921
 42
0.414214
 10
-155.500071
 20
-146.249921
 42
0.000000
 10
-155.500071
 20
-143.249921
 42
0.000000
 10
-150.000071
 20
-143.249921
 42
0.000000
 10
-150.000071
 20
-146.249921
 42
0.414214
 10
-149.000071
 20
-147.249921
 42
0.000000
 10
-125.767398
 20
-147.249921
 42
0.339454
 10
-124.801472
 20
-146.508740
 42
0.000000
 10
-123.789574
 20
-142.732283
 42
-0.339454
 10
-121.857722
 20
-141.249921
 42
0.000000
 10
-118.642420
 20
-141.249921
 42
-0.339454
 10
-116.710569
 20
-142.732283
 42
0.000000
 10
-115.698670
 20
-146.508740
 42
0.339454
 10
-114.732744
 20
-147.249921
 42
0.000000
 10
-112.748403
 20
-147.249921
 42
-0.576922
 10
-110.500071
 20
-148.549921
 42
0.000000
 10
-110.500071
 20
-156.749921
 42
0.000000
 10
-110.000071
 20
-157.249921
 42
0.000000
 10
-106.632452
 20
-157.249921
 42
-0.263447
 10
-104.917466
 20
-158.220929
 42
0.000000
 10
-104.000071
 20
-159.749921
 42
0.000000
 10
-104.000071
 20
-160.749921
 42
-0.414214
 10
-104.500071
 20
-161.249921
 42
0.000000
 10
-105.000071
 20
-161.249921
 42
0.414214
 10
-105.500071
 20
-161.749921
 42
0.000000
 10
-105.500071
 20
-164.270125
 42
0.356394
 10
-104.700071
 20
-165.249921
 42
0.000000
 10
-93.943526
 20
-160.234061
 42
0.291473
 10
-92.500071
 20
-157.968292
 42
0.000000
 10
-92.500034
 20
-138.722400
 42
0.000000
  0
LWPOLYLINE
  5
3D7
100
AcDbEntity
  8
Detail
  6
CONTINUOUS
 62
     4
100
AcDbPolyline
 90
     4
 10
-104.700071
 20
-165.249920
 42
0.000000
 10
-110.500027
 20
-167.249920
 42
0.000000
 10
-110.500027
 20
-158.249920
 42
-0.414213
 10
-109.500027
 20
-157.249920
 42
0.000000
  0
ENDBLK
  5
3DC
100
AcDbEntity
  8
0
100
AcDbBlockEnd
  0
BLOCK
  5
3DD
100
AcDbEntity
  8
Detail
100
AcDbBlockBegin
  2
B-35
 70
    66
 10
0.000000
 20
0.000000
 30
0.000000
  0
LWPOLYLINE
  5
3DE
100
AcDbEntity
  8
Detail
  6
CONTINUOUS
 62
     6
100
AcDbPolyline
 90
     5
 10
-237.500018
 20
-346.249941
 42
0.000000
 10
237.500023
 20
-346.249941
 42
0.000000
 10
237.500023
 20
346.250078
 42
0.000000
 10
-237.500018
 20
346.250078
 42
0.000000
 10
-237.500018
 20
-346.249941
 42
0.000000
  0
ENDBLK
  5
3E4
100
AcDbEntity
  8
0
100
AcDbBlockEnd
  0
BLOCK
  5
3E5
100
AcDbEntity
  8
Detail
100
AcDbBlockBegin
  2
B-36
 70
    66
 10
0.000000
 20
0.000000
 30
0.000000
  0
MTEXT
  5
3E6
100
AcDbEntity
  8
Detail
 62
     7
100
AcDbMText
 10
-210.625002
 20
-252.656291
 30
0.000000
 40
5.625000
 41
137.261250
 71
     1
 72
     5
  1
System:	WDVS mit Edelkratzputz
  7
Arial
 50
0.000000
  0
ENDBLK
  5
3E7
100
AcDbEntity
  8
0
100
AcDbBlockEnd
  0
BLOCK
  5
3E8
100
AcDbEntity
  8
Detail
100
AcDbBlockBegin
  2
B-37
 70
    66
 10
0.000000
 20
0.000000
 30
0.000000
  0
MTEXT
  5
3E9
100
AcDbEntity
  8
Detail
 62
     7
100
AcDbMText
 10
-210.625002
 20
-290.156291
 30
0.000000
 40
5.625000
 41
90.720000
 71
     1
 72
     5
  1
Detail:	Vollsturz / Leibung
  7
Arial
 50
0.000000
  0
ENDBLK
  5
3EA
100
AcDbEntity
  8
0
100
AcDbBlockEnd
  0
BLOCK
  5
3EB
100
AcDbEntity
  8
Detail
100
AcDbBlockBegin
  2
B-38
 70
    66
 10
0.000000
 20
0.000000
 30
0.000000
  0
MTEXT
  5
3EC
100
AcDbEntity
  8
Detail
 62
     7
100
AcDbMText
 10
6.314834
 20
-252.500041
 30
0.000000
 40
5.000000
 41
93.187500
 71
     1
 72
     5
  1
Plannummer:	130-1124
  7
Arial
 50
0.000000
  0
ENDBLK
  5
3ED
100
AcDbEntity
  8
0
100
AcDbBlockEnd
  0
BLOCK
  5
3EE
100
AcDbEntity
  8
Detail
100
AcDbBlockBegin
  2
B-39
 70
    66
 10
0.000000
 20
0.000000
 30
0.000000
  0
MTEXT
  5
3EF
100
AcDbEntity
  8
Detail
 62
     7
100
AcDbMText
 10
6.314834
 20
-277.500041
 30
0.000000
 40
5.000000
 41
91.035000
 71
     1
 72
     5
  1
Massstab:		ca. 1:2,5
  7
Arial
 50
0.000000
  0
ENDBLK
  5
3F0
100
AcDbEntity
  8
0
100
AcDbBlockEnd
  0
BLOCK
  5
3F1
100
AcDbEntity
  8
Detail
100
AcDbBlockBegin
  2
B-40
 70
    66
 10
0.000000
 20
0.000000
 30
0.000000
  0
MTEXT
  5
3F2
100
AcDbEntity
  8
Detail
 62
     7
100
AcDbMText
 10
6.314834
 20
-302.500041
 30
0.000000
 40
5.000000
 41
99.435000
 71
     1
 72
     5
  1
Aktualisierung:	14.07.2016
  7
Arial
 50
0.000000
  0
ENDBLK
  5
3F3
100
AcDbEntity
  8
0
100
AcDbBlockEnd
  0
BLOCK
  5
3F4
100
AcDbEntity
  8
Detail
100
AcDbBlockBegin
  2
B-41
 70
    66
 10
0.000000
 20
0.000000
 30
0.000000
  0
LWPOLYLINE
  5
3F5
100
AcDbEntity
  8
Detail
  6
CONTINUOUS
 62
     6
100
AcDbPolyline
 90
     2
 10
-20.560166
 20
-321.249941
 42
0.000000
 10
-20.560166
 20
-246.249941
 42
0.000000
  0
LWPOLYLINE
  5
3F8
100
AcDbEntity
  8
Detail
  6
CONTINUOUS
 62
     6
100
AcDbPolyline
 90
     2
 10
-237.500018
 20
-321.249941
 42
0.000000
 10
120.969928
 20
-321.249941
 42
0.000000
  0
LWPOLYLINE
  5
3FB
100
AcDbEntity
  8
Detail
  6
CONTINUOUS
 62
     6
100
AcDbPolyline
 90
     2
 10
-20.560166
 20
-271.249941
 42
0.000000
 10
120.969928
 20
-271.249941
 42
0.000000
  0
LWPOLYLINE
  5
3FE
100
AcDbEntity
  8
Detail
  6
CONTINUOUS
 62
     6
100
AcDbPolyline
 90
     2
 10
-20.560166
 20
-296.249941
 42
0.000000
 10
120.969928
 20
-296.249941
 42
0.000000
  0
ENDBLK
  5
401
100
AcDbEntity
  8
0
100
AcDbBlockEnd
  0
BLOCK
  5
402
100
AcDbEntity
  8
Detail
100
AcDbBlockBegin
  2
B-42
 70
    66
 10
0.000000
 20
0.000000
 30
0.000000
  0
MTEXT
  5
403
100
AcDbEntity
  8
Detail
 62
     7
100
AcDbMText
 10
-210.625009
 20
-332.500016
 30
0.000000
 40
4.999980
 41
58.117268
 71
     7
 72
     5
  1
DAW Schweiz AG
  7
Arial
 50
0.000000
  0
MTEXT
  5
404
100
AcDbEntity
  8
Detail
 62
     7
100
AcDbMText
 10
-210.625009
 20
-339.999986
 30
0.000000
 40
4.999980
 41
108.149567
 71
     7
 72
     5
  1
Gewerbestrasse 6, 8606 Nänikon
  7
Arial
 50
0.000000
  0
ENDBLK
  5
405
100
AcDbEntity
  8
0
100
AcDbBlockEnd
  0
BLOCK
  5
406
100
AcDbEntity
  8
Detail
100
AcDbBlockBegin
  2
B-43
 70
    66
 10
0.000000
 20
0.000000
 30
0.000000
  0
LWPOLYLINE
  5
407
100
AcDbEntity
  8
Detail
  6
CONTINUOUS
 62
     6
100
AcDbPolyline
 90
     2
 10
-20.560166
 20
-283.749941
 42
0.000000
 10
-237.500018
 20
-283.749941
 42
0.000000
  0
ENDBLK
  5
40A
100
AcDbEntity
  8
0
100
AcDbBlockEnd
  0
BLOCK
  5
40B
100
AcDbEntity
  8
Detail
100
AcDbBlockBegin
  2
B-44
 70
    66
 10
0.000000
 20
0.000000
 30
0.000000
  0
MTEXT
  5
40C
100
AcDbEntity
  8
Detail
 62
     7
100
AcDbMText
 10
-85.625025
 20
-332.500016
 30
0.000000
 40
4.999980
 41
72.134711
 71
     7
 72
     5
  1
Telefon 043 399 42 22
  7
Arial
 50
0.000000
  0
MTEXT
  5
40D
100
AcDbEntity
  8
Detail
 62
     7
100
AcDbMText
 10
-85.625025
 20
-339.999986
 30
0.000000
 40
4.999980
 41
71.767213
 71
     7
 72
     5
  1
Telefax 043 399 42 23
  7
Arial
 50
0.000000
  0
ENDBLK
  5
40E
100
AcDbEntity
  8
0
100
AcDbBlockEnd
  0
BLOCK
  5
40F
100
AcDbEntity
  8
Detail
100
AcDbBlockBegin
  2
B-45
 70
    66
 10
0.000000
 20
0.000000
 30
0.000000
  0
MTEXT
  5
410
100
AcDbEntity
  8
Detail
 62
     7
100
AcDbMText
 10
39.374975
 20
-332.500019
 30
0.000000
 40
4.999982
 41
51.922313
 71
     7
 72
     5
  1
info@daw.swiss
  7
Arial
 50
0.000000
  0
MTEXT
  5
411
100
AcDbEntity
  8
Detail
 62
     7
100
AcDbMText
 10
39.374975
 20
-339.999993
 30
0.000000
 40
4.999982
 41
54.599803
 71
     7
 72
     5
  1
www.capatect.ch
  7
Arial
 50
0.000000
  0
ENDBLK
  5
412
100
AcDbEntity
  8
0
100
AcDbBlockEnd
  0
BLOCK
  5
413
100
AcDbEntity
  8
Detail
100
AcDbBlockBegin
  2
B-46
 70
    66
 10
0.000000
 20
0.000000
 30
0.000000
  0
LWPOLYLINE
  5
414
100
AcDbEntity
  8
Detail
  6
CONTINUOUS
 62
     6
100
AcDbPolyline
 90
     2
 10
120.969928
 20
-346.249941
 42
0.000000
 10
120.969928
 20
-246.249941
 42
0.000000
  0
ENDBLK
  5
417
100
AcDbEntity
  8
0
100
AcDbBlockEnd
  0
BLOCK
  5
418
100
AcDbEntity
  8
Detail
100
AcDbBlockBegin
  2
B-47
 70
    66
 10
0.000000
 20
0.000000
 30
0.000000
  0
LWPOLYLINE
  5
419
100
AcDbEntity
  8
Detail
  6
CONTINUOUS
 62
     9
100
AcDbPolyline
 90
     2
 10
-46.014215
 20
46.750078
 42
0.000000
 10
-46.014215
 20
32.770665
 42
0.000000
  0
LWPOLYLINE
  5
41C
100
AcDbEntity
  8
Detail
  6
CONTINUOUS
 62
     9
100
AcDbPolyline
 90
   203
 10
-136.014215
 20
39.750078
 42
0.000000
 10
-133.901139
 20
40.625342
 42
0.000000
 10
-133.399564
 20
41.494096
 42
0.000000
 10
-133.010889
 20
40.994096
 42
0.000000
 10
-131.930552
 20
41.441586
 42
0.000000
 10
-131.428977
 20
42.310340
 42
0.000000
 10
-131.040302
 20
41.810340
 42
0.000000
 10
-130.461525
 20
42.050078
 42
0.000000
 10
-129.860486
 20
42.050078
 42
0.000000
 10
-129.571811
 20
42.550078
 42
0.000000
 10
-129.183136
 20
42.050078
 42
0.000000
 10
-128.050486
 20
42.050078
 42
0.000000
 10
-127.761811
 20
42.550078
 42
0.000000
 10
-127.373136
 20
42.050078
 42
0.000000
 10
-126.240486
 20
42.050078
 42
0.000000
 10
-125.951811
 20
42.550078
 42
0.000000
 10
-125.563136
 20
42.050078
 42
0.000000
 10
-124.430486
 20
42.050078
 42
0.000000
 10
-124.141811
 20
42.550078
 42
0.000000
 10
-123.753136
 20
42.050078
 42
0.000000
 10
-122.620486
 20
42.050078
 42
0.000000
 10
-122.331811
 20
42.550078
 42
0.000000
 10
-121.943136
 20
42.050078
 42
0.000000
 10
-120.810486
 20
42.050078
 42
0.000000
 10
-120.521811
 20
42.550078
 42
0.000000
 10
-120.133136
 20
42.050078
 42
0.000000
 10
-119.000486
 20
42.050078
 42
0.000000
 10
-118.711811
 20
42.550078
 42
0.000000
 10
-118.323136
 20
42.050078
 42
0.000000
 10
-117.190486
 20
42.050078
 42
0.000000
 10
-116.901811
 20
42.550078
 42
0.000000
 10
-116.513136
 20
42.050078
 42
0.000000
 10
-115.380486
 20
42.050078
 42
0.000000
 10
-115.091811
 20
42.550078
 42
0.000000
 10
-114.703136
 20
42.050078
 42
0.000000
 10
-113.570486
 20
42.050078
 42
0.000000
 10
-113.281811
 20
42.550078
 42
0.000000
 10
-112.893136
 20
42.050078
 42
0.000000
 10
-111.760486
 20
42.050078
 42
0.000000
 10
-111.471811
 20
42.550078
 42
0.000000
 10
-111.083136
 20
42.050078
 42
0.000000
 10
-109.950486
 20
42.050078
 42
0.000000
 10
-109.661811
 20
42.550078
 42
0.000000
 10
-109.273136
 20
42.050078
 42
0.000000
 10
-108.140486
 20
42.050078
 42
0.000000
 10
-107.851811
 20
42.550078
 42
0.000000
 10
-107.463136
 20
42.050078
 42
0.000000
 10
-106.330486
 20
42.050078
 42
0.000000
 10
-106.041811
 20
42.550078
 42
0.000000
 10
-105.653136
 20
42.050078
 42
0.000000
 10
-104.520486
 20
42.050078
 42
0.000000
 10
-104.231811
 20
42.550078
 42
0.000000
 10
-103.843136
 20
42.050078
 42
0.000000
 10
-102.710486
 20
42.050078
 42
0.000000
 10
-102.421811
 20
42.550078
 42
0.000000
 10
-102.033136
 20
42.050078
 42
0.000000
 10
-100.900486
 20
42.050078
 42
0.000000
 10
-100.611811
 20
42.550078
 42
0.000000
 10
-100.200622
 20
42.050078
 42
0.000000
 10
-99.090486
 20
42.050078
 42
0.000000
 10
-98.801811
 20
42.550078
 42
0.000000
 10
-98.413136
 20
42.050078
 42
0.000000
 10
-97.280486
 20
42.050078
 42
0.000000
 10
-96.991811
 20
42.550078
 42
0.000000
 10
-96.603136
 20
42.050078
 42
0.000000
 10
-95.470486
 20
42.050078
 42
0.000000
 10
-95.181811
 20
42.550078
 42
0.000000
 10
-94.793136
 20
42.050078
 42
0.000000
 10
-93.660486
 20
42.050078
 42
0.000000
 10
-93.371811
 20
42.550078
 42
0.000000
 10
-92.983136
 20
42.050078
 42
0.000000
 10
-91.850486
 20
42.050078
 42
0.000000
 10
-91.561811
 20
42.550078
 42
0.000000
 10
-91.173136
 20
42.050078
 42
0.000000
 10
-90.040486
 20
42.050078
 42
0.000000
 10
-89.751811
 20
42.550078
 42
0.000000
 10
-89.363136
 20
42.050078
 42
0.000000
 10
-88.230486
 20
42.050078
 42
0.000000
 10
-87.941811
 20
42.550078
 42
0.000000
 10
-87.553136
 20
42.050078
 42
0.000000
 10
-86.420486
 20
42.050078
 42
0.000000
 10
-86.131811
 20
42.550078
 42
0.000000
 10
-85.743136
 20
42.050078
 42
0.000000
 10
-84.610486
 20
42.050078
 42
0.000000
 10
-84.321811
 20
42.550078
 42
0.000000
 10
-83.933136
 20
42.050078
 42
0.000000
 10
-82.800486
 20
42.050078
 42
0.000000
 10
-82.511811
 20
42.550078
 42
0.000000
 10
-82.123136
 20
42.050078
 42
0.000000
 10
-80.990486
 20
42.050078
 42
0.000000
 10
-80.701811
 20
42.550078
 42
0.000000
 10
-80.313136
 20
42.050078
 42
0.000000
 10
-79.180486
 20
42.050078
 42
0.000000
 10
-78.891811
 20
42.550078
 42
0.000000
 10
-78.503136
 20
42.050078
 42
0.000000
 10
-77.370486
 20
42.050078
 42
0.000000
 10
-77.081811
 20
42.550078
 42
0.000000
 10
-76.693136
 20
42.050078
 42
0.000000
 10
-76.014215
 20
42.050078
 42
0.000000
 10
-75.841010
 20
42.150078
 42
0.000000
 10
-52.014215
 20
44.250078
 42
0.000000
 10
-52.014215
 20
35.250078
 42
0.000000
 10
-75.841010
 20
37.350078
 42
0.000000
 10
-76.014215
 20
37.450078
 42
0.000000
 10
-76.176811
 20
36.950078
 42
0.000000
 10
-76.465486
 20
37.450078
 42
0.000000
 10
-77.598136
 20
37.450078
 42
0.000000
 10
-77.986811
 20
36.950078
 42
0.000000
 10
-78.275486
 20
37.450078
 42
0.000000
 10
-79.408136
 20
37.450078
 42
0.000000
 10
-79.796811
 20
36.950078
 42
0.000000
 10
-80.085486
 20
37.450078
 42
0.000000
 10
-81.218136
 20
37.450078
 42
0.000000
 10
-81.606811
 20
36.950078
 42
0.000000
 10
-81.895486
 20
37.450078
 42
0.000000
 10
-83.028136
 20
37.450078
 42
0.000000
 10
-83.416811
 20
36.950078
 42
0.000000
 10
-83.705486
 20
37.450078
 42
0.000000
 10
-84.838136
 20
37.450078
 42
0.000000
 10
-85.226811
 20
36.950078
 42
0.000000
 10
-85.515486
 20
37.450078
 42
0.000000
 10
-86.648136
 20
37.450078
 42
0.000000
 10
-87.036811
 20
36.950078
 42
0.000000
 10
-87.325486
 20
37.450078
 42
0.000000
 10
-88.458136
 20
37.450078
 42
0.000000
 10
-88.846811
 20
36.950078
 42
0.000000
 10
-89.135486
 20
37.450078
 42
0.000000
 10
-90.268136
 20
37.450078
 42
0.000000
 10
-90.656811
 20
36.950078
 42
0.000000
 10
-90.945486
 20
37.450078
 42
0.000000
 10
-92.078136
 20
37.450078
 42
0.000000
 10
-92.466811
 20
36.950078
 42
0.000000
 10
-92.755486
 20
37.450078
 42
0.000000
 10
-93.888136
 20
37.450078
 42
0.000000
 10
-94.276811
 20
36.950078
 42
0.000000
 10
-94.565486
 20
37.450078
 42
0.000000
 10
-95.698136
 20
37.450078
 42
0.000000
 10
-96.086811
 20
36.950078
 42
0.000000
 10
-96.375486
 20
37.450078
 42
0.000000
 10
-97.508136
 20
37.450078
 42
0.000000
 10
-97.896811
 20
36.950078
 42
0.000000
 10
-98.185486
 20
37.450078
 42
0.000000
 10
-99.318136
 20
37.450078
 42
0.000000
 10
-99.706811
 20
36.950078
 42
0.000000
 10
-99.995486
 20
37.450078
 42
0.000000
 10
-101.128136
 20
37.450078
 42
0.000000
 10
-101.516811
 20
36.950078
 42
0.000000
 10
-101.805486
 20
37.450078
 42
0.000000
 10
-102.938136
 20
37.450078
 42
0.000000
 10
-103.326811
 20
36.950078
 42
0.000000
 10
-103.615486
 20
37.450078
 42
0.000000
 10
-104.748136
 20
37.450078
 42
0.000000
 10
-105.136811
 20
36.950078
 42
0.000000
 10
-105.425486
 20
37.450078
 42
0.000000
 10
-106.558136
 20
37.450078
 42
0.000000
 10
-106.946811
 20
36.950078
 42
0.000000
 10
-107.235486
 20
37.450078
 42
0.000000
 10
-108.368136
 20
37.450078
 42
0.000000
 10
-108.756811
 20
36.950078
 42
0.000000
 10
-109.045486
 20
37.450078
 42
0.000000
 10
-110.178136
 20
37.450078
 42
0.000000
 10
-110.566811
 20
36.950078
 42
0.000000
 10
-110.855486
 20
37.450078
 42
0.000000
 10
-111.988136
 20
37.450078
 42
0.000000
 10
-112.376811
 20
36.950078
 42
0.000000
 10
-112.665486
 20
37.450078
 42
0.000000
 10
-113.798136
 20
37.450078
 42
0.000000
 10
-114.186811
 20
36.950078
 42
0.000000
 10
-114.475486
 20
37.450078
 42
0.000000
 10
-115.608136
 20
37.450078
 42
0.000000
 10
-115.996811
 20
36.950078
 42
0.000000
 10
-116.285486
 20
37.450078
 42
0.000000
 10
-117.418136
 20
37.450078
 42
0.000000
 10
-117.806811
 20
36.950078
 42
0.000000
 10
-118.095486
 20
37.450078
 42
0.000000
 10
-119.228136
 20
37.450078
 42
0.000000
 10
-119.616811
 20
36.950078
 42
0.000000
 10
-119.905486
 20
37.450078
 42
0.000000
 10
-121.038136
 20
37.450078
 42
0.000000
 10
-121.426811
 20
36.950078
 42
0.000000
 10
-121.715486
 20
37.450078
 42
0.000000
 10
-122.848136
 20
37.450078
 42
0.000000
 10
-123.236811
 20
36.950078
 42
0.000000
 10
-123.525486
 20
37.450078
 42
0.000000
 10
-124.658136
 20
37.450078
 42
0.000000
 10
-125.046811
 20
36.950078
 42
0.000000
 10
-125.335486
 20
37.450078
 42
0.000000
 10
-126.468136
 20
37.450078
 42
0.000000
 10
-126.856811
 20
36.950078
 42
0.000000
 10
-127.145486
 20
37.450078
 42
0.000000
 10
-128.278136
 20
37.450078
 42
0.000000
 10
-128.666811
 20
36.950078
 42
0.000000
 10
-128.955486
 20
37.450078
 42
0.000000
 10
-130.088136
 20
37.450078
 42
0.000000
 10
-130.476811
 20
36.950078
 42
0.000000
 10
-130.861026
 20
37.615557
 42
0.000000
 10
-131.789885
 20
38.000303
 42
0.000000
 10
-132.178560
 20
37.500303
 42
0.000000
 10
-132.680135
 20
38.369057
 42
0.000000
 10
-133.463499
 20
38.693537
 42
0.000000
 10
-133.852174
 20
38.193537
 42
0.000000
 10
-134.353749
 20
39.062290
 42
0.000000
 10
-136.014215
 20
39.750078
 42
0.000000
  0
LWPOLYLINE
  5
4E8
100
AcDbEntity
  8
Detail
  6
CONTINUOUS
 62
     9
100
AcDbPolyline
 90
    83
 10
-17.514215
 20
9.750078
 42
0.000000
 10
-17.014215
 20
9.750078
 42
0.000000
 10
-16.014215
 20
14.750078
 42
0.000000
 10
-16.014215
 20
64.750078
 42
0.000000
 10
-17.014215
 20
69.750078
 42
0.000000
 10
-17.514215
 20
69.750078
 42
0.000000
 10
-17.514215
 20
52.750078
 42
0.000000
 10
-18.764215
 20
49.000078
 42
0.000000
 10
-22.514215
 20
47.750078
 42
0.000000
 10
-46.014215
 20
46.750078
 42
0.000000
 10
-52.014215
 20
44.250078
 42
0.000000
 10
-94.476412
 20
43.710078
 42
0.000000
 10
-95.842355
 20
43.463068
 42
0.000000
 10
-95.918108
 20
43.710078
 42
0.000000
 10
-98.700412
 20
43.710078
 42
0.000000
 10
-100.066355
 20
43.463068
 42
0.000000
 10
-100.142108
 20
43.710078
 42
0.000000
 10
-102.924412
 20
43.710078
 42
0.000000
 10
-104.290355
 20
43.463068
 42
0.000000
 10
-104.366024
 20
43.705278
 42
0.000000
 10
-107.148412
 20
43.710078
 42
0.000000
 10
-108.514355
 20
43.463068
 42
0.000000
 10
-108.590108
 20
43.710078
 42
0.000000
 10
-111.372412
 20
43.710078
 42
0.000000
 10
-112.738355
 20
43.463068
 42
0.000000
 10
-112.814108
 20
43.710078
 42
0.000000
 10
-115.596412
 20
43.710078
 42
0.000000
 10
-116.962355
 20
43.463068
 42
0.000000
 10
-117.038108
 20
43.710078
 42
0.000000
 10
-119.820412
 20
43.710078
 42
0.000000
 10
-121.186355
 20
43.463068
 42
0.000000
 10
-121.262108
 20
43.710078
 42
0.000000
 10
-124.044412
 20
43.710078
 42
0.000000
 10
-125.410355
 20
43.463068
 42
0.000000
 10
-125.486108
 20
43.710078
 42
0.000000
 10
-128.268412
 20
43.710078
 42
0.000000
 10
-129.472568
 20
43.427645
 42
0.000000
 10
-129.931551
 20
43.590077
 42
0.000000
 10
-130.908412
 20
43.155821
 42
0.000000
 10
-131.148412
 20
42.630078
 42
0.000000
 10
-131.916412
 20
42.630078
 42
0.000000
 10
-133.434305
 20
42.089110
 42
0.000000
 10
-134.267922
 20
40.710078
 42
0.000000
 10
-136.014215
 20
39.750078
 42
0.000000
 10
-134.267922
 20
38.790078
 42
0.000000
 10
-133.434305
 20
37.411046
 42
0.000000
 10
-132.171611
 20
36.883684
 42
0.000000
 10
-131.148412
 20
36.870078
 42
0.000000
 10
-130.908412
 20
36.344334
 42
0.000000
 10
-130.156256
 20
35.910078
 42
0.000000
 10
-129.706843
 20
35.910078
 42
0.000000
 10
-129.472568
 20
36.072510
 42
0.000000
 10
-128.268412
 20
35.790078
 42
0.000000
 10
-125.486108
 20
35.790078
 42
0.000000
 10
-125.410355
 20
36.037087
 42
0.000000
 10
-124.044412
 20
35.790078
 42
0.000000
 10
-121.262108
 20
35.790078
 42
0.000000
 10
-121.186355
 20
36.037087
 42
0.000000
 10
-119.820412
 20
35.790078
 42
0.000000
 10
-117.038108
 20
35.790078
 42
0.000000
 10
-116.962355
 20
36.037087
 42
0.000000
 10
-115.596412
 20
35.790078
 42
0.000000
 10
-112.814108
 20
35.790078
 42
0.000000
 10
-112.738355
 20
36.037087
 42
0.000000
 10
-111.372412
 20
35.790078
 42
0.000000
 10
-108.590108
 20
35.790078
 42
0.000000
 10
-108.514355
 20
36.037087
 42
0.000000
 10
-107.148412
 20
35.790078
 42
0.000000
 10
-104.366024
 20
35.794878
 42
0.000000
 10
-104.290355
 20
36.037087
 42
0.000000
 10
-102.924412
 20
35.790078
 42
0.000000
 10
-100.142108
 20
35.790078
 42
0.000000
 10
-100.066355
 20
36.037087
 42
0.000000
 10
-98.700412
 20
35.790078
 42
0.000000
 10
-95.918108
 20
35.790078
 42
0.000000
 10
-95.842355
 20
36.037087
 42
0.000000
 10
-94.476412
 20
35.790078
 42
0.000000
 10
-52.014215
 20
35.250078
 42
0.000000
 10
-46.014215
 20
32.750078
 42
0.000000
 10
-22.514215
 20
31.750078
 42
0.000000
 10
-18.764215
 20
30.500078
 42
0.000000
 10
-17.514215
 20
26.750078
 42
0.000000
 10
-17.514215
 20
9.750078
 42
0.000000
  0
ENDBLK
  5
53C
100
AcDbEntity
  8
0
100
AcDbBlockEnd
  0
BLOCK
  5
53D
100
AcDbEntity
  8
Detail
100
AcDbBlockBegin
  2
B-49
 70
    66
 10
0.000000
 20
0.000000
 30
0.000000
  0
LWPOLYLINE
  5
53E
100
AcDbEntity
  8
Detail
  6
CONTINUOUS
 62
     3
100
AcDbPolyline
 90
     5
 10
2.499982
 20
69.750078
 42
0.000000
 10
-17.514215
 20
69.750078
 42
0.000000
 10
-17.514215
 20
9.750078
 42
0.000000
 10
2.499982
 20
9.750078
 42
0.000000
 10
2.499982
 20
69.750078
 42
0.000000
  0
ENDBLK
  5
544
100
AcDbEntity
  8
0
100
AcDbBlockEnd
  0
BLOCK
  5
545
100
AcDbEntity
  8
Detail
100
AcDbBlockBegin
  2
B-50
 70
    66
 10
0.000000
 20
0.000000
 30
0.000000
  0
LWPOLYLINE
  5
546
100
AcDbEntity
  8
Detail
  6
CONTINUOUS
 62
     6
100
AcDbPolyline
 90
    74
 10
-212.500018
 20
-35.715678
 42
0.000000
 10
-212.431530
 20
-35.749922
 42
0.000000
 10
-211.431530
 20
-35.249922
 42
0.000000
 10
-210.431530
 20
-35.249922
 42
0.000000
 10
-209.431530
 20
-34.749922
 42
0.000000
 10
-208.431530
 20
-35.249922
 42
0.000000
 10
-207.431530
 20
-35.249922
 42
0.000000
 10
-206.431530
 20
-35.749922
 42
0.000000
 10
-205.431530
 20
-35.249922
 42
0.000000
 10
-204.431530
 20
-35.249922
 42
0.000000
 10
-203.431530
 20
-34.749922
 42
0.000000
 10
-202.431530
 20
-35.249922
 42
0.000000
 10
-201.431530
 20
-35.249922
 42
0.000000
 10
-200.431530
 20
-35.749922
 42
0.000000
 10
-199.431530
 20
-35.249922
 42
0.000000
 10
-198.451798
 20
-35.249922
 42
0.000000
 10
-197.431530
 20
-34.749922
 42
0.000000
 10
-196.431530
 20
-35.249922
 42
0.000000
 10
-195.431530
 20
-35.249922
 42
0.000000
 10
-194.431530
 20
-35.749922
 42
0.000000
 10
-193.431530
 20
-35.249922
 42
0.000000
 10
-192.431530
 20
-35.249922
 42
0.000000
 10
-191.431530
 20
-34.749922
 42
0.000000
 10
-190.431530
 20
-35.249922
 42
0.000000
 10
-189.431530
 20
-35.249922
 42
0.000000
 10
-188.431530
 20
-35.749922
 42
0.000000
 10
-187.431530
 20
-35.249922
 42
0.000000
 10
-186.431530
 20
-35.249922
 42
0.000000
 10
-185.431530
 20
-34.749922
 42
0.000000
 10
-184.431530
 20
-35.249922
 42
0.000000
 10
-183.431530
 20
-35.249922
 42
0.000000
 10
-182.431530
 20
-35.749922
 42
0.000000
 10
-181.431530
 20
-35.249922
 42
0.000000
 10
-180.431530
 20
-35.249922
 42
0.000000
 10
-179.431530
 20
-34.749922
 42
0.000000
 10
-178.431530
 20
-35.249922
 42
0.000000
 10
-177.431530
 20
-35.249922
 42
0.000000
 10
-176.431530
 20
-35.749922
 42
0.000000
 10
-175.431530
 20
-35.249922
 42
0.000000
 10
-174.431530
 20
-35.249922
 42
0.000000
 10
-173.431530
 20
-34.749922
 42
0.000000
 10
-172.431530
 20
-35.249922
 42
0.000000
 10
-171.431530
 20
-35.249922
 42
0.000000
 10
-170.431530
 20
-35.749922
 42
0.000000
 10
-169.431530
 20
-35.249922
 42
0.000000
 10
-168.431530
 20
-35.249922
 42
0.000000
 10
-167.431530
 20
-34.749922
 42
0.000000
 10
-166.431530
 20
-35.249922
 42
0.000000
 10
-165.431530
 20
-35.249922
 42
0.000000
 10
-164.431530
 20
-35.749922
 42
0.000000
 10
-163.431530
 20
-35.249922
 42
0.000000
 10
-162.431530
 20
-35.249922
 42
0.000000
 10
-161.431530
 20
-34.749922
 42
0.000000
 10
-160.431530
 20
-35.249922
 42
0.000000
 10
-159.431530
 20
-35.249922
 42
0.000000
 10
-158.431530
 20
-35.749922
 42
0.000000
 10
-157.431530
 20
-35.249922
 42
0.000000
 10
-156.431530
 20
-35.249922
 42
0.000000
 10
-155.431530
 20
-34.749922
 42
0.000000
 10
-154.431530
 20
-35.249922
 42
0.000000
 10
-153.431530
 20
-35.249922
 42
0.000000
 10
-152.431530
 20
-35.749922
 42
0.000000
 10
-151.431530
 20
-35.249922
 42
0.000000
 10
-150.431530
 20
-35.249922
 42
0.000000
 10
-149.431530
 20
-34.749922
 42
0.000000
 10
-148.431530
 20
-35.249922
 42
0.000000
 10
-147.431530
 20
-35.249922
 42
0.000000
 10
-146.431530
 20
-35.749922
 42
0.000000
 10
-145.431530
 20
-35.249922
 42
0.000000
 10
-144.431530
 20
-35.249922
 42
0.000000
 10
-143.431530
 20
-34.749922
 42
0.000000
 10
-142.431530
 20
-35.249922
 42
0.000000
 10
-141.431530
 20
-35.249922
 42
0.000000
 10
-140.500034
 20
-35.715670
 42
0.000000
  0
ENDBLK
  5
591
100
AcDbEntity
  8
0
100
AcDbBlockEnd
  0
BLOCK
  5
592
100
AcDbEntity
  8
Detail
100
AcDbBlockBegin
  2
B-51
 70
    66
 10
0.000000
 20
0.000000
 30
0.000000
  0
MTEXT
  5
593
100
AcDbEntity
  8
Detail
 62
     7
100
AcDbMText
 10
84.374982
 20
-107.750022
 30
0.000000
 40
5.000000
 41
63.577500
 71
     1
 72
     5
  1
Fugendichtband 2D
  7
Arial
 50
0.000000
  0
ENDBLK
  5
594
100
AcDbEntity
  8
0
100
AcDbBlockEnd
  0
BLOCK
  5
595
100
AcDbEntity
  8
Detail
100
AcDbBlockBegin
  2
B-52
 70
    66
 10
0.000000
 20
0.000000
 30
0.000000
  0
MTEXT
  5
596
100
AcDbEntity
  8
Detail
 62
     7
100
AcDbMText
 10
84.374982
 20
-132.750022
 30
0.000000
 40
5.000000
 41
49.455000
 71
     1
 72
     5
  1
Gipserband PE
  7
Arial
 50
0.000000
  0
ENDBLK
  5
597
100
AcDbEntity
  8
0
100
AcDbBlockEnd
  0
BLOCK
  5
598
100
AcDbEntity
  8
SCHRAFF
100
AcDbBlockBegin
  2
B-53
 70
    66
 10
0.000000
 20
0.000000
 30
0.000000
  0
HATCH
  5
599
100
AcDbEntity
  8
SCHRAFF
 62
     8
440
     0
100
AcDbHatch
 10
0.000000
 20
0.000000
 30
0.000000
210
0.000000
220
0.000000
230
1.000000
  2
SOLID
 70
     1
 71
     1
 91
     1
 92
    18
 72
     1
 73
     0
 93
     5
 10
-82.500035
 20
-60.249922
 42
0.000000
 10
-77.500035
 20
-60.249923
 42
0.000000
 10
-77.500034
 20
-50.249922
 42
0.000000
 10
-82.500034
 20
-50.249922
 42
0.000000
 10
-82.500035
 20
-60.249922
 42
0.000000
 97
     0
 75
     0
 76
     1
 98
     0
  0
LWPOLYLINE
  5
59A
100
AcDbEntity
  8
Detail
  6
CONTINUOUS
 62
     4
100
AcDbPolyline
 90
     5
 10
-77.500035
 20
-60.249923
 42
0.000000
 10
-82.500035
 20
-60.249922
 42
0.000000
 10
-82.500034
 20
-50.249922
 42
0.000000
 10
-77.500034
 20
-50.249922
 42
0.000000
 10
-77.500035
 20
-60.249923
 42
0.000000
  0
ENDBLK
  5
5A0
100
AcDbEntity
  8
0
100
AcDbBlockEnd
  0
BLOCK
  5
5A1
100
AcDbEntity
  8
SCHRAFF
100
AcDbBlockBegin
  2
B-54
 70
    66
 10
0.000000
 20
0.000000
 30
0.000000
  0
HATCH
  5
5A2
100
AcDbEntity
  8
SCHRAFF
 62
     7
440
     0
100
AcDbHatch
 10
0.000000
 20
0.000000
 30
0.000000
210
0.000000
220
0.000000
230
1.000000
  2
SOLID
 70
     1
 71
     1
 91
     1
 92
    18
 72
     1
 73
     0
 93
     3
 10
-80.750027
 20
-70.249922
 42
1.000000
 10
-81.750027
 20
-70.249922
 42
1.000000
 10
-80.750027
 20
-70.249922
 42
0.000000
 97
     0
 75
     0
 76
     1
 98
     0
  0
CIRCLE
  5
5A3
100
AcDbEntity
  8
Detail
  6
CONTINUOUS
 62
     7
100
AcDbCircle
 10
-81.250027
 20
-70.249922
 40
0.500000
  0
ENDBLK
  5
5A4
100
AcDbEntity
  8
0
100
AcDbBlockEnd
  0
BLOCK
  5
5A5
100
AcDbEntity
  8
SCHRAFF
100
AcDbBlockBegin
  2
B-55
 70
    66
 10
0.000000
 20
0.000000
 30
0.000000
  0
HATCH
  5
5A6
100
AcDbEntity
  8
SCHRAFF
 62
     7
440
     0
100
AcDbHatch
 10
0.000000
 20
0.000000
 30
0.000000
210
0.000000
220
0.000000
230
1.000000
  2
SOLID
 70
     1
 71
     1
 91
     1
 92
    18
 72
     1
 73
     0
 93
     3
 10
-79.500034
 20
-55.249955
 42
1.000000
 10
-80.500034
 20
-55.249955
 42
1.000000
 10
-79.500034
 20
-55.249955
 42
0.000000
 97
     0
 75
     0
 76
     1
 98
     0
  0
CIRCLE
  5
5A7
100
AcDbEntity
  8
Detail
  6
CONTINUOUS
 62
     7
100
AcDbCircle
 10
-80.000034
 20
-55.249955
 40
0.500000
  0
ENDBLK
  5
5A8
100
AcDbEntity
  8
0
100
AcDbBlockEnd
  0
BLOCK
  5
5A9
100
AcDbEntity
  8
Detail
100
AcDbBlockBegin
  2
B-56
 70
    66
 10
0.000000
 20
0.000000
 30
0.000000
  0
LWPOLYLINE
  5
5AA
100
AcDbEntity
  8
Detail
  6
CONTINUOUS
 62
     7
100
AcDbPolyline
 90
     4
 10
82.499982
 20
-110.249922
 42
0.000000
 10
-60.000027
 20
-110.249922
 42
0.000000
 10
-60.000027
 20
-55.249955
 42
0.000000
 10
-80.000034
 20
-55.249955
 42
0.000000
  0
LWPOLYLINE
  5
5AF
100
AcDbEntity
  8
Detail
  6
CONTINUOUS
 62
     7
100
AcDbPolyline
 90
     3
 10
82.499982
 20
-135.249922
 42
0.000000
 10
-81.250027
 20
-135.249922
 42
0.000000
 10
-81.250027
 20
-70.249922
 42
0.000000
  0
ENDBLK
  5
5B3
100
AcDbEntity
  8
0
100
AcDbBlockEnd
  0
BLOCK
  5
5B4
100
AcDbEntity
  8
Detail
100
AcDbBlockBegin
  2
B-57
 70
    66
 10
0.000000
 20
0.000000
 30
0.000000
  0
LWPOLYLINE
  5
5B5
100
AcDbEntity
  8
Detail
  6
CONTINUOUS
 62
     6
100
AcDbPolyline
 90
     2
 10
-82.500034
 20
-127.562623
 42
0.000000
 10
-82.500034
 20
-192.988515
 42
0.000000
  0
LWPOLYLINE
  5
5B8
100
AcDbEntity
  8
Detail
  6
CONTINUOUS
 62
     6
100
AcDbPolyline
 90
     2
 10
-159.492260
 20
-160.570644
 42
0.000000
 10
-159.492260
 20
-192.988515
 42
0.000000
  0
LWPOLYLINE
  5
5BB
100
AcDbEntity
  8
Detail
  6
CONTINUOUS
 62
     6
100
AcDbPolyline
 90
     2
 10
-92.500071
 20
-160.468292
 42
0.000000
 10
-92.500071
 20
-192.988515
 42
0.000000
  0
ENDBLK
  5
5BE
100
AcDbEntity
  8
0
100
AcDbBlockEnd
  0
BLOCK
  5
5BF
100
AcDbEntity
  8
Detail
100
AcDbBlockBegin
  2
B-58
 70
    66
 10
0.000000
 20
0.000000
 30
0.000000
  0
LWPOLYLINE
  5
5C0
100
AcDbEntity
  8
Detail
  6
CONTINUOUS
 62
     6
100
AcDbPolyline
 90
   377
 10
22.499982
 20
296.250078
 42
0.000000
 10
22.499982
 20
295.750078
 42
0.000000
 10
22.999982
 20
294.750078
 42
0.000000
 10
22.499982
 20
293.750078
 42
0.000000
 10
22.499982
 20
292.750078
 42
0.000000
 10
21.999982
 20
291.750078
 42
0.000000
 10
22.499982
 20
290.750078
 42
0.000000
 10
22.499982
 20
289.750078
 42
0.000000
 10
22.999982
 20
288.750078
 42
0.000000
 10
22.499982
 20
287.742411
 42
0.000000
 10
22.499982
 20
286.750078
 42
0.000000
 10
21.999982
 20
285.750078
 42
0.000000
 10
22.499982
 20
284.750078
 42
0.000000
 10
22.499982
 20
283.750078
 42
0.000000
 10
22.999982
 20
282.750078
 42
0.000000
 10
22.499982
 20
281.750078
 42
0.000000
 10
22.499982
 20
280.750078
 42
0.000000
 10
21.999982
 20
279.750078
 42
0.000000
 10
22.499982
 20
278.750078
 42
0.000000
 10
22.499982
 20
277.750078
 42
0.000000
 10
22.999982
 20
276.750078
 42
0.000000
 10
22.499982
 20
275.750078
 42
0.000000
 10
22.499982
 20
274.750078
 42
0.000000
 10
21.999982
 20
273.750078
 42
0.000000
 10
22.499982
 20
272.750078
 42
0.000000
 10
22.499982
 20
271.750078
 42
0.000000
 10
22.999982
 20
270.750078
 42
0.000000
 10
22.499982
 20
269.750078
 42
0.000000
 10
22.499982
 20
268.750078
 42
0.000000
 10
21.999982
 20
267.750078
 42
0.000000
 10
22.499982
 20
266.750078
 42
0.000000
 10
22.499982
 20
265.750078
 42
0.000000
 10
22.999982
 20
264.750078
 42
0.000000
 10
22.499982
 20
263.750078
 42
0.000000
 10
22.499982
 20
262.750078
 42
0.000000
 10
21.999982
 20
261.750078
 42
0.000000
 10
22.499982
 20
260.750078
 42
0.000000
 10
22.499982
 20
259.750078
 42
0.000000
 10
22.999982
 20
258.750078
 42
0.000000
 10
22.499982
 20
257.750078
 42
0.000000
 10
22.499982
 20
256.750078
 42
0.000000
 10
21.999982
 20
255.750078
 42
0.000000
 10
22.499982
 20
254.750078
 42
0.000000
 10
22.499982
 20
253.750078
 42
0.000000
 10
22.999982
 20
252.750078
 42
0.000000
 10
22.499982
 20
251.742411
 42
0.000000
 10
22.499982
 20
250.750078
 42
0.000000
 10
21.999982
 20
249.750078
 42
0.000000
 10
22.499982
 20
248.736071
 42
0.000000
 10
22.499982
 20
247.750078
 42
0.000000
 10
22.999982
 20
246.750078
 42
0.000000
 10
22.499982
 20
245.750078
 42
0.000000
 10
22.499982
 20
244.750078
 42
0.000000
 10
21.999982
 20
243.750078
 42
0.000000
 10
22.499982
 20
242.750078
 42
0.000000
 10
22.499982
 20
241.750078
 42
0.000000
 10
22.999982
 20
240.750078
 42
0.000000
 10
22.499982
 20
239.750078
 42
0.000000
 10
22.499982
 20
238.750078
 42
0.000000
 10
21.999982
 20
237.750078
 42
0.000000
 10
22.499982
 20
236.750078
 42
0.000000
 10
22.499982
 20
235.750078
 42
0.000000
 10
22.999982
 20
234.749978
 42
0.000000
 10
22.499982
 20
233.749978
 42
0.000000
 10
22.499982
 20
232.750078
 42
0.000000
 10
21.999982
 20
231.750078
 42
0.000000
 10
22.499982
 20
230.750078
 42
0.000000
 10
22.499982
 20
229.750078
 42
0.000000
 10
22.999982
 20
228.750078
 42
0.000000
 10
22.499982
 20
227.750078
 42
0.000000
 10
22.499982
 20
226.750078
 42
0.000000
 10
21.999982
 20
225.750078
 42
0.000000
 10
22.499982
 20
224.750078
 42
0.000000
 10
22.499982
 20
223.750078
 42
0.000000
 10
22.999982
 20
222.750078
 42
0.000000
 10
22.499982
 20
221.742411
 42
0.000000
 10
22.499982
 20
220.750078
 42
0.000000
 10
21.999982
 20
219.750078
 42
0.000000
 10
22.499982
 20
218.750078
 42
0.000000
 10
22.499982
 20
217.750078
 42
0.000000
 10
22.999982
 20
216.750078
 42
0.000000
 10
22.499982
 20
215.750078
 42
0.000000
 10
22.499982
 20
214.750078
 42
0.000000
 10
21.999982
 20
213.750078
 42
0.000000
 10
22.499982
 20
212.750078
 42
0.000000
 10
22.499982
 20
211.750078
 42
0.000000
 10
22.999982
 20
210.750078
 42
0.000000
 10
22.499982
 20
209.750078
 42
0.000000
 10
22.499982
 20
208.750078
 42
0.000000
 10
21.999982
 20
207.750078
 42
0.000000
 10
22.499982
 20
206.750078
 42
0.000000
 10
22.499982
 20
205.750078
 42
0.000000
 10
22.999982
 20
204.750078
 42
0.000000
 10
22.499982
 20
203.750078
 42
0.000000
 10
22.499982
 20
202.750078
 42
0.000000
 10
21.999982
 20
201.750078
 42
0.000000
 10
22.499982
 20
200.750078
 42
0.000000
 10
22.499982
 20
199.750078
 42
0.000000
 10
22.999982
 20
198.750078
 42
0.000000
 10
22.499982
 20
197.750078
 42
0.000000
 10
22.499982
 20
196.750078
 42
0.000000
 10
21.999982
 20
195.750078
 42
0.000000
 10
22.499982
 20
194.750078
 42
0.000000
 10
22.499982
 20
193.750078
 42
0.000000
 10
22.999982
 20
192.750078
 42
0.000000
 10
22.499982
 20
191.750078
 42
0.000000
 10
22.499982
 20
190.750078
 42
0.000000
 10
21.999982
 20
189.750078
 42
0.000000
 10
22.499982
 20
188.750078
 42
0.000000
 10
22.499982
 20
187.750078
 42
0.000000
 10
22.999982
 20
186.750078
 42
0.000000
 10
22.499982
 20
185.742411
 42
0.000000
 10
22.499982
 20
184.750078
 42
0.000000
 10
21.999982
 20
183.750078
 42
0.000000
 10
22.499982
 20
182.750078
 42
0.000000
 10
22.499982
 20
181.750078
 42
0.000000
 10
22.999982
 20
180.750078
 42
0.000000
 10
22.499982
 20
179.750078
 42
0.000000
 10
22.499982
 20
178.750078
 42
0.000000
 10
21.999982
 20
177.750078
 42
0.000000
 10
22.499982
 20
176.750078
 42
0.000000
 10
22.499982
 20
175.750078
 42
0.000000
 10
22.999982
 20
174.750078
 42
0.000000
 10
22.499982
 20
173.750078
 42
0.000000
 10
22.499982
 20
172.750078
 42
0.000000
 10
21.999982
 20
171.750078
 42
0.000000
 10
22.499982
 20
170.750078
 42
0.000000
 10
22.499982
 20
169.750078
 42
0.000000
 10
22.999982
 20
168.750078
 42
0.000000
 10
22.499982
 20
167.750078
 42
0.000000
 10
22.499982
 20
166.750078
 42
0.000000
 10
21.999982
 20
165.750078
 42
0.000000
 10
22.499982
 20
164.750078
 42
0.000000
 10
22.499982
 20
163.750078
 42
0.000000
 10
22.999982
 20
162.750078
 42
0.000000
 10
22.499982
 20
161.750078
 42
0.000000
 10
22.499982
 20
160.750078
 42
0.000000
 10
21.999982
 20
159.750078
 42
0.000000
 10
22.499982
 20
158.750078
 42
0.000000
 10
22.499982
 20
157.750078
 42
0.000000
 10
22.999982
 20
156.750078
 42
0.000000
 10
22.499982
 20
155.750078
 42
0.000000
 10
22.499982
 20
154.750078
 42
0.000000
 10
21.999982
 20
153.750078
 42
0.000000
 10
22.499982
 20
152.750078
 42
0.000000
 10
22.499982
 20
151.750078
 42
0.000000
 10
22.999982
 20
150.750078
 42
0.000000
 10
22.499982
 20
149.750078
 42
0.000000
 10
22.499982
 20
148.750078
 42
0.000000
 10
21.999982
 20
147.750078
 42
0.000000
 10
22.499982
 20
146.750078
 42
0.000000
 10
22.499982
 20
145.750078
 42
0.000000
 10
22.999982
 20
144.750078
 42
0.000000
 10
22.499982
 20
143.750078
 42
0.000000
 10
22.499982
 20
142.750078
 42
0.000000
 10
21.999982
 20
141.750078
 42
0.000000
 10
22.499982
 20
140.750078
 42
0.000000
 10
22.499982
 20
139.750078
 42
0.000000
 10
22.999982
 20
138.750078
 42
0.000000
 10
22.499982
 20
137.750078
 42
0.000000
 10
22.499982
 20
136.750078
 42
0.000000
 10
21.999982
 20
135.750078
 42
0.000000
 10
22.499982
 20
134.750078
 42
0.000000
 10
22.499982
 20
133.750078
 42
0.000000
 10
22.999982
 20
132.750078
 42
0.000000
 10
22.499982
 20
131.750078
 42
0.000000
 10
22.499982
 20
130.750078
 42
0.000000
 10
21.999982
 20
129.750078
 42
0.000000
 10
22.499982
 20
128.750078
 42
0.000000
 10
22.499982
 20
127.750078
 42
0.000000
 10
22.999982
 20
126.750078
 42
0.000000
 10
22.499982
 20
125.750078
 42
0.000000
 10
22.499982
 20
124.750078
 42
0.000000
 10
21.999982
 20
123.750078
 42
0.000000
 10
22.499982
 20
122.750078
 42
0.000000
 10
22.499982
 20
121.750078
 42
0.000000
 10
22.999982
 20
120.750078
 42
0.000000
 10
22.499982
 20
119.750078
 42
0.000000
 10
22.499982
 20
118.750078
 42
0.000000
 10
21.999982
 20
117.750078
 42
0.000000
 10
22.499982
 20
116.750078
 42
0.000000
 10
22.499982
 20
115.750078
 42
0.000000
 10
22.999982
 20
114.750078
 42
0.000000
 10
22.499982
 20
113.750078
 42
0.000000
 10
22.499982
 20
112.750078
 42
0.000000
 10
21.999982
 20
111.750078
 42
0.000000
 10
22.499982
 20
110.750078
 42
0.000000
 10
22.504380
 20
109.741282
 42
0.000000
 10
22.999982
 20
108.750078
 42
0.000000
 10
22.499982
 20
107.750078
 42
0.000000
 10
22.499982
 20
106.750078
 42
0.000000
 10
21.999982
 20
105.750078
 42
0.000000
 10
22.499982
 20
104.750078
 42
0.000000
 10
22.499982
 20
103.750078
 42
0.000000
 10
22.999982
 20
102.750078
 42
0.000000
 10
22.499982
 20
101.750078
 42
0.000000
 10
22.499982
 20
100.750078
 42
0.000000
 10
21.999982
 20
99.750078
 42
0.000000
 10
22.499982
 20
98.750078
 42
0.000000
 10
22.499982
 20
97.750078
 42
0.000000
 10
22.999982
 20
96.750078
 42
0.000000
 10
22.499982
 20
95.750078
 42
0.000000
 10
22.499982
 20
94.750078
 42
0.000000
 10
21.999982
 20
93.750078
 42
0.000000
 10
22.499982
 20
92.750078
 42
0.000000
 10
22.499982
 20
91.750078
 42
0.000000
 10
22.999982
 20
90.750078
 42
0.000000
 10
22.499982
 20
89.750078
 42
0.000000
 10
22.499982
 20
88.750078
 42
0.000000
 10
21.999982
 20
87.750078
 42
0.000000
 10
22.499982
 20
86.750078
 42
0.000000
 10
22.499982
 20
85.750078
 42
0.000000
 10
22.999982
 20
84.750078
 42
0.000000
 10
22.499982
 20
83.750078
 42
0.000000
 10
22.499982
 20
82.750078
 42
0.000000
 10
21.999982
 20
81.750078
 42
0.000000
 10
22.499982
 20
80.750078
 42
0.000000
 10
22.499982
 20
79.750078
 42
0.000000
 10
22.999982
 20
78.750078
 42
0.000000
 10
22.499982
 20
77.742411
 42
0.000000
 10
22.499982
 20
76.750078
 42
0.000000
 10
21.999982
 20
75.750078
 42
0.000000
 10
22.499982
 20
74.750078
 42
0.000000
 10
22.499982
 20
73.750078
 42
0.000000
 10
22.999982
 20
72.750078
 42
0.000000
 10
22.499982
 20
71.750078
 42
0.000000
 10
22.499982
 20
70.750078
 42
0.000000
 10
21.999982
 20
69.750078
 42
0.000000
 10
22.499982
 20
68.750078
 42
0.000000
 10
22.499982
 20
67.750078
 42
0.000000
 10
22.999982
 20
66.750078
 42
0.000000
 10
22.499982
 20
65.750078
 42
0.000000
 10
22.499982
 20
64.750078
 42
0.000000
 10
21.999982
 20
63.750078
 42
0.000000
 10
22.499982
 20
62.750078
 42
0.000000
 10
22.499982
 20
61.750078
 42
0.000000
 10
22.999982
 20
60.750078
 42
0.000000
 10
22.499982
 20
59.750078
 42
0.000000
 10
22.499982
 20
58.750078
 42
0.000000
 10
21.999982
 20
57.750078
 42
0.000000
 10
22.499982
 20
56.750078
 42
0.000000
 10
22.499982
 20
55.750078
 42
0.000000
 10
22.999982
 20
54.750078
 42
0.000000
 10
22.499982
 20
53.750078
 42
0.000000
 10
22.499982
 20
52.750078
 42
0.000000
 10
21.999982
 20
51.750078
 42
0.000000
 10
22.499982
 20
50.750078
 42
0.000000
 10
22.499982
 20
49.750078
 42
0.000000
 10
22.999982
 20
48.750078
 42
0.000000
 10
22.499982
 20
47.750078
 42
0.000000
 10
22.499982
 20
46.750078
 42
0.000000
 10
21.999982
 20
45.750078
 42
0.000000
 10
22.499982
 20
44.750078
 42
0.000000
 10
22.499982
 20
43.750078
 42
0.000000
 10
22.999982
 20
42.750078
 42
0.000000
 10
22.499982
 20
41.750078
 42
0.000000
 10
22.499982
 20
40.750078
 42
0.000000
 10
21.999982
 20
39.750078
 42
0.000000
 10
22.499982
 20
38.750078
 42
0.000000
 10
22.499982
 20
37.750078
 42
0.000000
 10
22.999982
 20
36.750078
 42
0.000000
 10
22.499982
 20
35.750078
 42
0.000000
 10
22.499982
 20
34.750078
 42
0.000000
 10
21.999982
 20
33.750078
 42
0.000000
 10
22.499982
 20
32.750078
 42
0.000000
 10
22.499982
 20
31.750078
 42
0.000000
 10
22.999982
 20
30.750078
 42
0.000000
 10
22.499982
 20
29.750078
 42
0.000000
 10
22.499982
 20
28.750078
 42
0.000000
 10
21.999982
 20
27.750078
 42
0.000000
 10
22.499982
 20
26.750078
 42
0.000000
 10
22.499982
 20
25.750078
 42
0.000000
 10
22.999982
 20
24.750078
 42
0.000000
 10
22.499982
 20
23.750078
 42
0.000000
 10
22.499982
 20
22.750078
 42
0.000000
 10
21.999982
 20
21.750078
 42
0.000000
 10
22.499982
 20
20.750078
 42
0.000000
 10
22.499982
 20
19.750078
 42
0.000000
 10
22.999982
 20
18.750078
 42
0.000000
 10
22.499982
 20
17.750078
 42
0.000000
 10
22.499982
 20
16.750078
 42
0.000000
 10
21.999982
 20
15.750078
 42
0.000000
 10
22.499982
 20
14.750078
 42
0.000000
 10
22.499982
 20
13.750078
 42
0.000000
 10
22.999982
 20
12.750078
 42
0.000000
 10
22.499982
 20
11.750078
 42
0.000000
 10
22.499982
 20
10.750078
 42
0.000000
 10
21.999982
 20
9.750078
 42
0.000000
 10
22.499982
 20
8.750078
 42
0.000000
 10
22.499982
 20
7.750078
 42
0.000000
 10
22.999982
 20
6.750078
 42
0.000000
 10
22.499982
 20
5.750078
 42
0.000000
 10
22.499982
 20
4.750078
 42
0.000000
 10
21.999982
 20
3.750078
 42
0.000000
 10
22.499982
 20
2.750078
 42
0.000000
 10
22.499982
 20
1.750078
 42
0.000000
 10
22.999982
 20
0.750078
 42
0.000000
 10
22.499982
 20
-0.249922
 42
0.000000
 10
22.499982
 20
-1.249922
 42
0.000000
 10
21.999982
 20
-2.249922
 42
0.000000
 10
22.499982
 20
-3.249922
 42
0.000000
 10
22.499982
 20
-4.249922
 42
0.000000
 10
22.999982
 20
-5.249922
 42
0.000000
 10
22.499982
 20
-6.249922
 42
0.000000
 10
22.499982
 20
-7.249922
 42
0.000000
 10
21.999982
 20
-8.249922
 42
0.000000
 10
22.499982
 20
-9.249922
 42
0.000000
 10
22.499982
 20
-10.249922
 42
0.000000
 10
22.999982
 20
-11.249922
 42
0.000000
 10
22.499982
 20
-12.249922
 42
0.000000
 10
22.499982
 20
-13.249922
 42
0.000000
 10
21.999982
 20
-14.249922
 42
0.000000
 10
22.499982
 20
-15.249922
 42
0.000000
 10
22.499982
 20
-16.249922
 42
0.000000
 10
22.999982
 20
-17.249922
 42
0.000000
 10
22.499982
 20
-18.249922
 42
0.000000
 10
22.499982
 20
-19.249922
 42
0.000000
 10
21.999982
 20
-20.249922
 42
0.000000
 10
22.499982
 20
-21.249922
 42
0.000000
 10
22.499982
 20
-22.249922
 42
0.000000
 10
22.999982
 20
-23.249922
 42
0.000000
 10
22.499982
 20
-24.249922
 42
0.000000
 10
22.499982
 20
-25.249922
 42
0.000000
 10
21.999982
 20
-26.249922
 42
0.000000
 10
22.499982
 20
-27.249922
 42
0.000000
 10
22.499982
 20
-28.249922
 42
0.000000
 10
22.999982
 20
-29.249922
 42
0.000000
 10
22.499982
 20
-30.249922
 42
0.000000
 10
22.499982
 20
-31.249922
 42
0.000000
 10
21.999982
 20
-32.249922
 42
0.000000
 10
22.499982
 20
-33.249922
 42
0.000000
 10
22.499982
 20
-34.249922
 42
0.000000
 10
22.999982
 20
-35.249922
 42
0.000000
 10
22.499982
 20
-36.249922
 42
0.000000
 10
22.499982
 20
-37.249922
 42
0.000000
 10
21.999982
 20
-38.249922
 42
0.000000
 10
22.499982
 20
-39.249922
 42
0.000000
 10
22.499982
 20
-40.249922
 42
0.000000
 10
22.999982
 20
-41.249922
 42
0.000000
 10
22.499982
 20
-42.249922
 42
0.000000
 10
22.499982
 20
-43.249922
 42
0.000000
 10
21.999982
 20
-44.249922
 42
0.000000
 10
22.499982
 20
-45.249922
 42
0.000000
 10
22.499982
 20
-46.249922
 42
0.000000
 10
22.999982
 20
-47.249922
 42
0.000000
 10
22.499982
 20
-48.249922
 42
0.000000
 10
22.499982
 20
-49.249922
 42
0.000000
 10
21.999982
 20
-50.249922
 42
0.000000
 10
22.499982
 20
-51.249922
 42
0.000000
 10
22.499982
 20
-52.249922
 42
0.000000
 10
22.999982
 20
-53.249922
 42
0.000000
 10
22.499982
 20
-54.249922
 42
0.000000
 10
22.499982
 20
-55.249922
 42
0.000000
 10
21.999982
 20
-56.249922
 42
0.000000
 10
22.499982
 20
-57.249922
 42
0.000000
 10
22.499982
 20
-58.249922
 42
0.000000
 10
22.999982
 20
-59.249922
 42
0.000000
 10
22.499982
 20
-60.257589
 42
0.000000
 10
22.499982
 20
-61.249922
 42
0.000000
 10
21.999982
 20
-62.249922
 42
0.000000
 10
22.499982
 20
-63.249922
 42
0.000000
 10
22.499982
 20
-64.249922
 42
0.000000
 10
22.999982
 20
-65.249922
 42
0.000000
 10
22.499982
 20
-66.249922
 42
0.000000
 10
22.499982
 20
-67.249922
 42
0.000000
 10
21.999982
 20
-68.249922
 42
0.000000
 10
22.499982
 20
-69.249922
 42
0.000000
 10
22.499982
 20
-70.249922
 42
0.000000
 10
22.999982
 20
-71.249922
 42
0.000000
 10
22.499982
 20
-72.257589
 42
0.000000
 10
22.499982
 20
-73.249922
 42
0.000000
 10
21.999982
 20
-74.249922
 42
0.000000
 10
22.499982
 20
-75.249922
 42
0.000000
 10
22.499982
 20
-76.249922
 42
0.000000
 10
22.999982
 20
-77.249922
 42
0.000000
 10
22.499982
 20
-78.249922
 42
0.000000
 10
22.499982
 20
-80.249922
 42
0.000000
  0
LWPOLYLINE
  5
73A
100
AcDbEntity
  8
Detail
  6
CONTINUOUS
 62
     6
100
AcDbPolyline
 90
   101
 10
-80.000027
 20
-80.249922
 42
0.000000
 10
-77.500018
 20
-80.249922
 42
0.000000
 10
-76.500018
 20
-80.749922
 42
0.000000
 10
-75.500018
 20
-80.249922
 42
0.000000
 10
-74.500018
 20
-80.249922
 42
0.000000
 10
-73.500018
 20
-79.749922
 42
0.000000
 10
-72.500018
 20
-80.249922
 42
0.000000
 10
-71.500018
 20
-80.249922
 42
0.000000
 10
-70.500018
 20
-80.749922
 42
0.000000
 10
-69.500018
 20
-80.249922
 42
0.000000
 10
-68.500018
 20
-80.249922
 42
0.000000
 10
-67.500018
 20
-79.749922
 42
0.000000
 10
-66.500018
 20
-80.249922
 42
0.000000
 10
-65.500018
 20
-80.249922
 42
0.000000
 10
-64.500018
 20
-80.749922
 42
0.000000
 10
-63.500018
 20
-80.249922
 42
0.000000
 10
-62.500018
 20
-80.249922
 42
0.000000
 10
-61.500018
 20
-79.749922
 42
0.000000
 10
-60.500018
 20
-80.249922
 42
0.000000
 10
-59.500018
 20
-80.249922
 42
0.000000
 10
-58.500018
 20
-80.749922
 42
0.000000
 10
-57.500018
 20
-80.249922
 42
0.000000
 10
-56.500018
 20
-80.249922
 42
0.000000
 10
-55.500018
 20
-79.749922
 42
0.000000
 10
-54.500018
 20
-80.249922
 42
0.000000
 10
-53.500018
 20
-80.249922
 42
0.000000
 10
-52.500018
 20
-80.749922
 42
0.000000
 10
-51.500018
 20
-80.249922
 42
0.000000
 10
-50.500018
 20
-80.249922
 42
0.000000
 10
-49.500018
 20
-79.749922
 42
0.000000
 10
-48.500018
 20
-80.249922
 42
0.000000
 10
-47.500018
 20
-80.249922
 42
0.000000
 10
-46.500018
 20
-80.749922
 42
0.000000
 10
-45.500018
 20
-80.249922
 42
0.000000
 10
-44.500018
 20
-80.249922
 42
0.000000
 10
-43.500018
 20
-79.749922
 42
0.000000
 10
-42.500018
 20
-80.249922
 42
0.000000
 10
-41.500018
 20
-80.249922
 42
0.000000
 10
-40.500018
 20
-80.749922
 42
0.000000
 10
-39.500018
 20
-80.249922
 42
0.000000
 10
-38.500018
 20
-80.249922
 42
0.000000
 10
-37.500018
 20
-79.749922
 42
0.000000
 10
-36.500018
 20
-80.249922
 42
0.000000
 10
-35.500018
 20
-80.249922
 42
0.000000
 10
-34.500018
 20
-80.749922
 42
0.000000
 10
-33.500018
 20
-80.249922
 42
0.000000
 10
-32.500018
 20
-80.249922
 42
0.000000
 10
-31.500018
 20
-79.749922
 42
0.000000
 10
-30.500018
 20
-80.249922
 42
0.000000
 10
-29.500018
 20
-80.249922
 42
0.000000
 10
-28.500018
 20
-80.749922
 42
0.000000
 10
-27.500018
 20
-80.249922
 42
0.000000
 10
-26.500018
 20
-80.249922
 42
0.000000
 10
-25.500018
 20
-79.749922
 42
0.000000
 10
-24.500018
 20
-80.249922
 42
0.000000
 10
-23.500018
 20
-80.249922
 42
0.000000
 10
-22.500018
 20
-80.749922
 42
0.000000
 10
-21.500018
 20
-80.249922
 42
0.000000
 10
-20.500018
 20
-80.249922
 42
0.000000
 10
-19.500018
 20
-79.749922
 42
0.000000
 10
-18.500018
 20
-80.249922
 42
0.000000
 10
-17.500018
 20
-80.249922
 42
0.000000
 10
-16.500018
 20
-80.749922
 42
0.000000
 10
-15.500018
 20
-80.249922
 42
0.000000
 10
-14.500018
 20
-80.249922
 42
0.000000
 10
-13.500018
 20
-79.749922
 42
0.000000
 10
-12.500018
 20
-80.249922
 42
0.000000
 10
-11.500018
 20
-80.249922
 42
0.000000
 10
-10.500018
 20
-80.749922
 42
0.000000
 10
-9.492351
 20
-80.249922
 42
0.000000
 10
-8.500018
 20
-80.249922
 42
0.000000
 10
-7.500018
 20
-79.749922
 42
0.000000
 10
-6.500018
 20
-80.249922
 42
0.000000
 10
-5.500018
 20
-80.249922
 42
0.000000
 10
-4.500018
 20
-80.749922
 42
0.000000
 10
-3.500018
 20
-80.249922
 42
0.000000
 10
-2.500018
 20
-80.249922
 42
0.000000
 10
-1.500018
 20
-79.749922
 42
0.000000
 10
-0.500018
 20
-80.249922
 42
0.000000
 10
0.499982
 20
-80.249922
 42
0.000000
 10
1.499982
 20
-80.749922
 42
0.000000
 10
2.499982
 20
-80.249922
 42
0.000000
 10
3.499982
 20
-80.249922
 42
0.000000
 10
4.499982
 20
-79.749922
 42
0.000000
 10
5.499982
 20
-80.249922
 42
0.000000
 10
6.499982
 20
-80.249922
 42
0.000000
 10
7.499982
 20
-80.749922
 42
0.000000
 10
8.499982
 20
-80.249922
 42
0.000000
 10
9.499982
 20
-80.249922
 42
0.000000
 10
10.499982
 20
-79.749922
 42
0.000000
 10
11.499982
 20
-80.249922
 42
0.000000
 10
12.499982
 20
-80.249922
 42
0.000000
 10
13.499982
 20
-80.749922
 42
0.000000
 10
14.499982
 20
-80.249922
 42
0.000000
 10
15.499982
 20
-80.249922
 42
0.000000
 10
16.499982
 20
-79.749922
 42
0.000000
 10
17.499982
 20
-80.249922
 42
0.000000
 10
18.499982
 20
-80.249922
 42
0.000000
 10
19.499982
 20
-80.749922
 42
0.000000
 10
20.499982
 20
-80.249922
 42
0.000000
 10
22.499982
 20
-80.249922
 42
0.000000
  0
ENDBLK
  5
7A0
100
AcDbEntity
  8
0
100
AcDbBlockEnd
  0
BLOCK
  5
7A1
100
AcDbEntity
  8
Detail
100
AcDbBlockBegin
  2
B-59
 70
    66
 10
0.000000
 20
0.000000
 30
0.000000
  0
LWPOLYLINE
  5
7A2
100
AcDbEntity
  8
Detail
  6
CONTINUOUS
 62
     4
100
AcDbPolyline
 90
     5
 10
-80.000027
 20
-60.249922
 42
0.000000
 10
-82.500034
 20
-60.249922
 42
0.000000
 10
-82.500034
 20
-80.249922
 42
0.000000
 10
-80.000027
 20
-80.249922
 42
0.000000
 10
-80.000027
 20
-60.249922
 42
0.000000
  0
ENDBLK
  5
7A8
100
AcDbEntity
  8
0
100
AcDbBlockEnd
  0
BLOCK
  5
7A9
100
AcDbEntity
  8
SCHRAFF
100
AcDbBlockBegin
  2
B-60
 70
    66
 10
0.000000
 20
0.000000
 30
0.000000
  0
HATCH
  5
7AA
100
AcDbEntity
  8
SCHRAFF
 62
   250
440
     0
100
AcDbHatch
 10
0.000000
 20
0.000000
 30
0.000000
210
0.000000
220
0.000000
230
1.000000
  2
SOLID
 70
     1
 71
     1
 91
     1
 92
    18
 72
     1
 73
     0
 93
    12
 10
2.999982
 20
-60.749922
 42
0.000000
 10
-47.000018
 20
-60.749922
 42
0.000000
 10
-47.000018
 20
-61.999922
 42
0.000000
 10
3.366099
 20
-61.999922
 42
0.000000
 10
21.616099
 20
-80.249922
 42
0.000000
 10
22.499982
 20
-80.249922
 42
0.000000
 10
22.499982
 20
-79.366039
 42
0.000000
 10
4.249982
 20
-61.116039
 42
0.000000
 10
4.249982
 20
-10.749922
 42
0.000000
 10
2.999982
 20
-10.749922
 42
0.000000
 10
2.999982
 20
-60.726058
 42
0.000000
 10
2.999982
 20
-60.749922
 42
0.000000
 97
     0
 75
     0
 76
     1
 98
     0
  0
LWPOLYLINE
  5
7AB
100
AcDbEntity
  8
Detail
  6
CONTINUOUS
 62
     4
100
AcDbPolyline
 90
    11
 10
-47.000018
 20
-60.749922
 42
0.000000
 10
-47.000018
 20
-61.999922
 42
0.000000
 10
3.366099
 20
-61.999922
 42
0.000000
 10
21.616099
 20
-80.249922
 42
0.000000
 10
22.499982
 20
-80.249922
 42
0.000000
 10
22.499982
 20
-79.366039
 42
0.000000
 10
4.249982
 20
-61.116039
 42
0.000000
 10
4.249982
 20
-10.749922
 42
0.000000
 10
2.999982
 20
-10.778969
 42
0.000000
 10
2.999982
 20
-60.749922
 42
0.000000
 10
-47.000018
 20
-60.749922
 42
0.000000
  0
ENDBLK
  5
7B7
100
AcDbEntity
  8
0
100
AcDbBlockEnd
  0
BLOCK
  5
7B8
100
AcDbEntity
  8
SCHRAFF
100
AcDbBlockBegin
  2
B-61
 70
    66
 10
0.000000
 20
0.000000
 30
0.000000
  0
HATCH
  5
7B9
100
AcDbEntity
  8
SCHRAFF
 62
     7
440
     0
100
AcDbHatch
 10
0.000000
 20
0.000000
 30
0.000000
210
0.000000
220
0.000000
230
1.000000
  2
SOLID
 70
     1
 71
     1
 91
     1
 92
    18
 72
     1
 73
     0
 93
     3
 10
12.999982
 20
-70.249922
 42
1.000000
 10
11.999982
 20
-70.249922
 42
1.000000
 10
12.999982
 20
-70.249922
 42
0.000000
 97
     0
 75
     0
 76
     1
 98
     0
  0
ENDBLK
  5
7BA
100
AcDbEntity
  8
0
100
AcDbBlockEnd
  0
BLOCK
  5
7BB
100
AcDbEntity
  8
Detail
100
AcDbBlockBegin
  2
B-62
 70
    66
 10
0.000000
 20
0.000000
 30
0.000000
  0
CIRCLE
  5
7BC
100
AcDbEntity
  8
Detail
  6
CONTINUOUS
 62
     7
100
AcDbCircle
 10
12.499982
 20
-70.249922
 40
0.500000
  0
ENDBLK
  5
7BD
100
AcDbEntity
  8
0
100
AcDbBlockEnd
  0
BLOCK
  5
7BE
100
AcDbEntity
  8
Detail
100
AcDbBlockBegin
  2
B-63
 70
    66
 10
0.000000
 20
0.000000
 30
0.000000
  0
LWPOLYLINE
  5
7BF
100
AcDbEntity
  8
Detail
  6
CONTINUOUS
 62
     7
100
AcDbPolyline
 90
     3
 10
82.499982
 20
-85.249922
 42
0.000000
 10
12.499982
 20
-85.249922
 42
0.000000
 10
12.499982
 20
-70.249922
 42
0.000000
  0
ENDBLK
  5
7C3
100
AcDbEntity
  8
0
100
AcDbBlockEnd
  0
ENDSEC
  0
SECTION
  2
ENTITIES
  0
INSERT
  5
7C4
100
AcDbEntity
  8
0
100
AcDbBlockReference
  2
B
 10
0.000000
 20
0.000000
 30
0.000000
 41
1.000000
 42
1.000000
 43
1.000000
 50
0.000000
  0
INSERT
  5
7C5
100
AcDbEntity
  8
0
100
AcDbBlockReference
  2
B-2
 10
0.000000
 20
0.000000
 30
0.000000
 41
1.000000
 42
1.000000
 43
1.000000
 50
0.000000
  0
INSERT
  5
7C6
100
AcDbEntity
  8
0
100
AcDbBlockReference
  2
B-3
 10
0.000000
 20
0.000000
 30
0.000000
 41
1.000000
 42
1.000000
 43
1.000000
 50
0.000000
  0
INSERT
  5
7C7
100
AcDbEntity
  8
0
100
AcDbBlockReference
  2
B-4
 10
0.000000
 20
0.000000
 30
0.000000
 41
1.000000
 42
1.000000
 43
1.000000
 50
0.000000
  0
INSERT
  5
7C8
100
AcDbEntity
  8
0
100
AcDbBlockReference
  2
B-5
 10
0.000000
 20
0.000000
 30
0.000000
 41
1.000000
 42
1.000000
 43
1.000000
 50
0.000000
  0
INSERT
  5
7C9
100
AcDbEntity
  8
0
100
AcDbBlockReference
  2
B-6
 10
0.000000
 20
0.000000
 30
0.000000
 41
1.000000
 42
1.000000
 43
1.000000
 50
0.000000
  0
INSERT
  5
7CA
100
AcDbEntity
  8
0
100
AcDbBlockReference
  2
B-7
 10
0.000000
 20
0.000000
 30
0.000000
 41
1.000000
 42
1.000000
 43
1.000000
 50
0.000000
  0
INSERT
  5
7CB
100
AcDbEntity
  8
Detail
100
AcDbBlockReference
  2
B-8
 10
0.000000
 20
0.000000
 30
0.000000
 41
1.000000
 42
1.000000
 43
1.000000
 50
0.000000
  0
INSERT
  5
7CC
100
AcDbEntity
  8
Detail
100
AcDbBlockReference
  2
B-9
 10
0.000000
 20
0.000000
 30
0.000000
 41
1.000000
 42
1.000000
 43
1.000000
 50
0.000000
  0
INSERT
  5
7CD
100
AcDbEntity
  8
0
100
AcDbBlockReference
  2
B-10
 10
0.000000
 20
0.000000
 30
0.000000
 41
1.000000
 42
1.000000
 43
1.000000
 50
0.000000
  0
INSERT
  5
7CE
100
AcDbEntity
  8
0
100
AcDbBlockReference
  2
B-11
 10
0.000000
 20
0.000000
 30
0.000000
 41
1.000000
 42
1.000000
 43
1.000000
 50
0.000000
  0
INSERT
  5
7CF
100
AcDbEntity
  8
Detail
100
AcDbBlockReference
  2
B-12
 10
0.000000
 20
0.000000
 30
0.000000
 41
1.000000
 42
1.000000
 43
1.000000
 50
0.000000
  0
INSERT
  5
7D0
100
AcDbEntity
  8
Detail
100
AcDbBlockReference
  2
B-13
 10
0.000000
 20
0.000000
 30
0.000000
 41
1.000000
 42
1.000000
 43
1.000000
 50
0.000000
  0
INSERT
  5
7D1
100
AcDbEntity
  8
Detail
100
AcDbBlockReference
  2
B-14
 10
0.000000
 20
0.000000
 30
0.000000
 41
1.000000
 42
1.000000
 43
1.000000
 50
0.000000
  0
INSERT
  5
7D2
100
AcDbEntity
  8
Detail
100
AcDbBlockReference
  2
B-15
 10
0.000000
 20
0.000000
 30
0.000000
 41
1.000000
 42
1.000000
 43
1.000000
 50
0.000000
  0
INSERT
  5
7D3
100
AcDbEntity
  8
Detail
100
AcDbBlockReference
  2
B-16
 10
0.000000
 20
0.000000
 30
0.000000
 41
1.000000
 42
1.000000
 43
1.000000
 50
0.000000
  0
INSERT
  5
7D4
100
AcDbEntity
  8
0
100
AcDbBlockReference
  2
B-17
 10
0.000000
 20
0.000000
 30
0.000000
 41
1.000000
 42
1.000000
 43
1.000000
 50
0.000000
  0
INSERT
  5
7D5
100
AcDbEntity
  8
0
100
AcDbBlockReference
  2
B-18
 10
0.000000
 20
0.000000
 30
0.000000
 41
1.000000
 42
1.000000
 43
1.000000
 50
0.000000
  0
INSERT
  5
7D6
100
AcDbEntity
  8
Detail
100
AcDbBlockReference
  2
B-19
 10
0.000000
 20
0.000000
 30
0.000000
 41
1.000000
 42
1.000000
 43
1.000000
 50
0.000000
  0
INSERT
  5
7D7
100
AcDbEntity
  8
0
100
AcDbBlockReference
  2
B-20
 10
0.000000
 20
0.000000
 30
0.000000
 41
1.000000
 42
1.000000
 43
1.000000
 50
0.000000
  0
INSERT
  5
7D8
100
AcDbEntity
  8
Detail
100
AcDbBlockReference
  2
B-21
 10
0.000000
 20
0.000000
 30
0.000000
 41
1.000000
 42
1.000000
 43
1.000000
 50
0.000000
  0
INSERT
  5
7D9
100
AcDbEntity
  8
Detail
100
AcDbBlockReference
  2
B-22
 10
0.000000
 20
0.000000
 30
0.000000
 41
1.000000
 42
1.000000
 43
1.000000
 50
0.000000
  0
INSERT
  5
7DA
100
AcDbEntity
  8
0
100
AcDbBlockReference
  2
B-23
 10
0.000000
 20
0.000000
 30
0.000000
 41
1.000000
 42
1.000000
 43
1.000000
 50
0.000000
  0
INSERT
  5
7DB
100
AcDbEntity
  8
Detail
100
AcDbBlockReference
  2
B-24
 10
0.000000
 20
0.000000
 30
0.000000
 41
1.000000
 42
1.000000
 43
1.000000
 50
0.000000
  0
INSERT
  5
7DC
100
AcDbEntity
  8
0
100
AcDbBlockReference
  2
B-25
 10
0.000000
 20
0.000000
 30
0.000000
 41
1.000000
 42
1.000000
 43
1.000000
 50
0.000000
  0
INSERT
  5
7DD
100
AcDbEntity
  8
Detail
100
AcDbBlockReference
  2
B-26
 10
0.000000
 20
0.000000
 30
0.000000
 41
1.000000
 42
1.000000
 43
1.000000
 50
0.000000
  0
INSERT
  5
7DE
100
AcDbEntity
  8
Detail
100
AcDbBlockReference
  2
B-27
 10
0.000000
 20
0.000000
 30
0.000000
 41
1.000000
 42
1.000000
 43
1.000000
 50
0.000000
  0
INSERT
  5
7DF
100
AcDbEntity
  8
Detail
100
AcDbBlockReference
  2
B-28
 10
0.000000
 20
0.000000
 30
0.000000
 41
1.000000
 42
1.000000
 43
1.000000
 50
0.000000
  0
INSERT
  5
7E0
100
AcDbEntity
  8
Detail
100
AcDbBlockReference
  2
B-29
 10
0.000000
 20
0.000000
 30
0.000000
 41
1.000000
 42
1.000000
 43
1.000000
 50
0.000000
  0
INSERT
  5
7E1
100
AcDbEntity
  8
Detail
100
AcDbBlockReference
  2
B-30
 10
0.000000
 20
0.000000
 30
0.000000
 41
1.000000
 42
1.000000
 43
1.000000
 50
0.000000
  0
INSERT
  5
7E2
100
AcDbEntity
  8
Detail
100
AcDbBlockReference
  2
B-31
 10
0.000000
 20
0.000000
 30
0.000000
 41
1.000000
 42
1.000000
 43
1.000000
 50
0.000000
  0
INSERT
  5
7E3
100
AcDbEntity
  8
Detail
100
AcDbBlockReference
  2
B-32
 10
0.000000
 20
0.000000
 30
0.000000
 41
1.000000
 42
1.000000
 43
1.000000
 50
0.000000
  0
INSERT
  5
7E4
100
AcDbEntity
  8
Detail
100
AcDbBlockReference
  2
B-33
 10
0.000000
 20
0.000000
 30
0.000000
 41
1.000000
 42
1.000000
 43
1.000000
 50
0.000000
  0
INSERT
  5
7E5
100
AcDbEntity
  8
Detail
100
AcDbBlockReference
  2
B-34
 10
0.000000
 20
0.000000
 30
0.000000
 41
1.000000
 42
1.000000
 43
1.000000
 50
0.000000
  0
INSERT
  5
7E6
100
AcDbEntity
  8
0
100
AcDbBlockReference
  2
glasleiste
 10
0.000000
 20
0.000000
 30
0.000000
 41
1.000000
 42
1.000000
 43
1.000000
 50
0.000000
  0
INSERT
  5
7E7
100
AcDbEntity
  8
Detail
100
AcDbBlockReference
  2
glas
 10
0.000000
 20
0.000000
 30
0.000000
 41
1.000000
 42
1.000000
 43
1.000000
 50
0.000000
  0
INSERT
  5
7E8
100
AcDbEntity
  8
0
100
AcDbBlockReference
  2
rahmen
 10
0.000000
 20
0.000000
 30
0.000000
 41
1.000000
 42
1.000000
 43
1.000000
 50
0.000000
  0
INSERT
  5
7E9
100
AcDbEntity
  8
0
100
AcDbBlockReference
  2
fluegel
 10
0.000000
 20
0.000000
 30
0.000000
 41
1.000000
 42
1.000000
 43
1.000000
 50
0.000000
  0
INSERT
  5
7EA
100
AcDbEntity
  8
Detail
100
AcDbBlockReference
  2
B-35
 10
0.000000
 20
0.000000
 30
0.000000
 41
1.000000
 42
1.000000
 43
1.000000
 50
0.000000
  0
INSERT
  5
7EB
100
AcDbEntity
  8
Detail
100
AcDbBlockReference
  2
B-36
 10
0.000000
 20
0.000000
 30
0.000000
 41
1.000000
 42
1.000000
 43
1.000000
 50
0.000000
  0
INSERT
  5
7EC
100
AcDbEntity
  8
Detail
100
AcDbBlockReference
  2
B-37
 10
0.000000
 20
0.000000
 30
0.000000
 41
1.000000
 42
1.000000
 43
1.000000
 50
0.000000
  0
INSERT
  5
7ED
100
AcDbEntity
  8
Detail
100
AcDbBlockReference
  2
B-38
 10
0.000000
 20
0.000000
 30
0.000000
 41
1.000000
 42
1.000000
 43
1.000000
 50
0.000000
  0
INSERT
  5
7EE
100
AcDbEntity
  8
Detail
100
AcDbBlockReference
  2
B-39
 10
0.000000
 20
0.000000
 30
0.000000
 41
1.000000
 42
1.000000
 43
1.000000
 50
0.000000
  0
INSERT
  5
7EF
100
AcDbEntity
  8
Detail
100
AcDbBlockReference
  2
B-40
 10
0.000000
 20
0.000000
 30
0.000000
 41
1.000000
 42
1.000000
 43
1.000000
 50
0.000000
  0
INSERT
  5
7F0
100
AcDbEntity
  8
Detail
100
AcDbBlockReference
  2
B-41
 10
0.000000
 20
0.000000
 30
0.000000
 41
1.000000
 42
1.000000
 43
1.000000
 50
0.000000
  0
INSERT
  5
7F1
100
AcDbEntity
  8
Detail
100
AcDbBlockReference
  2
B-42
 10
0.000000
 20
0.000000
 30
0.000000
 41
1.000000
 42
1.000000
 43
1.000000
 50
0.000000
  0
INSERT
  5
7F2
100
AcDbEntity
  8
Detail
100
AcDbBlockReference
  2
B-43
 10
0.000000
 20
0.000000
 30
0.000000
 41
1.000000
 42
1.000000
 43
1.000000
 50
0.000000
  0
INSERT
  5
7F3
100
AcDbEntity
  8
Detail
100
AcDbBlockReference
  2
B-44
 10
0.000000
 20
0.000000
 30
0.000000
 41
1.000000
 42
1.000000
 43
1.000000
 50
0.000000
  0
INSERT
  5
7F4
100
AcDbEntity
  8
Detail
100
AcDbBlockReference
  2
B-45
 10
0.000000
 20
0.000000
 30
0.000000
 41
1.000000
 42
1.000000
 43
1.000000
 50
0.000000
  0
INSERT
  5
7F5
100
AcDbEntity
  8
Detail
100
AcDbBlockReference
  2
B-46
 10
0.000000
 20
0.000000
 30
0.000000
 41
1.000000
 42
1.000000
 43
1.000000
 50
0.000000
  0
INSERT
  5
7F6
100
AcDbEntity
  8
Detail
100
AcDbBlockReference
  2
B-47
 10
0.000000
 20
0.000000
 30
0.000000
 41
1.000000
 42
1.000000
 43
1.000000
 50
0.000000
  0
INSERT
  5
7F7
100
AcDbEntity
  8
Detail
100
AcDbBlockReference
  2
B-49
 10
0.000000
 20
0.000000
 30
0.000000
 41
1.000000
 42
1.000000
 43
1.000000
 50
0.000000
  0
INSERT
  5
7F8
100
AcDbEntity
  8
Detail
100
AcDbBlockReference
  2
B-50
 10
0.000000
 20
0.000000
 30
0.000000
 41
1.000000
 42
1.000000
 43
1.000000
 50
0.000000
  0
INSERT
  5
7F9
100
AcDbEntity
  8
Detail
100
AcDbBlockReference
  2
B-51
 10
0.000000
 20
0.000000
 30
0.000000
 41
1.000000
 42
1.000000
 43
1.000000
 50
0.000000
  0
INSERT
  5
7FA
100
AcDbEntity
  8
Detail
100
AcDbBlockReference
  2
B-52
 10
0.000000
 20
0.000000
 30
0.000000
 41
1.000000
 42
1.000000
 43
1.000000
 50
0.000000
  0
INSERT
  5
7FB
100
AcDbEntity
  8
0
100
AcDbBlockReference
  2
B-53
 10
0.000000
 20
0.000000
 30
0.000000
 41
1.000000
 42
1.000000
 43
1.000000
 50
0.000000
  0
INSERT
  5
7FC
100
AcDbEntity
  8
0
100
AcDbBlockReference
  2
B-54
 10
0.000000
 20
0.000000
 30
0.000000
 41
1.000000
 42
1.000000
 43
1.000000
 50
0.000000
  0
INSERT
  5
7FD
100
AcDbEntity
  8
0
100
AcDbBlockReference
  2
B-55
 10
0.000000
 20
0.000000
 30
0.000000
 41
1.000000
 42
1.000000
 43
1.000000
 50
0.000000
  0
INSERT
  5
7FE
100
AcDbEntity
  8
Detail
100
AcDbBlockReference
  2
B-56
 10
0.000000
 20
0.000000
 30
0.000000
 41
1.000000
 42
1.000000
 43
1.000000
 50
0.000000
  0
INSERT
  5
7FF
100
AcDbEntity
  8
Detail
100
AcDbBlockReference
  2
B-57
 10
0.000000
 20
0.000000
 30
0.000000
 41
1.000000
 42
1.000000
 43
1.000000
 50
0.000000
  0
INSERT
  5
800
100
AcDbEntity
  8
Detail
100
AcDbBlockReference
  2
B-58
 10
0.000000
 20
0.000000
 30
0.000000
 41
1.000000
 42
1.000000
 43
1.000000
 50
0.000000
  0
INSERT
  5
801
100
AcDbEntity
  8
Detail
100
AcDbBlockReference
  2
B-59
 10
0.000000
 20
0.000000
 30
0.000000
 41
1.000000
 42
1.000000
 43
1.000000
 50
0.000000
  0
INSERT
  5
802
100
AcDbEntity
  8
0
100
AcDbBlockReference
  2
B-60
 10
0.000000
 20
0.000000
 30
0.000000
 41
1.000000
 42
1.000000
 43
1.000000
 50
0.000000
  0
INSERT
  5
803
100
AcDbEntity
  8
0
100
AcDbBlockReference
  2
B-61
 10
0.000000
 20
0.000000
 30
0.000000
 41
1.000000
 42
1.000000
 43
1.000000
 50
0.000000
  0
INSERT
  5
804
100
AcDbEntity
  8
Detail
100
AcDbBlockReference
  2
B-62
 10
0.000000
 20
0.000000
 30
0.000000
 41
1.000000
 42
1.000000
 43
1.000000
 50
0.000000
  0
INSERT
  5
805
100
AcDbEntity
  8
Detail
100
AcDbBlockReference
  2
B-63
 10
0.000000
 20
0.000000
 30
0.000000
 41
1.000000
 42
1.000000
 43
1.000000
 50
0.000000
  0
ENDSEC
  0
SECTION
  2
OBJECTS
  0
DICTIONARY
  5
C
330
0
100
AcDbDictionary
281
     1
  3
ACAD_COLOR
350
6B
  3
ACAD_GROUP
350
D
  3
ACAD_IMAGE_DICT
350
1E2
  3
ACAD_IMAGE_VARS
350
1E3
  3
ACAD_MATERIAL
350
6A
  3
ACAD_MLINESTYLE
350
17
  3
ACAD_PLOTSETTINGS
350
19
  3
ACAD_PLOTSTYLENAME
350
E
  3
ACAD_SCALELIST
350
10C
  3
ACAD_TABLESTYLE
350
7E
  3
ACAD_VISUALSTYLE
350
EF
  3
ACDB_RECOMPOSE_DATA
350
15D
  3
AcDbVariableDictionary
350
5E
  0
DICTIONARY
  5
13C
330
10
100
AcDbDictionary
280
     1
281
     1
  0
DICTIONARY
  5
203
330
202
100
AcDbDictionary
280
     1
281
     1
  0
DICTIONARY
  5
6B
102
{ACAD_REACTORS
330
C
102
}
330
C
100
AcDbDictionary
281
     1
  0
DICTIONARY
  5
D
102
{ACAD_REACTORS
330
C
102
}
330
C
100
AcDbDictionary
281
     1
  0
DICTIONARY
  5
1E2
102
{ACAD_REACTORS
330
C
102
}
330
C
100
AcDbDictionary
281
     1
  3
WDVS mit Edelkratzputz_Vollsturz-Leibung_4_1.tif
350
20F
  0
RASTERVARIABLES
  5
1E3
102
{ACAD_REACTORS
330
C
102
}
330
C
100
AcDbRasterVariables
 90
        0
 70
     1
 71
     1
 72
     1
  0
DICTIONARY
  5
6A
102
{ACAD_REACTORS
330
C
102
}
330
C
100
AcDbDictionary
281
     1
  3
ByBlock
350
ED
  3
ByLayer
350
EC
  3
Global
350
EE
  0
DICTIONARY
  5
12D
102
{ACAD_REACTORS
330
C
102
}
330
C
100
AcDbDictionary
281
     1
  3
Annotative
350
13B
  3
Standard
350
12E
  0
DICTIONARY
  5
17
102
{ACAD_REACTORS
330
C
102
}
330
C
100
AcDbDictionary
281
     1
  3
Standard
350
18
  0
DICTIONARY
  5
19
102
{ACAD_REACTORS
330
C
102
}
330
C
100
AcDbDictionary
281
     1
  0
ACDBDICTIONARYWDFLT
  5
E
102
{ACAD_REACTORS
330
C
102
}
330
C
100
AcDbDictionary
281
     1
  3
Normal
350
F
100
AcDbDictionaryWithDefault
340
F
  0
DICTIONARY
  5
10C
102
{ACAD_REACTORS
330
C
102
}
330
C
100
AcDbDictionary
281
     1
  3
A0
350
10D
  3
A1
350
1BE
  3
A2
350
1BF
  3
A3
350
1C0
  3
A4
350
1C1
  3
A5
350
1C2
  3
A6
350
1C3
  3
A7
350
1C4
  3
A8
350
1C5
  3
A9
350
1C6
  3
B0
350
1C7
  3
B1
350
1C8
  3
B2
350
1C9
  3
B3
350
1CA
  3
B4
350
1CB
  3
B5
350
1CC
  3
B6
350
1CD
  0
DICTIONARY
  5
7E
102
{ACAD_REACTORS
330
C
102
}
330
C
100
AcDbDictionary
281
     1
  3
Standard
350
7F
  0
DICTIONARY
  5
EF
102
{ACAD_REACTORS
330
C
102
}
330
C
100
AcDbDictionary
281
     1
  3
2dWireframe
350
F5
  3
3D Hidden
350
F7
  3
3dWireframe
350
F6
  3
Basic
350
F4
  3
Brighten
350
FB
  3
ColorChange
350
FF
  3
Conceptual
350
F8
  3
Dim
350
FA
  3
Facepattern
350
FE
  3
Flat
350
F0
  3
FlatWithEdges
350
F1
  3
Gouraud
350
F2
  3
GouraudWithEdges
350
F3
  3
Linepattern
350
FD
  3
Realistic
350
F9
  3
Thicken
350
FC
  0
XRECORD
  5
15D
102
{ACAD_REACTORS
330
C
102
}
330
C
100
AcDbXrecord
280
     1
 90
        1
330
7F
  0
DICTIONARY
  5
5E
102
{ACAD_REACTORS
330
C
102
}
330
C
100
AcDbDictionary
281
     1
  3
CANNOSCALE
350
146
  3
CMLEADERSTYLE
350
145
  3
CTABLESTYLE
350
84
  3
DIMASSOC
350
5F
  3
HIDETEXT
350
63
  3
LAYEREVAL
350
1AE
  3
LAYERNOTIFY
350
1AF
  0
MATERIAL
  5
ED
102
{ACAD_REACTORS
330
6A
102
}
330
6A
100
AcDbMaterial
  1
ByBlock
 94
       63
  0
MATERIAL
  5
EC
102
{ACAD_REACTORS
330
6A
102
}
330
6A
100
AcDbMaterial
  1
ByLayer
 94
       63
  0
MATERIAL
  5
EE
102
{ACAD_XDICTIONARY
360
173
102
}
102
{ACAD_REACTORS
330
6A
102
}
330
6A
100
AcDbMaterial
  1
Global
 43
0.0007999999797903
 43
0.0
 43
0.0
 43
0.0
 43
0.0
 43
0.0007999999797903
 43
0.0
 43
0.0
 43
0.0
 43
0.0
 43
1.0
 43
0.0
 43
0.0
 43
0.0
 43
0.0
 43
1.0
 49
0.0007999999797903
 49
0.0
 49
0.0
 49
0.0
 49
0.0
 49
0.0007999999797903
 49
0.0
 49
0.0
 49
0.0
 49
0.0
 49
1.0
 49
0.0
 49
0.0
 49
0.0
 49
0.0
 49
1.0
142
0.0007999999797903
142
0.0
142
0.0
142
0.0
142
0.0
142
0.0007999999797903
142
0.0
142
0.0
142
0.0
142
0.0
142
1.0
142
0.0
142
0.0
142
0.0
142
0.0
142
1.0
144
0.0007999999797903
144
0.0
144
0.0
144
0.0
144
0.0
144
0.0007999999797903
144
0.0
144
0.0
144
0.0
144
0.0
144
1.0
144
0.0
144
0.0
144
0.0
144
0.0
144
1.0
 94
       63
1001
ACAD
1070
    -1
1070
     3
1070
     0
1000

1071
        0
1070
     0
  0
MLINESTYLE
  5
18
102
{ACAD_REACTORS
330
17
102
}
330
17
100
AcDbMlineStyle
  2
STANDARD
 70
     0
  3

 62
   256
 51
90.0
 52
90.0
 71
     2
 49
0.5
 62
   256
  6
BYLAYER
 49
-0.5
 62
   256
  6
BYLAYER
  0
ACDBPLACEHOLDER
  5
F
102
{ACAD_REACTORS
330
E
102
}
330
E
  0
SCALE
  5
10D
102
{ACAD_REACTORS
330
10C
102
}
330
10C
100
AcDbScale
 70
     0
300
1:1
140
1.0
141
1.0
290
     1
  0
SCALE
  5
1BE
102
{ACAD_REACTORS
330
10C
102
}
330
10C
100
AcDbScale
 70
     0
300
1:2
140
1.0
141
2.0
290
     0
  0
SCALE
  5
1BF
102
{ACAD_REACTORS
330
10C
102
}
330
10C
100
AcDbScale
 70
     0
300
1:4
140
1.0
141
4.0
290
     0
  0
SCALE
  5
1C0
102
{ACAD_REACTORS
330
10C
102
}
330
10C
100
AcDbScale
 70
     0
300
1:5
140
1.0
141
5.0
290
     0
  0
SCALE
  5
1C1
102
{ACAD_REACTORS
330
10C
102
}
330
10C
100
AcDbScale
 70
     0
300
1:8
140
1.0
141
8.0
290
     0
  0
SCALE
  5
1C2
102
{ACAD_REACTORS
330
10C
102
}
330
10C
100
AcDbScale
 70
     0
300
1:10
140
1.0
141
10.0
290
     0
  0
SCALE
  5
1C3
102
{ACAD_REACTORS
330
10C
102
}
330
10C
100
AcDbScale
 70
     0
300
1:16
140
1.0
141
16.0
290
     0
  0
SCALE
  5
1C4
102
{ACAD_REACTORS
330
10C
102
}
330
10C
100
AcDbScale
 70
     0
300
1:20
140
1.0
141
20.0
290
     0
  0
SCALE
  5
1C5
102
{ACAD_REACTORS
330
10C
102
}
330
10C
100
AcDbScale
 70
     0
300
1:30
140
1.0
141
30.0
290
     0
  0
SCALE
  5
1C6
102
{ACAD_REACTORS
330
10C
102
}
330
10C
100
AcDbScale
 70
     0
300
1:40
140
1.0
141
40.0
290
     0
  0
SCALE
  5
1C7
102
{ACAD_REACTORS
330
10C
102
}
330
10C
100
AcDbScale
 70
     0
300
1:50
140
1.0
141
50.0
290
     0
  0
SCALE
  5
1C8
102
{ACAD_REACTORS
330
10C
102
}
330
10C
100
AcDbScale
 70
     0
300
1:100
140
1.0
141
100.0
290
     0
  0
SCALE
  5
1C9
102
{ACAD_REACTORS
330
10C
102
}
330
10C
100
AcDbScale
 70
     0
300
2:1
140
2.0
141
1.0
290
     0
  0
SCALE
  5
1CA
102
{ACAD_REACTORS
330
10C
102
}
330
10C
100
AcDbScale
 70
     0
300
4:1
140
4.0
141
1.0
290
     0
  0
SCALE
  5
1CB
102
{ACAD_REACTORS
330
10C
102
}
330
10C
100
AcDbScale
 70
     0
300
8:1
140
8.0
141
1.0
290
     0
  0
SCALE
  5
1CC
102
{ACAD_REACTORS
330
10C
102
}
330
10C
100
AcDbScale
 70
     0
300
10:1
140
10.0
141
1.0
290
     0
  0
SCALE
  5
1CD
102
{ACAD_REACTORS
330
10C
102
}
330
10C
100
AcDbScale
 70
     0
300
100:1
140
100.0
141
1.0
290
     0
  0
TABLESTYLE
  5
7F
102
{ACAD_XDICTIONARY
360
162
102
}
102
{ACAD_REACTORS
330
7E
102
}
330
7E
100
AcDbTableStyle
  3
Standard
 70
     0
 71
     0
 40
1.5
 41
1.5
280
     0
281
     0
  7
Standard
140
4.5
170
     2
 62
     0
 63
     7
283
     0
 90
      512
 91
        0
  1

274
    -2
284
     1
 64
     0
275
    -2
285
     1
 65
     0
276
    -2
286
     1
 66
     0
277
    -2
287
     1
 67
     0
278
    -2
288
     1
 68
     0
279
    -2
289
     1
 69
     0
  7
Standard
140
6.0
170
     5
 62
     0
 63
     7
283
     0
 90
      512
 91
        0
  1

274
    -2
284
     1
 64
     0
275
    -2
285
     1
 65
     0
276
    -2
286
     1
 66
     0
277
    -2
287
     1
 67
     0
278
    -2
288
     1
 68
     0
279
    -2
289
     1
 69
     0
  7
Standard
140
4.5
170
     5
 62
     0
 63
     7
283
     0
 90
      512
 91
        0
  1

274
    -2
284
     1
 64
     0
275
    -2
285
     1
 65
     0
276
    -2
286
     1
 66
     0
277
    -2
287
     1
 67
     0
278
    -2
288
     1
 68
     0
279
    -2
289
     1
 69
     0
  0
VISUALSTYLE
  5
F5
102
{ACAD_REACTORS
330
EF
102
}
330
EF
100
AcDbVisualStyle
  2
2dWireframe
 70
     4
 71
     0
 72
     2
 73
     1
 90
        0
 40
-0.6
 41
-30.0
 62
     5
 63
     7
421
 16777215
 74
     1
 91
        4
 64
     7
 65
   257
 75
     1
175
     1
 42
1.0
 92
        0
 66
   257
 43
1.0
 76
     1
 77
     6
 78
     2
 67
     7
 79
     5
170
     0
171
     0
290
     0
174
     0
 93
        1
 44
0.0
173
     0
291
     0
 45
0.0
  0
VISUALSTYLE
  5
F7
102
{ACAD_REACTORS
330
EF
102
}
330
EF
100
AcDbVisualStyle
  2
3D Hidden
 70
     6
 71
     1
 72
     2
 73
     2
 90
        0
 40
-0.6
 41
-30.0
 62
     5
 63
     7
421
 16777215
 74
     2
 91
        2
 64
     7
 65
   257
 75
     2
175
     1
 42
40.0
 92
        0
 66
   257
 43
1.0
 76
     1
 77
     6
 78
     2
 67
     7
 79
     3
170
     0
171
     0
290
     0
174
     0
 93
        1
 44
0.0
173
     0
291
     0
 45
0.0
  0
VISUALSTYLE
  5
F6
102
{ACAD_REACTORS
330
EF
102
}
330
EF
100
AcDbVisualStyle
  2
3dWireframe
 70
     5
 71
     0
 72
     2
 73
     1
 90
        0
 40
-0.6
 41
-30.0
 62
     5
 63
     7
421
 16777215
 74
     1
 91
        4
 64
     7
 65
   257
 75
     1
175
     1
 42
1.0
 92
        0
 66
   257
 43
1.0
 76
     1
 77
     6
 78
     2
 67
     7
 79
     5
170
     0
171
     0
290
     0
174
     0
 93
        1
 44
0.0
173
     0
291
     0
 45
0.0
  0
VISUALSTYLE
  5
F4
102
{ACAD_REACTORS
330
EF
102
}
330
EF
100
AcDbVisualStyle
  2
Basic
 70
     7
 71
     1
 72
     0
 73
     1
 90
        0
 40
-0.6
 41
-30.0
 62
     5
 63
     7
421
 16777215
 74
     0
 91
        4
 64
     7
 65
   257
 75
     1
175
     1
 42
1.0
 92
        8
 66
     7
 43
1.0
 76
     1
 77
     6
 78
     2
 67
     7
 79
     5
170
     0
171
     0
290
     0
174
     0
 93
        1
 44
0.0
173
     0
291
     1
 45
0.0
  0
VISUALSTYLE
  5
FB
102
{ACAD_REACTORS
330
EF
102
}
330
EF
100
AcDbVisualStyle
  2
Brighten
 70
    12
 71
     2
 72
     2
 73
     1
 90
        0
 40
-0.6
 41
-30.0
 62
     5
 63
     7
421
 16777215
 74
     1
 91
        4
 64
     7
 65
   257
 75
     1
175
     1
 42
1.0
 92
        8
 66
     7
 43
1.0
 76
     1
 77
     6
 78
     2
 67
     7
 79
     5
170
     0
171
     0
290
     0
174
     0
 93
        1
 44
50.0
173
     0
291
     1
 45
0.0
  0
VISUALSTYLE
  5
FF
102
{ACAD_REACTORS
330
EF
102
}
330
EF
100
AcDbVisualStyle
  2
ColorChange
 70
    16
 71
     2
 72
     2
 73
     3
 90
        0
 40
-0.6
 41
-30.0
 62
     5
 63
     8
421
  8421504
 74
     1
 91
        4
 64
     7
 65
   257
 75
     1
175
     1
 42
1.0
 92
        8
 66
     8
424
  8421504
 43
1.0
 76
     1
 77
     6
 78
     2
 67
     7
 79
     5
170
     0
171
     0
290
     0
174
     0
 93
        1
 44
0.0
173
     0
291
     1
 45
0.0
  0
VISUALSTYLE
  5
F8
102
{ACAD_REACTORS
330
EF
102
}
330
EF
100
AcDbVisualStyle
  2
Conceptual
 70
     9
 71
     3
 72
     2
 73
     1
 90
        0
 40
-0.6
 41
-30.0
 62
     5
 63
     7
421
 16777215
 74
     2
 91
        2
 64
     7
 65
   257
 75
     1
175
     1
 42
40.0
 92
        8
 66
     7
 43
1.0
 76
     1
 77
     6
 78
     2
 67
     7
 79
     3
170
     0
171
     0
290
     0
174
     0
 93
        1
 44
0.0
173
     0
291
     0
 45
0.0
  0
VISUALSTYLE
  5
FA
102
{ACAD_REACTORS
330
EF
102
}
330
EF
100
AcDbVisualStyle
  2
Dim
 70
    11
 71
     2
 72
     2
 73
     1
 90
        0
 40
-0.6
 41
-30.0
 62
     5
 63
     7
421
 16777215
 74
     1
 91
        4
 64
     7
 65
   257
 75
     1
175
     1
 42
1.0
 92
        8
 66
     7
 43
1.0
 76
     1
 77
     6
 78
     2
 67
     7
 79
     5
170
     0
171
     0
290
     0
174
     0
 93
        1
 44
-50.0
173
     0
291
     1
 45
0.0
  0
VISUALSTYLE
  5
FE
102
{ACAD_REACTORS
330
EF
102
}
330
EF
100
AcDbVisualStyle
  2
Facepattern
 70
    15
 71
     2
 72
     2
 73
     1
 90
        0
 40
-0.6
 41
-30.0
 62
     5
 63
     7
421
 16777215
 74
     1
 91
        4
 64
     7
 65
   257
 75
     1
175
     1
 42
1.0
 92
        8
 66
     7
 43
1.0
 76
     1
 77
     6
 78
     2
 67
     7
 79
     5
170
     0
171
     0
290
     0
174
     0
 93
        1
 44
0.0
173
     0
291
     1
 45
0.0
  0
VISUALSTYLE
  5
F0
102
{ACAD_REACTORS
330
EF
102
}
330
EF
100
AcDbVisualStyle
  2
Flat
 70
     0
 71
     2
 72
     1
 73
     1
 90
        2
 40
-0.6
 41
30.0
 62
     5
 63
     7
421
 16777215
 74
     0
 91
        4
 64
     7
 65
   257
 75
     1
175
     1
 42
1.0
 92
        8
 66
     7
 43
1.0
 76
     1
 77
     6
 78
     2
 67
     7
 79
     5
170
     0
171
     0
290
     0
174
     0
 93
        1
 44
0.0
173
     0
291
     1
 45
0.0
  0
VISUALSTYLE
  5
F1
102
{ACAD_REACTORS
330
EF
102
}
330
EF
100
AcDbVisualStyle
  2
FlatWithEdges
 70
     1
 71
     2
 72
     1
 73
     1
 90
        2
 40
-0.6
 41
30.0
 62
     5
 63
     7
421
 16777215
 74
     1
 91
        4
 64
     7
 65
   257
 75
     1
175
     1
 42
1.0
 92
        0
 66
   257
 43
1.0
 76
     1
 77
     6
 78
     2
 67
     7
 79
     5
170
     0
171
     0
290
     0
174
     0
 93
        1
 44
0.0
173
     0
291
     1
 45
0.0
  0
VISUALSTYLE
  5
F2
102
{ACAD_REACTORS
330
EF
102
}
330
EF
100
AcDbVisualStyle
  2
Gouraud
 70
     2
 71
     2
 72
     2
 73
     1
 90
        2
 40
-0.6
 41
30.0
 62
     5
 63
     7
421
 16777215
 74
     0
 91
        4
 64
     7
 65
   257
 75
     1
175
     1
 42
1.0
 92
        0
 66
     7
 43
1.0
 76
     1
 77
     6
 78
     2
 67
     7
 79
     5
170
     0
171
     0
290
     0
174
     0
 93
        1
 44
0.0
173
     0
291
     1
 45
0.0
  0
VISUALSTYLE
  5
F3
102
{ACAD_REACTORS
330
EF
102
}
330
EF
100
AcDbVisualStyle
  2
GouraudWithEdges
 70
     3
 71
     2
 72
     2
 73
     1
 90
        2
 40
-0.6
 41
30.0
 62
     5
 63
     7
421
 16777215
 74
     1
 91
        4
 64
     7
 65
   257
 75
     1
175
     1
 42
1.0
 92
        0
 66
   257
 43
1.0
 76
     1
 77
     6
 78
     2
 67
     7
 79
     5
170
     0
171
     0
290
     0
174
     0
 93
        1
 44
0.0
173
     0
291
     1
 45
0.0
  0
VISUALSTYLE
  5
FD
102
{ACAD_REACTORS
330
EF
102
}
330
EF
100
AcDbVisualStyle
  2
Linepattern
 70
    14
 71
     2
 72
     2
 73
     1
 90
        0
 40
-0.6
 41
-30.0
 62
     5
 63
     7
421
 16777215
 74
     1
 91
        4
 64
     7
 65
   257
 75
     7
175
     7
 42
1.0
 92
        8
 66
     7
 43
1.0
 76
     1
 77
     6
 78
     2
 67
     7
 79
     5
170
     0
171
     0
290
     0
174
     0
 93
        1
 44
0.0
173
     0
291
     1
 45
0.0
  0
VISUALSTYLE
  5
F9
102
{ACAD_REACTORS
330
EF
102
}
330
EF
100
AcDbVisualStyle
  2
Realistic
 70
     8
 71
     2
 72
     2
 73
     1
 90
        0
 40
-0.6
 41
-30.0
 62
     5
 63
     7
421
 16777215
 74
     1
 91
        0
 64
     7
 65
   257
 75
     1
175
     1
 42
1.0
 92
        8
 66
     8
424
  7895160
 43
1.0
 76
     1
 77
     6
 78
     2
 67
     7
 79
     5
170
     0
171
     0
290
     0
174
     0
 93
       13
 44
0.0
173
     0
291
     0
 45
0.0
  0
VISUALSTYLE
  5
FC
102
{ACAD_REACTORS
330
EF
102
}
330
EF
100
AcDbVisualStyle
  2
Thicken
 70
    13
 71
     2
 72
     2
 73
     1
 90
        0
 40
-0.6
 41
-30.0
 62
     5
 63
     7
421
 16777215
 74
     1
 91
        4
 64
     7
 65
   257
 75
     1
175
     1
 42
1.0
 92
       12
 66
     7
 43
1.0
 76
     1
 77
     6
 78
     2
 67
     7
 79
     5
170
     0
171
     0
290
     0
174
     0
 93
        1
 44
0.0
173
     0
291
     1
 45
0.0
  0
DICTIONARYVAR
  5
146
102
{ACAD_REACTORS
330
5E
102
}
330
5E
100
DictionaryVariables
280
     0
  1
1:1
  0
DICTIONARYVAR
  5
145
102
{ACAD_REACTORS
330
5E
102
}
330
5E
100
DictionaryVariables
280
     0
  1
STANDARD
  0
DICTIONARYVAR
  5
84
102
{ACAD_REACTORS
330
5E
102
}
330
5E
100
DictionaryVariables
280
     0
  1
STANDARD
  0
DICTIONARYVAR
  5
5F
102
{ACAD_REACTORS
330
5E
102
}
330
5E
100
DictionaryVariables
280
     0
  1
2
  0
DICTIONARYVAR
  5
63
102
{ACAD_REACTORS
330
5E
102
}
330
5E
100
DictionaryVariables
280
     0
  1
1
  0
DICTIONARYVAR
  5
1AE
102
{ACAD_REACTORS
330
5E
102
}
330
5E
100
DictionaryVariables
280
     0
  1
0
  0
DICTIONARYVAR
  5
1AF
102
{ACAD_REACTORS
330
5E
102
}
330
5E
100
DictionaryVariables
280
     0
  1
0
  0
DICTIONARY
  5
173
330
EE
100
AcDbDictionary
280
     1
281
     1
  3
BUMPTILE
360
175
  3
DIFFUSETILE
360
174
  3
OPACITYTILE
360
176
  3
REFLECTIONTILE
360
177
  0
DICTIONARY
  5
162
330
7F
100
AcDbDictionary
280
     1
281
     1
  3
ACAD_ROUNDTRIP_2008_TABLESTYLE_CELLSTYLEMAP
360
1E7
  0
XRECORD
  5
175
102
{ACAD_REACTORS
330
173
102
}
330
173
100
AcDbXrecord
280
     1
270
     1
271
     1
  0
XRECORD
  5
174
102
{ACAD_REACTORS
330
173
102
}
330
173
100
AcDbXrecord
280
     1
270
     1
271
     1
  0
XRECORD
  5
176
102
{ACAD_REACTORS
330
173
102
}
330
173
100
AcDbXrecord
280
     1
270
     1
271
     1
  0
XRECORD
  5
177
102
{ACAD_REACTORS
330
173
102
}
330
173
100
AcDbXrecord
280
     1
270
     1
271
     1
  0
CELLSTYLEMAP
  5
1E7
102
{ACAD_REACTORS
330
162
102
}
330
162
100
AcDbCellStyleMap
 90
        3
300
CELLSTYLE
  1
TABLEFORMAT_BEGIN
 90
        5
170
     1
 91
        0
 92
    32768
 62
   257
 93
        1
300
CONTENTFORMAT
  1
CONTENTFORMAT_BEGIN
 90
        0
 91
        0
 92
      512
 93
        0
300

 40
0.0
140
1.0
 94
        5
 62
     0
340
11
144
6.0
309
CONTENTFORMAT_END
171
     1
301
MARGIN
  1
CELLMARGIN_BEGIN
 40
1.5
 40
1.5
 40
1.5
 40
1.5
 40
4.5
 40
4.5
309
CELLMARGIN_END
 94
        6
 95
        1
302
GRIDFORMAT
  1
GRIDFORMAT_BEGIN
 90
        0
 91
        1
 62
     0
 92
       -2
340
949
 93
        0
 40
1.125
309
GRIDFORMAT_END
 95
        2
302
GRIDFORMAT
  1
GRIDFORMAT_BEGIN
 90
        0
 91
        1
 62
     0
 92
       -2
340
949
 93
        0
 40
1.125
309
GRIDFORMAT_END
 95
        4
302
GRIDFORMAT
  1
GRIDFORMAT_BEGIN
 90
        0
 91
        1
 62
     0
 92
       -2
340
949
 93
        0
 40
1.125
309
GRIDFORMAT_END
 95
        8
302
GRIDFORMAT
  1
GRIDFORMAT_BEGIN
 90
        0
 91
        1
 62
     0
 92
       -2
340
949
 93
        0
 40
1.125
309
GRIDFORMAT_END
 95
       16
302
GRIDFORMAT
  1
GRIDFORMAT_BEGIN
 90
        0
 91
        1
 62
     0
 92
       -2
340
949
 93
        0
 40
1.125
309
GRIDFORMAT_END
 95
       32
302
GRIDFORMAT
  1
GRIDFORMAT_BEGIN
 90
        0
 91
        1
 62
     0
 92
       -2
340
949
 93
        0
 40
1.125
309
GRIDFORMAT_END
309
TABLEFORMAT_END
  1
CELLSTYLE_BEGIN
 90
        1
 91
        1
300
_TITLE
309
CELLSTYLE_END
300
CELLSTYLE
  1
TABLEFORMAT_BEGIN
 90
        5
170
     1
 91
        0
 92
        0
 62
   257
 93
        1
300
CONTENTFORMAT
  1
CONTENTFORMAT_BEGIN
 90
        0
 91
        0
 92
      512
 93
        0
300

 40
0.0
140
1.0
 94
        5
 62
     0
340
11
144
4.5
309
CONTENTFORMAT_END
171
     1
301
MARGIN
  1
CELLMARGIN_BEGIN
 40
1.5
 40
1.5
 40
1.5
 40
1.5
 40
4.5
 40
4.5
309
CELLMARGIN_END
 94
        6
 95
        1
302
GRIDFORMAT
  1
GRIDFORMAT_BEGIN
 90
        0
 91
        1
 62
     0
 92
       -2
340
949
 93
        0
 40
1.125
309
GRIDFORMAT_END
 95
        2
302
GRIDFORMAT
  1
GRIDFORMAT_BEGIN
 90
        0
 91
        1
 62
     0
 92
       -2
340
949
 93
        0
 40
1.125
309
GRIDFORMAT_END
 95
        4
302
GRIDFORMAT
  1
GRIDFORMAT_BEGIN
 90
        0
 91
        1
 62
     0
 92
       -2
340
949
 93
        0
 40
1.125
309
GRIDFORMAT_END
 95
        8
302
GRIDFORMAT
  1
GRIDFORMAT_BEGIN
 90
        0
 91
        1
 62
     0
 92
       -2
340
949
 93
        0
 40
1.125
309
GRIDFORMAT_END
 95
       16
302
GRIDFORMAT
  1
GRIDFORMAT_BEGIN
 90
        0
 91
        1
 62
     0
 92
       -2
340
949
 93
        0
 40
1.125
309
GRIDFORMAT_END
 95
       32
302
GRIDFORMAT
  1
GRIDFORMAT_BEGIN
 90
        0
 91
        1
 62
     0
 92
       -2
340
949
 93
        0
 40
1.125
309
GRIDFORMAT_END
309
TABLEFORMAT_END
  1
CELLSTYLE_BEGIN
 90
        2
 91
        1
300
_HEADER
309
CELLSTYLE_END
300
CELLSTYLE
  1
TABLEFORMAT_BEGIN
 90
        5
170
     1
 91
        0
 92
        0
 62
   257
 93
        1
300
CONTENTFORMAT
  1
CONTENTFORMAT_BEGIN
 90
        0
 91
        0
 92
      512
 93
        0
300

 40
0.0
140
1.0
 94
        2
 62
     0
340
11
144
4.5
309
CONTENTFORMAT_END
171
     1
301
MARGIN
  1
CELLMARGIN_BEGIN
 40
1.5
 40
1.5
 40
1.5
 40
1.5
 40
4.5
 40
4.5
309
CELLMARGIN_END
 94
        6
 95
        1
302
GRIDFORMAT
  1
GRIDFORMAT_BEGIN
 90
        0
 91
        1
 62
     0
 92
       -2
340
949
 93
        0
 40
1.125
309
GRIDFORMAT_END
 95
        2
302
GRIDFORMAT
  1
GRIDFORMAT_BEGIN
 90
        0
 91
        1
 62
     0
 92
       -2
340
949
 93
        0
 40
1.125
309
GRIDFORMAT_END
 95
        4
302
GRIDFORMAT
  1
GRIDFORMAT_BEGIN
 90
        0
 91
        1
 62
     0
 92
       -2
340
949
 93
        0
 40
1.125
309
GRIDFORMAT_END
 95
        8
302
GRIDFORMAT
  1
GRIDFORMAT_BEGIN
 90
        0
 91
        1
 62
     0
 92
       -2
340
949
 93
        0
 40
1.125
309
GRIDFORMAT_END
 95
       16
302
GRIDFORMAT
  1
GRIDFORMAT_BEGIN
 90
        0
 91
        1
 62
     0
 92
       -2
340
949
 93
        0
 40
1.125
309
GRIDFORMAT_END
 95
       32
302
GRIDFORMAT
  1
GRIDFORMAT_BEGIN
 90
        0
 91
        1
 62
     0
 92
       -2
340
949
 93
        0
 40
1.125
309
GRIDFORMAT_END
309
TABLEFORMAT_END
  1
CELLSTYLE_BEGIN
 90
        3
 91
        2
300
_DATA
309
CELLSTYLE_END
  0
IMAGEDEF_REACTOR
  5
210
330
20E
100
AcDbRasterImageDefReactor
 90
     2
330
20E
  0
IMAGEDEF
  5
20F
102
{ACAD_REACTORS
330
5E
330
210
102
}
330
5E
100
AcDbRasterImageDef
 90
     0
  1
WDVS mit Edelkratzputz_Vollsturz-Leibung_4_1.tif
 10
395.000000
 20
405.000000
 11
0.002532
 21
0.002469
280
     1
281
     0
  0
ENDSEC
  0
EOF
