  0
SECTION
  2
HEADER
  9
$ACADVER
  1
AC1024
  9
$ACADMAINTVER
 70
     6
  9
$DWGCODEPAGE
  3
ANSI_1252
  9
$INSBASE
 10
0.0
 20
0.0
 30
0.0
  9
$EXTMIN
 10
-262.500018
 20
-371.249941
 30
0.000000
  9
$EXTMAX
 10
237.500023
 20
346.250078
 30
0.000000
  9
$LIMMIN
 10
0.0
 20
0.0
  9
$LIMMAX
 10
420.0
 20
297.0
  9
$ORTHOMODE
 70
     0
  9
$REGENMODE
 70
     1
  9
$FILLMODE
 70
     1
  9
$QTEXTMODE
 70
     0
  9
$MIRRTEXT
 70
     0
  9
$LTSCALE
 40
25.000000
  9
$ATTMODE
 70
     1
  9
$TEXTSIZE
 40
2.5
  9
$TRACEWID
 40
1.0
  9
$TEXTSTYLE
  7
Standard
  9
$CLAYER
  8
0
  9
$CELTYPE
  6
ByLayer
  9
$CECOLOR
 62
   256
  9
$CELTSCALE
 40
1.0
  9
$DISPSILH
 70
     0
  9
$DIMSCALE
 40
1.0
  9
$DIMASZ
 40
2.5
  9
$DIMEXO
 40
0.625
  9
$DIMDLI
 40
3.75
  9
$DIMRND
 40
0.0
  9
$DIMDLE
 40
0.0
  9
$DIMEXE
 40
1.25
  9
$DIMTP
 40
0.0
  9
$DIMTM
 40
0.0
  9
$DIMTXT
 40
2.5
  9
$DIMCEN
 40
2.5
  9
$DIMTSZ
 40
0.0
  9
$DIMTOL
 70
     0
  9
$DIMLIM
 70
     0
  9
$DIMTIH
 70
     0
  9
$DIMTOH
 70
     0
  9
$DIMSE1
 70
     0
  9
$DIMSE2
 70
     0
  9
$DIMTAD
 70
     1
  9
$DIMZIN
 70
     8
  9
$DIMBLK
  1

  9
$DIMASO
 70
     1
  9
$DIMSHO
 70
     1
  9
$DIMPOST
  1

  9
$DIMAPOST
  1

  9
$DIMALT
 70
     0
  9
$DIMALTD
 70
     3
  9
$DIMALTF
 40
0.03937007874016
  9
$DIMLFAC
 40
1.0
  9
$DIMTOFL
 70
     1
  9
$DIMTVP
 40
0.0
  9
$DIMTIX
 70
     0
  9
$DIMSOXD
 70
     0
  9
$DIMSAH
 70
     0
  9
$DIMBLK1
  1

  9
$DIMBLK2
  1

  9
$DIMSTYLE
  2
ISO-25
  9
$DIMCLRD
 70
     0
  9
$DIMCLRE
 70
     0
  9
$DIMCLRT
 70
     0
  9
$DIMTFAC
 40
1.0
  9
$DIMGAP
 40
0.625
  9
$DIMJUST
 70
     0
  9
$DIMSD1
 70
     0
  9
$DIMSD2
 70
     0
  9
$DIMTOLJ
 70
     0
  9
$DIMTZIN
 70
     8
  9
$DIMALTZ
 70
     0
  9
$DIMALTTZ
 70
     0
  9
$DIMUPT
 70
     0
  9
$DIMDEC
 70
     2
  9
$DIMTDEC
 70
     2
  9
$DIMALTU
 70
     2
  9
$DIMALTTD
 70
     3
  9
$DIMTXSTY
  7
Standard
  9
$DIMAUNIT
 70
     0
  9
$DIMADEC
 70
     0
  9
$DIMALTRND
 40
0.0
  9
$DIMAZIN
 70
     0
  9
$DIMDSEP
 70
    44
  9
$DIMATFIT
 70
     3
  9
$DIMFRAC
 70
     0
  9
$DIMLDRBLK
  1

  9
$DIMLUNIT
 70
     2
  9
$DIMLWD
 70
    -2
  9
$DIMLWE
 70
    -2
  9
$DIMTMOVE
 70
     0
  9
$DIMFXL
 40
1.0
  9
$DIMFXLON
 70
     0
  9
$DIMJOGANG
 40
0.7853981633974483
  9
$DIMTFILL
 70
     0
  9
$DIMTFILLCLR
 70
     0
  9
$DIMARCSYM
 70
     0
  9
$DIMLTYPE
  6

  9
$DIMLTEX1
  6

  9
$DIMLTEX2
  6

  9
$DIMTXTDIRECTION
 70
     0
  9
$LUNITS
 70
     2
  9
$LUPREC
 70
     4
  9
$SKETCHINC
 40
1.0
  9
$FILLETRAD
 40
10.0
  9
$AUNITS
 70
     0
  9
$AUPREC
 70
     0
  9
$MENU
  1
.
  9
$ELEVATION
 40
0.0
  9
$PELEVATION
 40
0.0
  9
$THICKNESS
 40
0.0
  9
$LIMCHECK
 70
     0
  9
$CHAMFERA
 40
10.0
  9
$CHAMFERB
 40
10.0
  9
$CHAMFERC
 40
20.0
  9
$CHAMFERD
 40
0.0
  9
$SKPOLY
 70
     0
  9
$TDCREATE
 40
2452006.439837951
  9
$TDUCREATE
 40
2452006.356504618
  9
$TDUPDATE
 40
2452006.439963946
  9
$TDUUPDATE
 40
2452006.356630613
  9
$TDINDWG
 40
0.0001273843
  9
$TDUSRTIMER
 40
0.0001272685
  9
$USRTIMER
 70
     1
  9
$ANGBASE
 50
0.0
  9
$ANGDIR
 70
     0
  9
$PDMODE
 70
     0
  9
$PDSIZE
 40
0.0
  9
$PLINEWID
 40
0.0
  9
$SPLFRAME
 70
     0
  9
$SPLINETYPE
 70
     6
  9
$SPLINESEGS
 70
     8
  9
$HANDSEED
  5
973
  9
$SURFTAB1
 70
     6
  9
$SURFTAB2
 70
     6
  9
$SURFTYPE
 70
     6
  9
$SURFU
 70
     6
  9
$SURFV
 70
     6
  9
$UCSBASE
  2

  9
$UCSNAME
  2

  9
$UCSORG
 10
0.0
 20
0.0
 30
0.0
  9
$UCSXDIR
 10
1.0
 20
0.0
 30
0.0
  9
$UCSYDIR
 10
0.0
 20
1.0
 30
0.0
  9
$UCSORTHOREF
  2

  9
$UCSORTHOVIEW
 70
     0
  9
$UCSORGTOP
 10
0.0
 20
0.0
 30
0.0
  9
$UCSORGBOTTOM
 10
0.0
 20
0.0
 30
0.0
  9
$UCSORGLEFT
 10
0.0
 20
0.0
 30
0.0
  9
$UCSORGRIGHT
 10
0.0
 20
0.0
 30
0.0
  9
$UCSORGFRONT
 10
0.0
 20
0.0
 30
0.0
  9
$UCSORGBACK
 10
0.0
 20
0.0
 30
0.0
  9
$PUCSBASE
  2

  9
$PUCSNAME
  2

  9
$PUCSORG
 10
0.0
 20
0.0
 30
0.0
  9
$PUCSXDIR
 10
1.0
 20
0.0
 30
0.0
  9
$PUCSYDIR
 10
0.0
 20
1.0
 30
0.0
  9
$PUCSORTHOREF
  2

  9
$PUCSORTHOVIEW
 70
     0
  9
$PUCSORGTOP
 10
0.0
 20
0.0
 30
0.0
  9
$PUCSORGBOTTOM
 10
0.0
 20
0.0
 30
0.0
  9
$PUCSORGLEFT
 10
0.0
 20
0.0
 30
0.0
  9
$PUCSORGRIGHT
 10
0.0
 20
0.0
 30
0.0
  9
$PUCSORGFRONT
 10
0.0
 20
0.0
 30
0.0
  9
$PUCSORGBACK
 10
0.0
 20
0.0
 30
0.0
  9
$USERI1
 70
     0
  9
$USERI2
 70
     0
  9
$USERI3
 70
     0
  9
$USERI4
 70
     0
  9
$USERI5
 70
     0
  9
$USERR1
 40
0.0
  9
$USERR2
 40
0.0
  9
$USERR3
 40
0.0
  9
$USERR4
 40
0.0
  9
$USERR5
 40
0.0
  9
$WORLDVIEW
 70
     1
  9
$SHADEDGE
 70
     3
  9
$SHADEDIF
 70
    70
  9
$TILEMODE
 70
     1
  9
$MAXACTVP
 70
    64
  9
$PINSBASE
 10
0.0
 20
0.0
 30
0.0
  9
$PLIMCHECK
 70
     0
  9
$PEXTMIN
 10
1.000000000000000E+20
 20
1.000000000000000E+20
 30
1.000000000000000E+20
  9
$PEXTMAX
 10
-1.000000000000000E+20
 20
-1.000000000000000E+20
 30
-1.000000000000000E+20
  9
$PLIMMIN
 10
0.0
 20
0.0
  9
$PLIMMAX
 10
420.0
 20
297.0
  9
$UNITMODE
 70
     0
  9
$VISRETAIN
 70
     1
  9
$PLINEGEN
 70
     0
  9
$PSLTSCALE
 70
     1
  9
$TREEDEPTH
 70
  3020
  9
$CMLSTYLE
  2
Standard
  9
$CMLJUST
 70
     0
  9
$CMLSCALE
 40
20.0
  9
$PROXYGRAPHICS
 70
     1
  9
$MEASUREMENT
 70
     1
  9
$CELWEIGHT
370
    -1
  9
$ENDCAPS
280
     0
  9
$JOINSTYLE
280
     0
  9
$LWDISPLAY
290
     0
  9
$INSUNITS
 70
     4
  9
$HYPERLINKBASE
  1

  9
$STYLESHEET
  1

  9
$XEDIT
290
     1
  9
$CEPSNTYPE
380
     0
  9
$PSTYLEMODE
290
     1
  9
$FINGERPRINTGUID
  2

  9
$VERSIONGUID
  2

  9
$EXTNAMES
290
     1
  9
$PSVPSCALE
 40
0.0
  9
$OLESTARTUP
290
     0
  9
$SORTENTS
280
   127
  9
$INDEXCTL
280
     0
  9
$HIDETEXT
280
     1
  9
$XCLIPFRAME
280
     2
  9
$HALOGAP
280
     0
  9
$OBSCOLOR
 70
   257
  9
$OBSLTYPE
280
     0
  9
$INTERSECTIONDISPLAY
280
     0
  9
$INTERSECTIONCOLOR
 70
   257
  9
$DIMASSOC
280
     2
  9
$PROJECTNAME
  1

  9
$CAMERADISPLAY
290
     0
  9
$LENSLENGTH
 40
50.0
  9
$CAMERAHEIGHT
 40
0.0
  9
$STEPSPERSEC
 40
2.0
  9
$STEPSIZE
 40
6.0
  9
$3DDWFPREC
 40
2.0
  9
$PSOLWIDTH
 40
5.0
  9
$PSOLHEIGHT
 40
80.0
  9
$LOFTANG1
 40
1.570796326794896
  9
$LOFTANG2
 40
1.570796326794896
  9
$LOFTMAG1
 40
0.0
  9
$LOFTMAG2
 40
0.0
  9
$LOFTPARAM
 70
     7
  9
$LOFTNORMALS
280
     1
  9
$LATITUDE
 40
37.795
  9
$LONGITUDE
 40
-122.394
  9
$NORTHDIRECTION
 40
0.0
  9
$TIMEZONE
 70
 -8000
  9
$LIGHTGLYPHDISPLAY
280
     1
  9
$TILEMODELIGHTSYNCH
280
     1
  9
$CMATERIAL
347
EC
  9
$SOLIDHIST
280
     1
  9
$SHOWHIST
280
     1
  9
$DWFFRAME
280
     2
  9
$DGNFRAME
280
     0
  9
$REALWORLDSCALE
290
     1
  9
$INTERFERECOLOR
 62
     1
  9
$INTERFEREOBJVS
345
F9
  9
$INTERFEREVPVS
346
F6
  9
$CSHADOW
280
     0
  9
$SHADOWPLANELOCATION
 40
0.0
  0
ENDSEC
  0
SECTION
  2
CLASSES
  0
CLASS
  1
ACDBDICTIONARYWDFLT
  2
AcDbDictionaryWithDefault
  3
ObjectDBX Classes
 90
        0
 91
        1
280
     0
281
     0
  0
CLASS
  1
ACDBPLACEHOLDER
  2
AcDbPlaceHolder
  3
ObjectDBX Classes
 90
        0
 91
        1
280
     0
281
     0
  0
CLASS
  1
LAYOUT
  2
AcDbLayout
  3
ObjectDBX Classes
 90
        0
 91
        2
280
     0
281
     0
  0
CLASS
  1
DICTIONARYVAR
  2
AcDbDictionaryVar
  3
ObjectDBX Classes
 90
        0
 91
        7
280
     0
281
     0
  0
CLASS
  1
TABLESTYLE
  2
AcDbTableStyle
  3
ObjectDBX Classes
 90
     4095
 91
        1
280
     0
281
     0
  0
CLASS
  1
MATERIAL
  2
AcDbMaterial
  3
ObjectDBX Classes
 90
     1153
 91
        3
280
     0
281
     0
  0
CLASS
  1
VISUALSTYLE
  2
AcDbVisualStyle
  3
ObjectDBX Classes
 90
     4095
 91
       16
280
     0
281
     0
  0
CLASS
  1
SCALE
  2
AcDbScale
  3
ObjectDBX Classes
 90
     1153
 91
       17
280
     0
281
     0
  0
CLASS
  1
MLEADERSTYLE
  2
AcDbMLeaderStyle
  3
ACDB_MLEADERSTYLE_CLASS
 90
     4095
 91
        1
280
     0
281
     0
  0
CLASS
  1
CELLSTYLEMAP
  2
AcDbCellStyleMap
  3
ObjectDBX Classes
 90
     1152
 91
        2
280
     0
281
     0
  0
CLASS
  1
EXACXREFPANELOBJECT
  2
ExAcXREFPanelObject
  3
EXAC_ESW
 90
    33793
 91
        0
280
     0
281
     0
  0
CLASS
  1
NPOCOLLECTION
  2
AcDbImpNonPersistentObjectsCollection
  3
ObjectDBX Classes
 90
     1153
 91
        0
280
     0
281
     0
  0
CLASS
  1
LAYER_INDEX
  2
AcDbLayerIndex
  3
ObjectDBX Classes
 90
        0
 91
        0
280
     0
281
     0
  0
CLASS
  1
SPATIAL_INDEX
  2
AcDbSpatialIndex
  3
ObjectDBX Classes
 90
        0
 91
        0
280
     0
281
     0
  0
CLASS
  1
IDBUFFER
  2
AcDbIdBuffer
  3
ObjectDBX Classes
 90
        0
 91
        0
280
     0
281
     0
  0
CLASS
  1
RASTERVARIABLES
  2
AcDbRasterVariables
  3
ISM
 90
        0
 91
        2
280
     0
281
     0
  0
CLASS
  1
IMAGEDEF
  2
AcDbRasterImageDef
  3
ISM
 90
        0
 91
        5
280
     0
281
     0
  0
CLASS
  1
IMAGEDEF_REACTOR
  2
AcDbRasterImageDefReactor
  3
ISM
 90
        1
 91
        5
280
     0
281
     0
  0
CLASS
  1
IMAGE
  2
AcDbRasterImage
  3
ISM
 90
     2175
 91
        5
280
     0
281
     1
  0
CLASS
  1
LWPOLYLINE
  2
AcDbPolyline
  3
ObjectDBX Classes
 90
        0
 91
        0
280
     0
281
     1
  0
CLASS
  1
OLE2FRAME
  2
AcDbOle2Frame
  3
ObjectDBX Classes
 90
        0
 91
        0
280
     0
281
     1
  0
CLASS
  1
HATCH
  2
AcDbHatch
  3
ObjectDBX Classes
 90
        0
 91
        0
280
     0
281
     1
  0
CLASS
  1
XRECORD
  2
AcDbXrecord
  3
ObjectDBX Classes
 90
        0
 91
        9
280
     0
281
     0
  0
CLASS
  1
SORTENTSTABLE
  2
AcDbSortentsTable
  3
ObjectDBX Classes
 90
        0
 91
        0
280
     0
281
     0
  0
CLASS
  1
OBJECT_PTR
  2
CAseDLPNTableRecord
  3
"ASE-LPNTableRecord"
 90
    32769
 91
        0
280
     0
281
     0
  0
CLASS
  1
PLOTSETTINGS
  2
AcDbPlotSettings
  3
ObjectDBX Classes
 90
        0
 91
        0
280
     0
281
     0
  0
CLASS
  1
VBA_PROJECT
  2
AcDbVbaProject
  3
acad
 90
        0
 91
        0
280
     0
281
     0
  0
CLASS
  1
WIPEOUT
  2
AcDbWipeout
  3
WipeOut|AutoCAD Express Tool|expresstools@autodesk.com
 90
    32895
 91
        0
280
     0
281
     1
  0
CLASS
  1
WIPEOUTVARIABLES
  2
AcDbWipeoutVariables
  3
WipeOut|AutoCAD Express Tool|expresstools@autodesk.com
 90
    32768
 91
        0
280
     0
281
     0
  0
CLASS
  1
RTEXT
  2
RText
  3
RText|AutoCAD Express Tool|expresstools@autodesk.com
 90
    32768
 91
        0
280
     0
281
     1
  0
CLASS
  1
ARCALIGNEDTEXT
  2
AcDbArcAlignedText
  3
ATEXT|AutoCAD Express Tool|expresstools@autodesk.com
 90
    32768
 91
        0
280
     0
281
     1
  0
ENDSEC
  0
SECTION
  2
TABLES
  0
TABLE
  2
VPORT
  5
920
100
AcDbSymbolTable
 70
     1
  0
VPORT
  5
921
100
AcDbSymbolTableRecord
100
AcDbViewportTableRecord
  2
*ACTIVE
 70
     0
 10
0.000000
 20
0.000000
 11
1.000000
 21
1.000000
 12
50.000000
 22
50.000000
 13
0.000000
 23
0.000000
 14
1.000000
 24
1.000000
 15
10.000000
 25
10.000000
 16
0.000000
 26
0.000000
 36
1.000000
 17
0.000000
 27
0.000000
 37
0.000000
 40
100.000000
 41
1.387409
 42
50.000000
 43
0.000000
 44
0.000000
 50
0.000000
 51
0.000000
 71
     0
 72
   100
 73
     1
 74
     1
 75
     0
 76
     0
 77
     0
 78
     0
  0
ENDTAB
  0
TABLE
  2
LTYPE
  5
922
330
0
100
AcDbSymbolTable
 70
     9
  0
LTYPE
  5
923
330
922
100
AcDbSymbolTableRecord
100
AcDbLinetypeTableRecord
  2
ByBlock
 70
     0
  3

 72
    65
 73
     0
 40
0.000000
  0
LTYPE
  5
924
330
922
100
AcDbSymbolTableRecord
100
AcDbLinetypeTableRecord
  2
ByLayer
 70
     0
  3

 72
    65
 73
     0
 40
0.000000
  0
LTYPE
  5
925
330
922
100
AcDbSymbolTableRecord
100
AcDbLinetypeTableRecord
  2
CONTINUOUS
 70
     0
  3
Solid line
 72
    65
 73
     0
 40
0.000000
  0
LTYPE
  5
926
330
922
100
AcDbSymbolTableRecord
100
AcDbLinetypeTableRecord
  2
HIDDEN
 70
     0
  3
_ _ _ _ _ _ _ _ _ _ _ _ _ _ _ _ _ _ _ _ _ _ _
 72
    65
 73
     2
 40
0.375000
 49
0.250000
 74
     0
 49
-0.125000
 74
     0
  0
LTYPE
  5
927
330
922
100
AcDbSymbolTableRecord
100
AcDbLinetypeTableRecord
  2
DOT
 70
     0
  3
...............................................
 72
    65
 73
     2
 40
0.250000
 49
0.000000
 74
     0
 49
-0.250000
 74
     0
  0
LTYPE
  5
928
330
922
100
AcDbSymbolTableRecord
100
AcDbLinetypeTableRecord
  2
DASHED
 70
     0
  3
__ __ __ __ __ __ __ __ __ __ __ __ __ __ __ 
 72
    65
 73
     2
 40
0.750000
 49
0.500000
 74
     0
 49
-0.250000
 74
     0
  0
LTYPE
  5
929
330
922
100
AcDbSymbolTableRecord
100
AcDbLinetypeTableRecord
  2
DIVIDE
 70
     0
  3
__ . . __ . . __ . . __ . . __ . . __ . . __
 72
    65
 73
     6
 40
1.250000
 49
0.500000
 74
     0
 49
-0.250000
 74
     0
 49
0.000000
 74
     0
 49
-0.250000
 74
     0
 49
0.000000
 74
     0
 49
-0.250000
 74
     0
  0
LTYPE
  5
92A
330
922
100
AcDbSymbolTableRecord
100
AcDbLinetypeTableRecord
  2
DASHDOT
 70
     0
  3
__ . __ . __ . __ . __ . __ . __ . __ . __ . __
 72
    65
 73
     4
 40
1.000000
 49
0.500000
 74
     0
 49
-0.250000
 74
     0
 49
0.000000
 74
     0
 49
-0.250000
 74
     0
  0
LTYPE
  5
92B
330
922
100
AcDbSymbolTableRecord
100
AcDbLinetypeTableRecord
  2
BORDER
 70
     0
  3
__ __ . __ __ . __ __ . __ __ . __ __ . __ __
 72
    65
 73
     6
 40
1.750000
 49
0.500000
 74
     0
 49
-0.250000
 74
     0
 49
0.500000
 74
     0
 49
-0.250000
 74
     0
 49
0.000000
 74
     0
 49
-0.250000
 74
     0
  0
LTYPE
  5
92C
330
922
100
AcDbSymbolTableRecord
100
AcDbLinetypeTableRecord
  2
CENTER
 70
     0
  3
____ _ ____ _ ____ _ ____ _ ____ _ ____ _ ____
 72
    65
 73
     4
 40
2.000000
 49
1.250000
 74
     0
 49
-0.250000
 74
     0
 49
0.250000
 74
     0
 49
-0.250000
 74
     0
  0
LTYPE
  5
92D
330
922
100
AcDbSymbolTableRecord
100
AcDbLinetypeTableRecord
  2
PHANTOM
 70
     0
  3
_____ _ _ _____ _ _ _____ _ _ _____ _ _ ____
 72
    65
 73
     6
 40
2.500000
 49
1.250000
 74
     0
 49
-0.250000
 74
     0
 49
0.250000
 74
     0
 49
-0.250000
 74
     0
 49
0.250000
 74
     0
 49
-0.250000
 74
     0
  0
ENDTAB
  0
TABLE
  2
LAYER
  5
92E
100
AcDbSymbolTable
 70
     4
  0
LAYER
  5
92F
100
AcDbSymbolTableRecord
100
AcDbLayerTableRecord
  2
0
 70
     0
 62
     7
  6
CONTINUOUS
370
    -3
390
     0
  0
LAYER
  5
930
100
AcDbSymbolTableRecord
100
AcDbLayerTableRecord
  2
SCHRAFF
 70
     0
 62
     7
  6
CONTINUOUS
370
    -3
390
     0
  0
LAYER
  5
931
100
AcDbSymbolTableRecord
100
AcDbLayerTableRecord
  2
Detail
 70
     0
 62
     7
  6
CONTINUOUS
370
    -3
390
     0
  0
LAYER
  5
932
100
AcDbSymbolTableRecord
100
AcDbLayerTableRecord
  2
L
 70
     0
 62
     7
  6
CONTINUOUS
370
    -3
390
     0
  0
ENDTAB
  0
TABLE
  2
STYLE
  5
933
100
AcDbSymbolTable
 70
     2
  0
STYLE
  5
201
100
AcDbSymbolTableRecord
100
AcDbTextStyleTableRecord
  2
STANDARD
 70
     0
 40
0.000000
 41
1.000000
 50
0.000000
 71
     0
 42
3.500000
  3
txt
  4

  0
STYLE
  5
396
100
AcDbSymbolTableRecord
100
AcDbTextStyleTableRecord
  2
Arial
 70
     0
 40
0.000000
 41
1.000000
 50
0.000000
 71
     0
 42
3.500000
  3
Arial.ttf
  4

1001
ACAD
1000
Arial
1071
     0
  0
ENDTAB
  0
TABLE
  2
DIMSTYLE
  5
934
100
AcDbSymbolTable
 70
     0
100
AcDbDimStyleTable
  0
ENDTAB
  0
TABLE
  2
VIEW
  5
935
100
AcDbSymbolTable
 70
     0
  0
ENDTAB
  0
TABLE
  2
UCS
  5
936
100
AcDbSymbolTable
 70
     0
  0
ENDTAB
  0
TABLE
  2
APPID
  5
937
100
AcDbSymbolTable
 70
     1
  0
APPID
  5
938
100
AcDbSymbolTableRecord
100
AcDbRegAppTableRecord
  2
ACAD
 70
     0
  0
ENDTAB
  0
TABLE
  2
BLOCK_RECORD
  5
939
100
AcDbSymbolTable
 70
    58
  0
BLOCK_RECORD
  5
202
102
{ACAD_XDICTIONARY
360
203
102
}
100
AcDbSymbolTableRecord
100
AcDbBlockTableRecord
  2
*Model_Space
  0
BLOCK_RECORD
  5
93A
100
AcDbSymbolTableRecord
100
AcDbBlockTableRecord
  2
*Paper_Space
  0
BLOCK_RECORD
  5
93B
100
AcDbSymbolTableRecord
100
AcDbBlockTableRecord
  2
*Paper_Space0
  0
BLOCK_RECORD
  5
93C
100
AcDbSymbolTableRecord
100
AcDbBlockTableRecord
  2
B
  0
BLOCK_RECORD
  5
93D
100
AcDbSymbolTableRecord
100
AcDbBlockTableRecord
  2
B-2
  0
BLOCK_RECORD
  5
93E
100
AcDbSymbolTableRecord
100
AcDbBlockTableRecord
  2
B-3
  0
BLOCK_RECORD
  5
93F
100
AcDbSymbolTableRecord
100
AcDbBlockTableRecord
  2
B-4
  0
BLOCK_RECORD
  5
940
100
AcDbSymbolTableRecord
100
AcDbBlockTableRecord
  2
B-5
  0
BLOCK_RECORD
  5
941
100
AcDbSymbolTableRecord
100
AcDbBlockTableRecord
  2
B-6
  0
BLOCK_RECORD
  5
942
100
AcDbSymbolTableRecord
100
AcDbBlockTableRecord
  2
B-7
  0
BLOCK_RECORD
  5
943
100
AcDbSymbolTableRecord
100
AcDbBlockTableRecord
  2
B-8
  0
BLOCK_RECORD
  5
944
100
AcDbSymbolTableRecord
100
AcDbBlockTableRecord
  2
B-9
  0
BLOCK_RECORD
  5
945
100
AcDbSymbolTableRecord
100
AcDbBlockTableRecord
  2
B-10
  0
BLOCK_RECORD
  5
946
100
AcDbSymbolTableRecord
100
AcDbBlockTableRecord
  2
B-11
  0
BLOCK_RECORD
  5
947
100
AcDbSymbolTableRecord
100
AcDbBlockTableRecord
  2
B-12
  0
BLOCK_RECORD
  5
948
100
AcDbSymbolTableRecord
100
AcDbBlockTableRecord
  2
B-13
  0
BLOCK_RECORD
  5
949
100
AcDbSymbolTableRecord
100
AcDbBlockTableRecord
  2
B-14
  0
BLOCK_RECORD
  5
94A
100
AcDbSymbolTableRecord
100
AcDbBlockTableRecord
  2
B-15
  0
BLOCK_RECORD
  5
94B
100
AcDbSymbolTableRecord
100
AcDbBlockTableRecord
  2
B-16
  0
BLOCK_RECORD
  5
94C
100
AcDbSymbolTableRecord
100
AcDbBlockTableRecord
  2
B-17
  0
BLOCK_RECORD
  5
94D
100
AcDbSymbolTableRecord
100
AcDbBlockTableRecord
  2
B-18
  0
BLOCK_RECORD
  5
94E
100
AcDbSymbolTableRecord
100
AcDbBlockTableRecord
  2
B-19
  0
BLOCK_RECORD
  5
94F
100
AcDbSymbolTableRecord
100
AcDbBlockTableRecord
  2
B-20
  0
BLOCK_RECORD
  5
950
100
AcDbSymbolTableRecord
100
AcDbBlockTableRecord
  2
B-21
  0
BLOCK_RECORD
  5
951
100
AcDbSymbolTableRecord
100
AcDbBlockTableRecord
  2
B-22
  0
BLOCK_RECORD
  5
952
100
AcDbSymbolTableRecord
100
AcDbBlockTableRecord
  2
B-23
  0
BLOCK_RECORD
  5
953
100
AcDbSymbolTableRecord
100
AcDbBlockTableRecord
  2
B-24
  0
BLOCK_RECORD
  5
954
100
AcDbSymbolTableRecord
100
AcDbBlockTableRecord
  2
B-25
  0
BLOCK_RECORD
  5
955
100
AcDbSymbolTableRecord
100
AcDbBlockTableRecord
  2
B-26
  0
BLOCK_RECORD
  5
956
100
AcDbSymbolTableRecord
100
AcDbBlockTableRecord
  2
B-28
  0
BLOCK_RECORD
  5
957
100
AcDbSymbolTableRecord
100
AcDbBlockTableRecord
  2
B-29
  0
BLOCK_RECORD
  5
958
100
AcDbSymbolTableRecord
100
AcDbBlockTableRecord
  2
B-30
  0
BLOCK_RECORD
  5
959
100
AcDbSymbolTableRecord
100
AcDbBlockTableRecord
  2
B-31
  0
BLOCK_RECORD
  5
95A
100
AcDbSymbolTableRecord
100
AcDbBlockTableRecord
  2
B-32
  0
BLOCK_RECORD
  5
95B
100
AcDbSymbolTableRecord
100
AcDbBlockTableRecord
  2
B-33
  0
BLOCK_RECORD
  5
95C
100
AcDbSymbolTableRecord
100
AcDbBlockTableRecord
  2
B-34
  0
BLOCK_RECORD
  5
95D
100
AcDbSymbolTableRecord
100
AcDbBlockTableRecord
  2
B-35
  0
BLOCK_RECORD
  5
95E
100
AcDbSymbolTableRecord
100
AcDbBlockTableRecord
  2
B-36
  0
BLOCK_RECORD
  5
95F
100
AcDbSymbolTableRecord
100
AcDbBlockTableRecord
  2
B-37
  0
BLOCK_RECORD
  5
960
100
AcDbSymbolTableRecord
100
AcDbBlockTableRecord
  2
B-38
  0
BLOCK_RECORD
  5
961
100
AcDbSymbolTableRecord
100
AcDbBlockTableRecord
  2
B-39
  0
BLOCK_RECORD
  5
962
100
AcDbSymbolTableRecord
100
AcDbBlockTableRecord
  2
B-40
  0
BLOCK_RECORD
  5
963
100
AcDbSymbolTableRecord
100
AcDbBlockTableRecord
  2
B-41
  0
BLOCK_RECORD
  5
964
100
AcDbSymbolTableRecord
100
AcDbBlockTableRecord
  2
B-42
  0
BLOCK_RECORD
  5
965
100
AcDbSymbolTableRecord
100
AcDbBlockTableRecord
  2
B-43
  0
BLOCK_RECORD
  5
966
100
AcDbSymbolTableRecord
100
AcDbBlockTableRecord
  2
B-44
  0
BLOCK_RECORD
  5
967
100
AcDbSymbolTableRecord
100
AcDbBlockTableRecord
  2
B-45
  0
BLOCK_RECORD
  5
968
100
AcDbSymbolTableRecord
100
AcDbBlockTableRecord
  2
B-46
  0
BLOCK_RECORD
  5
969
100
AcDbSymbolTableRecord
100
AcDbBlockTableRecord
  2
B-47
  0
BLOCK_RECORD
  5
96A
100
AcDbSymbolTableRecord
100
AcDbBlockTableRecord
  2
B-48
  0
BLOCK_RECORD
  5
96B
100
AcDbSymbolTableRecord
100
AcDbBlockTableRecord
  2
B-49
  0
BLOCK_RECORD
  5
96C
100
AcDbSymbolTableRecord
100
AcDbBlockTableRecord
  2
B-50
  0
BLOCK_RECORD
  5
96D
100
AcDbSymbolTableRecord
100
AcDbBlockTableRecord
  2
B-52
  0
BLOCK_RECORD
  5
96E
100
AcDbSymbolTableRecord
100
AcDbBlockTableRecord
  2
B-53
  0
BLOCK_RECORD
  5
96F
100
AcDbSymbolTableRecord
100
AcDbBlockTableRecord
  2
B-54
  0
BLOCK_RECORD
  5
970
100
AcDbSymbolTableRecord
100
AcDbBlockTableRecord
  2
B-55
  0
BLOCK_RECORD
  5
971
100
AcDbSymbolTableRecord
100
AcDbBlockTableRecord
  2
B-56
  0
BLOCK_RECORD
  5
972
100
AcDbSymbolTableRecord
100
AcDbBlockTableRecord
  2
B-57
  0
ENDTAB
  0
ENDSEC
  0
SECTION
  2
BLOCKS
  0
BLOCK
  5
204
100
AcDbEntity
  8
0
100
AcDbBlockBegin
  2
*Model_Space
 70
     0
 10
0.000000
 20
0.000000
 30
0.000000
  3
*Model_Space
  1

  0
ENDBLK
  5
205
100
AcDbEntity
  8
0
100
AcDbBlockEnd
  0
BLOCK
  5
206
100
AcDbEntity
 67
     1
  8
0
100
AcDbBlockBegin
  2
*Paper_Space
 70
     0
 10
0.000000
 20
0.000000
 30
0.000000
  3
*Paper_Space
  1

  0
ENDBLK
  5
207
100
AcDbEntity
 67
     1
  8
0
100
AcDbBlockEnd
  0
BLOCK
  5
208
100
AcDbEntity
 67
     1
  8
0
100
AcDbBlockBegin
  2
*Paper_Space0
 70
     0
 10
0.000000
 20
0.000000
 30
0.000000
  3
*Paper_Space0
  1

  0
ENDBLK
  5
209
100
AcDbEntity
 67
     1
  8
0
100
AcDbBlockEnd
  0
BLOCK
  5
20A
100
AcDbEntity
  8
SCHRAFF
100
AcDbBlockBegin
  2
B
 70
    66
 10
0.000000
 20
0.000000
 30
0.000000
  0
HATCH
  5
20B
100
AcDbEntity
  8
SCHRAFF
 62
   254
440
     0
100
AcDbHatch
 10
0.000000
 20
0.000000
 30
0.000000
210
0.000000
220
0.000000
230
1.000000
  2
SOLID
 70
     1
 71
     1
 91
     1
 92
    18
 72
     1
 73
     0
 93
     5
 10
-147.500018
 20
-51.249941
 42
0.000000
 10
-67.500018
 20
-51.249941
 42
0.000000
 10
-67.500018
 20
-49.249941
 42
0.000000
 10
-147.500018
 20
-49.249941
 42
0.000000
 10
-147.500018
 20
-51.249941
 42
0.000000
 97
     0
 75
     0
 76
     1
 98
     0
  0
ENDBLK
  5
20C
100
AcDbEntity
  8
0
100
AcDbBlockEnd
  0
BLOCK
  5
20D
100
AcDbEntity
  8
SCHRAFF
100
AcDbBlockBegin
  2
B-2
 70
    66
 10
0.000000
 20
0.000000
 30
0.000000
  0
HATCH
  5
20E
100
AcDbEntity
  8
SCHRAFF
 62
    21
440
     0
100
AcDbHatch
 10
0.000000
 20
0.000000
 30
0.000000
210
0.000000
220
0.000000
230
1.000000
  2
SOLID
 70
     1
 71
     1
 91
     1
 92
    18
 72
     1
 73
     0
 93
   593
 10
-57.500018
 20
-41.249941
 42
0.000000
 10
212.500023
 20
-41.249941
 42
0.000000
 10
212.499982
 20
-30.749941
 42
0.000000
 10
211.499982
 20
-31.249941
 42
0.000000
 10
210.499982
 20
-31.249941
 42
0.000000
 10
209.499982
 20
-31.749941
 42
0.000000
 10
208.499982
 20
-31.249941
 42
0.000000
 10
207.499982
 20
-31.249941
 42
0.000000
 10
206.499982
 20
-30.749941
 42
0.000000
 10
205.499982
 20
-31.249941
 42
0.000000
 10
204.499982
 20
-31.249941
 42
0.000000
 10
203.499982
 20
-31.749941
 42
0.000000
 10
202.499982
 20
-31.249941
 42
0.000000
 10
201.499982
 20
-31.249941
 42
0.000000
 10
200.499982
 20
-30.749941
 42
0.000000
 10
199.499982
 20
-31.249941
 42
0.000000
 10
198.499982
 20
-31.249941
 42
0.000000
 10
197.499982
 20
-31.749941
 42
0.000000
 10
196.499982
 20
-31.249941
 42
0.000000
 10
195.499982
 20
-31.249941
 42
0.000000
 10
194.499982
 20
-30.749941
 42
0.000000
 10
193.499982
 20
-31.249941
 42
0.000000
 10
192.499982
 20
-31.249941
 42
0.000000
 10
191.499982
 20
-31.749941
 42
0.000000
 10
190.499982
 20
-31.249941
 42
0.000000
 10
189.499982
 20
-31.249941
 42
0.000000
 10
188.499982
 20
-30.749941
 42
0.000000
 10
187.499982
 20
-31.249941
 42
0.000000
 10
186.499982
 20
-31.249941
 42
0.000000
 10
185.499982
 20
-31.749941
 42
0.000000
 10
184.499982
 20
-31.249941
 42
0.000000
 10
183.499982
 20
-31.249941
 42
0.000000
 10
182.499982
 20
-30.749941
 42
0.000000
 10
181.499982
 20
-31.249941
 42
0.000000
 10
180.499982
 20
-31.249941
 42
0.000000
 10
179.499982
 20
-31.749941
 42
0.000000
 10
178.499982
 20
-31.249941
 42
0.000000
 10
177.499982
 20
-31.249941
 42
0.000000
 10
176.499982
 20
-30.749941
 42
0.000000
 10
175.499982
 20
-31.249941
 42
0.000000
 10
174.499982
 20
-31.249941
 42
0.000000
 10
173.499982
 20
-31.749941
 42
0.000000
 10
172.499982
 20
-31.249941
 42
0.000000
 10
171.499982
 20
-31.249941
 42
0.000000
 10
170.499982
 20
-30.749941
 42
0.000000
 10
169.499982
 20
-31.249941
 42
0.000000
 10
168.499982
 20
-31.249941
 42
0.000000
 10
167.499982
 20
-31.749941
 42
0.000000
 10
166.499982
 20
-31.249941
 42
0.000000
 10
165.499982
 20
-31.249941
 42
0.000000
 10
164.499982
 20
-30.749941
 42
0.000000
 10
163.499982
 20
-31.249941
 42
0.000000
 10
162.499982
 20
-31.249941
 42
0.000000
 10
161.499982
 20
-31.749941
 42
0.000000
 10
160.499982
 20
-31.249941
 42
0.000000
 10
159.499982
 20
-31.249941
 42
0.000000
 10
158.499982
 20
-30.749941
 42
0.000000
 10
157.499982
 20
-31.249941
 42
0.000000
 10
156.499982
 20
-31.249941
 42
0.000000
 10
155.499982
 20
-31.749941
 42
0.000000
 10
154.499982
 20
-31.249941
 42
0.000000
 10
153.491186
 20
-31.245543
 42
0.000000
 10
152.499982
 20
-30.749941
 42
0.000000
 10
151.499982
 20
-31.249941
 42
0.000000
 10
150.499982
 20
-31.249941
 42
0.000000
 10
149.499982
 20
-31.749941
 42
0.000000
 10
148.499982
 20
-31.249941
 42
0.000000
 10
147.499982
 20
-31.249941
 42
0.000000
 10
146.499982
 20
-30.749941
 42
0.000000
 10
145.499982
 20
-31.249941
 42
0.000000
 10
144.499982
 20
-31.249941
 42
0.000000
 10
143.499982
 20
-31.749941
 42
0.000000
 10
142.499982
 20
-31.249941
 42
0.000000
 10
141.499982
 20
-31.249941
 42
0.000000
 10
140.499982
 20
-30.749941
 42
0.000000
 10
139.499982
 20
-31.249941
 42
0.000000
 10
138.499982
 20
-31.249941
 42
0.000000
 10
137.499982
 20
-31.749941
 42
0.000000
 10
136.499982
 20
-31.249941
 42
0.000000
 10
135.499982
 20
-31.249941
 42
0.000000
 10
134.499982
 20
-30.749941
 42
0.000000
 10
133.499982
 20
-31.249941
 42
0.000000
 10
132.499982
 20
-31.249941
 42
0.000000
 10
131.499982
 20
-31.749941
 42
0.000000
 10
130.499982
 20
-31.249941
 42
0.000000
 10
129.499982
 20
-31.249941
 42
0.000000
 10
128.499982
 20
-30.749941
 42
0.000000
 10
127.499982
 20
-31.249941
 42
0.000000
 10
126.499982
 20
-31.249941
 42
0.000000
 10
125.499982
 20
-31.749941
 42
0.000000
 10
124.499982
 20
-31.249941
 42
0.000000
 10
123.499982
 20
-31.249941
 42
0.000000
 10
122.499982
 20
-30.749941
 42
0.000000
 10
121.492315
 20
-31.249941
 42
0.000000
 10
120.499982
 20
-31.249941
 42
0.000000
 10
119.499982
 20
-31.749941
 42
0.000000
 10
118.499982
 20
-31.249941
 42
0.000000
 10
117.499982
 20
-31.249941
 42
0.000000
 10
116.499982
 20
-30.749941
 42
0.000000
 10
115.499982
 20
-31.249941
 42
0.000000
 10
114.499982
 20
-31.249941
 42
0.000000
 10
113.499982
 20
-31.749941
 42
0.000000
 10
112.499982
 20
-31.249941
 42
0.000000
 10
111.499982
 20
-31.249941
 42
0.000000
 10
110.499982
 20
-30.749941
 42
0.000000
 10
109.499982
 20
-31.249941
 42
0.000000
 10
108.499982
 20
-31.249941
 42
0.000000
 10
107.499982
 20
-31.749941
 42
0.000000
 10
106.499982
 20
-31.249941
 42
0.000000
 10
105.499982
 20
-31.249941
 42
0.000000
 10
104.499982
 20
-30.749941
 42
0.000000
 10
103.499982
 20
-31.249941
 42
0.000000
 10
102.499982
 20
-31.249941
 42
0.000000
 10
101.499982
 20
-31.749941
 42
0.000000
 10
100.499982
 20
-31.249941
 42
0.000000
 10
99.499982
 20
-31.249941
 42
0.000000
 10
98.499982
 20
-30.749941
 42
0.000000
 10
97.499982
 20
-31.249941
 42
0.000000
 10
96.499982
 20
-31.249941
 42
0.000000
 10
95.499982
 20
-31.749941
 42
0.000000
 10
94.499982
 20
-31.249941
 42
0.000000
 10
93.499982
 20
-31.249941
 42
0.000000
 10
92.499982
 20
-30.749941
 42
0.000000
 10
91.499982
 20
-31.249941
 42
0.000000
 10
90.499982
 20
-31.249941
 42
0.000000
 10
89.499982
 20
-31.749941
 42
0.000000
 10
88.499982
 20
-31.249941
 42
0.000000
 10
87.499982
 20
-31.249941
 42
0.000000
 10
86.499982
 20
-30.749941
 42
0.000000
 10
85.499982
 20
-31.249941
 42
0.000000
 10
84.499982
 20
-31.249941
 42
0.000000
 10
83.499982
 20
-31.749941
 42
0.000000
 10
82.499982
 20
-31.249941
 42
0.000000
 10
81.499982
 20
-31.249941
 42
0.000000
 10
80.499982
 20
-30.749941
 42
0.000000
 10
79.499982
 20
-31.249941
 42
0.000000
 10
78.499982
 20
-31.249941
 42
0.000000
 10
77.499982
 20
-31.749941
 42
0.000000
 10
76.499982
 20
-31.249941
 42
0.000000
 10
75.499982
 20
-31.249941
 42
0.000000
 10
74.499982
 20
-30.749941
 42
0.000000
 10
73.499982
 20
-31.249941
 42
0.000000
 10
72.499982
 20
-31.249941
 42
0.000000
 10
71.499982
 20
-31.749941
 42
0.000000
 10
70.499982
 20
-31.249941
 42
0.000000
 10
69.499982
 20
-31.249941
 42
0.000000
 10
68.499982
 20
-30.749941
 42
0.000000
 10
67.499982
 20
-31.249941
 42
0.000000
 10
66.499982
 20
-31.249941
 42
0.000000
 10
65.499982
 20
-31.749941
 42
0.000000
 10
64.499982
 20
-31.249941
 42
0.000000
 10
63.499982
 20
-31.249941
 42
0.000000
 10
62.499982
 20
-30.749941
 42
0.000000
 10
61.499982
 20
-31.249941
 42
0.000000
 10
60.499982
 20
-31.249941
 42
0.000000
 10
59.499982
 20
-31.749941
 42
0.000000
 10
58.499982
 20
-31.249941
 42
0.000000
 10
57.499982
 20
-31.249941
 42
0.000000
 10
56.499982
 20
-30.749941
 42
0.000000
 10
55.499982
 20
-31.249941
 42
0.000000
 10
54.499982
 20
-31.249941
 42
0.000000
 10
53.499982
 20
-31.749941
 42
0.000000
 10
52.499982
 20
-31.249941
 42
0.000000
 10
51.499982
 20
-31.249941
 42
0.000000
 10
50.499982
 20
-30.749941
 42
0.000000
 10
49.499982
 20
-31.249941
 42
0.000000
 10
48.499982
 20
-31.249941
 42
0.000000
 10
47.499982
 20
-31.749941
 42
0.000000
 10
46.499982
 20
-31.249941
 42
0.000000
 10
45.499982
 20
-31.249941
 42
0.000000
 10
44.499982
 20
-30.749941
 42
0.000000
 10
43.499982
 20
-31.249941
 42
0.000000
 10
42.499982
 20
-31.249941
 42
0.000000
 10
41.499982
 20
-31.749941
 42
0.000000
 10
40.499982
 20
-31.249941
 42
0.000000
 10
39.499982
 20
-31.249941
 42
0.000000
 10
38.499982
 20
-30.749941
 42
0.000000
 10
37.499982
 20
-31.249941
 42
0.000000
 10
36.499982
 20
-31.249941
 42
0.000000
 10
35.499982
 20
-31.749941
 42
0.000000
 10
34.499982
 20
-31.249941
 42
0.000000
 10
33.499982
 20
-31.249941
 42
0.000000
 10
32.499982
 20
-30.749941
 42
0.000000
 10
31.499982
 20
-31.249941
 42
0.000000
 10
30.499982
 20
-31.249941
 42
0.000000
 10
29.499982
 20
-31.749941
 42
0.000000
 10
28.499982
 20
-31.249941
 42
0.000000
 10
27.499982
 20
-31.249941
 42
0.000000
 10
26.499982
 20
-30.749941
 42
0.000000
 10
25.499982
 20
-31.249941
 42
0.000000
 10
24.499982
 20
-31.249941
 42
0.000000
 10
23.499982
 20
-31.749941
 42
0.000000
 10
22.499982
 20
-31.249941
 42
0.000000
 10
21.499982
 20
-31.249941
 42
0.000000
 10
20.499982
 20
-30.749941
 42
0.000000
 10
19.499982
 20
-31.249941
 42
0.000000
 10
18.499982
 20
-31.249941
 42
0.000000
 10
17.499982
 20
-31.749941
 42
0.000000
 10
16.499982
 20
-31.249941
 42
0.000000
 10
15.499982
 20
-31.249941
 42
0.000000
 10
14.499982
 20
-30.749941
 42
0.000000
 10
13.499982
 20
-31.249941
 42
0.000000
 10
12.499982
 20
-31.249941
 42
0.000000
 10
11.499982
 20
-31.749941
 42
0.000000
 10
10.499982
 20
-31.249941
 42
0.000000
 10
9.499982
 20
-31.249941
 42
0.000000
 10
8.499982
 20
-30.749941
 42
0.000000
 10
7.499982
 20
-31.249941
 42
0.000000
 10
6.499982
 20
-31.249941
 42
0.000000
 10
5.499982
 20
-31.749941
 42
0.000000
 10
4.499982
 20
-31.249941
 42
0.000000
 10
3.499982
 20
-31.249941
 42
0.000000
 10
2.499982
 20
-30.749941
 42
0.000000
 10
1.499982
 20
-31.249941
 42
0.000000
 10
0.499982
 20
-31.249941
 42
0.000000
 10
-0.500018
 20
-31.749941
 42
0.000000
 10
-1.500018
 20
-31.249941
 42
0.000000
 10
-2.500018
 20
-31.249941
 42
0.000000
 10
-3.500018
 20
-30.749941
 42
0.000000
 10
-4.500018
 20
-31.249941
 42
0.000000
 10
-5.500018
 20
-31.249941
 42
0.000000
 10
-6.500018
 20
-31.749941
 42
0.000000
 10
-7.500018
 20
-31.249941
 42
0.000000
 10
-8.500018
 20
-31.249941
 42
0.000000
 10
-9.500018
 20
-30.749941
 42
0.000000
 10
-10.500018
 20
-31.249941
 42
0.000000
 10
-11.500018
 20
-31.249941
 42
0.000000
 10
-12.500018
 20
-31.749941
 42
0.000000
 10
-13.500018
 20
-31.249941
 42
0.000000
 10
-14.500018
 20
-31.249941
 42
0.000000
 10
-15.500018
 20
-30.749941
 42
0.000000
 10
-16.507685
 20
-31.249941
 42
0.000000
 10
-17.500018
 20
-31.249941
 42
0.000000
 10
-18.500018
 20
-31.749941
 42
0.000000
 10
-19.500018
 20
-31.249941
 42
0.000000
 10
-20.500018
 20
-31.249941
 42
0.000000
 10
-21.500018
 20
-30.749941
 42
0.000000
 10
-22.500018
 20
-31.249941
 42
0.000000
 10
-23.500018
 20
-31.249941
 42
0.000000
 10
-24.500018
 20
-31.749941
 42
0.000000
 10
-25.500018
 20
-31.249941
 42
0.000000
 10
-26.500018
 20
-31.249941
 42
0.000000
 10
-27.500018
 20
-30.749941
 42
0.000000
 10
-28.500018
 20
-31.249941
 42
0.000000
 10
-29.500018
 20
-31.249941
 42
0.000000
 10
-30.500018
 20
-31.749941
 42
0.000000
 10
-31.500018
 20
-31.249941
 42
0.000000
 10
-32.500018
 20
-31.249941
 42
0.000000
 10
-33.500018
 20
-30.749941
 42
0.000000
 10
-34.500018
 20
-31.249941
 42
0.000000
 10
-35.500018
 20
-31.249941
 42
0.000000
 10
-36.500018
 20
-31.749941
 42
0.000000
 10
-37.500018
 20
-31.249941
 42
0.000000
 10
-38.500018
 20
-31.249941
 42
0.000000
 10
-39.500018
 20
-30.749941
 42
0.000000
 10
-40.507685
 20
-31.249941
 42
0.000000
 10
-41.500018
 20
-31.249941
 42
0.000000
 10
-42.500018
 20
-31.749941
 42
0.000000
 10
-43.500018
 20
-31.249941
 42
0.000000
 10
-44.500018
 20
-31.249941
 42
0.000000
 10
-45.500018
 20
-30.749941
 42
0.000000
 10
-46.500018
 20
-31.249941
 42
0.000000
 10
-47.500018
 20
-31.249941
 42
0.000000
 10
-47.500018
 20
-30.249941
 42
0.000000
 10
-47.000018
 20
-29.249941
 42
0.000000
 10
-47.500018
 20
-28.249941
 42
0.000000
 10
-47.500018
 20
-27.249941
 42
0.000000
 10
-48.000018
 20
-26.249941
 42
0.000000
 10
-47.500018
 20
-25.249941
 42
0.000000
 10
-47.500018
 20
-24.249941
 42
0.000000
 10
-47.007096
 20
-23.264098
 42
0.000000
 10
-47.500018
 20
-22.249941
 42
0.000000
 10
-47.500018
 20
-21.249941
 42
0.000000
 10
-48.000018
 20
-20.249941
 42
0.000000
 10
-47.500018
 20
-19.249941
 42
0.000000
 10
-47.500018
 20
-18.249941
 42
0.000000
 10
-47.000018
 20
-17.249941
 42
0.000000
 10
-47.500018
 20
-16.249941
 42
0.000000
 10
-47.500018
 20
-15.249941
 42
0.000000
 10
-48.000018
 20
-14.249941
 42
0.000000
 10
-47.500018
 20
-13.249941
 42
0.000000
 10
-47.500018
 20
-12.249941
 42
0.000000
 10
-47.000018
 20
-11.249941
 42
0.000000
 10
-47.500018
 20
-10.249941
 42
0.000000
 10
-47.500018
 20
-9.249941
 42
0.000000
 10
-48.000018
 20
-8.249941
 42
0.000000
 10
-47.500018
 20
-7.249941
 42
0.000000
 10
-47.500018
 20
-6.249941
 42
0.000000
 10
-47.000018
 20
-5.249941
 42
0.000000
 10
-47.500018
 20
-4.249941
 42
0.000000
 10
-47.500018
 20
-3.249941
 42
0.000000
 10
-48.000018
 20
-2.249941
 42
0.000000
 10
-47.500018
 20
-1.249941
 42
0.000000
 10
-47.500018
 20
-0.257608
 42
0.000000
 10
-47.000018
 20
0.750059
 42
0.000000
 10
-47.500018
 20
1.750059
 42
0.000000
 10
-47.500018
 20
2.750059
 42
0.000000
 10
-48.000018
 20
3.750059
 42
0.000000
 10
-47.500018
 20
4.750059
 42
0.000000
 10
-47.500018
 20
5.750059
 42
0.000000
 10
-47.000018
 20
6.750059
 42
0.000000
 10
-47.500018
 20
7.750059
 42
0.000000
 10
-47.500018
 20
8.750059
 42
0.000000
 10
-48.000018
 20
9.750059
 42
0.000000
 10
-47.500018
 20
10.750059
 42
0.000000
 10
-47.500018
 20
11.750059
 42
0.000000
 10
-47.000018
 20
12.750059
 42
0.000000
 10
-47.500018
 20
13.750059
 42
0.000000
 10
-47.500018
 20
14.750059
 42
0.000000
 10
-48.000018
 20
15.750059
 42
0.000000
 10
-47.500018
 20
16.750059
 42
0.000000
 10
-47.500018
 20
17.750059
 42
0.000000
 10
-47.000018
 20
18.750059
 42
0.000000
 10
-47.500018
 20
19.750059
 42
0.000000
 10
-47.500018
 20
20.750059
 42
0.000000
 10
-48.000018
 20
21.750059
 42
0.000000
 10
-47.500018
 20
22.750059
 42
0.000000
 10
-47.500018
 20
23.750059
 42
0.000000
 10
-47.000018
 20
24.750059
 42
0.000000
 10
-47.500018
 20
25.750059
 42
0.000000
 10
-47.500018
 20
26.750059
 42
0.000000
 10
-48.000018
 20
27.750059
 42
0.000000
 10
-47.500018
 20
28.750059
 42
0.000000
 10
-47.500018
 20
29.750059
 42
0.000000
 10
-47.000018
 20
30.750059
 42
0.000000
 10
-47.500018
 20
31.750059
 42
0.000000
 10
-47.500018
 20
32.750059
 42
0.000000
 10
-48.000018
 20
33.750059
 42
0.000000
 10
-47.500018
 20
34.750059
 42
0.000000
 10
-47.500018
 20
35.750059
 42
0.000000
 10
-47.000018
 20
36.750059
 42
0.000000
 10
-47.500018
 20
37.750059
 42
0.000000
 10
-47.500018
 20
38.750059
 42
0.000000
 10
-48.000018
 20
39.750059
 42
0.000000
 10
-47.500018
 20
40.750059
 42
0.000000
 10
-47.500018
 20
41.750059
 42
0.000000
 10
-47.000018
 20
42.750059
 42
0.000000
 10
-47.500018
 20
43.750059
 42
0.000000
 10
-47.500018
 20
44.750059
 42
0.000000
 10
-48.000018
 20
45.750059
 42
0.000000
 10
-47.500018
 20
46.750059
 42
0.000000
 10
-47.500018
 20
47.750059
 42
0.000000
 10
-47.000018
 20
48.750059
 42
0.000000
 10
-47.500018
 20
49.750059
 42
0.000000
 10
-47.500018
 20
50.750059
 42
0.000000
 10
-48.000018
 20
51.750059
 42
0.000000
 10
-47.500018
 20
52.750059
 42
0.000000
 10
-47.500018
 20
53.750059
 42
0.000000
 10
-47.000018
 20
54.750059
 42
0.000000
 10
-47.500018
 20
55.750059
 42
0.000000
 10
-47.500018
 20
56.750059
 42
0.000000
 10
-48.000018
 20
57.750059
 42
0.000000
 10
-47.500018
 20
58.750059
 42
0.000000
 10
-47.500018
 20
59.750059
 42
0.000000
 10
-47.000018
 20
60.750059
 42
0.000000
 10
-47.500018
 20
61.750059
 42
0.000000
 10
-47.500018
 20
62.750059
 42
0.000000
 10
-48.000018
 20
63.750059
 42
0.000000
 10
-47.500018
 20
64.750059
 42
0.000000
 10
-47.500018
 20
65.750059
 42
0.000000
 10
-47.000018
 20
66.750059
 42
0.000000
 10
-47.500018
 20
67.750059
 42
0.000000
 10
-47.500018
 20
68.750059
 42
0.000000
 10
-48.000018
 20
69.750059
 42
0.000000
 10
-47.500018
 20
70.750059
 42
0.000000
 10
-47.500018
 20
71.750059
 42
0.000000
 10
-47.000018
 20
72.750059
 42
0.000000
 10
-47.500018
 20
73.750059
 42
0.000000
 10
-47.500018
 20
74.750059
 42
0.000000
 10
-48.000018
 20
75.750059
 42
0.000000
 10
-47.500018
 20
76.750059
 42
0.000000
 10
-47.500018
 20
77.750059
 42
0.000000
 10
-47.000018
 20
78.750059
 42
0.000000
 10
-47.500018
 20
79.750059
 42
0.000000
 10
-47.500018
 20
80.750059
 42
0.000000
 10
-48.000018
 20
81.750059
 42
0.000000
 10
-47.500018
 20
82.750059
 42
0.000000
 10
-47.500018
 20
83.750059
 42
0.000000
 10
-47.000018
 20
84.750059
 42
0.000000
 10
-47.500018
 20
85.750059
 42
0.000000
 10
-47.500018
 20
86.750059
 42
0.000000
 10
-48.000018
 20
87.750059
 42
0.000000
 10
-47.500018
 20
88.750059
 42
0.000000
 10
-47.500018
 20
89.750059
 42
0.000000
 10
-47.000018
 20
90.750059
 42
0.000000
 10
-47.500018
 20
91.750059
 42
0.000000
 10
-47.500018
 20
92.750059
 42
0.000000
 10
-48.000018
 20
93.750059
 42
0.000000
 10
-47.500018
 20
94.750059
 42
0.000000
 10
-47.500018
 20
95.750059
 42
0.000000
 10
-47.000018
 20
96.750059
 42
0.000000
 10
-47.500018
 20
97.750059
 42
0.000000
 10
-47.500018
 20
98.750059
 42
0.000000
 10
-48.000018
 20
99.750059
 42
0.000000
 10
-47.500018
 20
100.750059
 42
0.000000
 10
-47.500018
 20
101.750059
 42
0.000000
 10
-47.000018
 20
102.750059
 42
0.000000
 10
-47.500018
 20
103.750059
 42
0.000000
 10
-47.500018
 20
104.750059
 42
0.000000
 10
-48.000018
 20
105.750059
 42
0.000000
 10
-47.500018
 20
106.750059
 42
0.000000
 10
-47.500018
 20
107.750059
 42
0.000000
 10
-47.000018
 20
108.750059
 42
0.000000
 10
-47.500018
 20
109.750059
 42
0.000000
 10
-47.500018
 20
110.750059
 42
0.000000
 10
-48.000018
 20
111.750059
 42
0.000000
 10
-47.500018
 20
112.750059
 42
0.000000
 10
-47.500018
 20
113.750059
 42
0.000000
 10
-47.000018
 20
114.750059
 42
0.000000
 10
-47.500018
 20
115.750059
 42
0.000000
 10
-47.500018
 20
116.750059
 42
0.000000
 10
-48.000018
 20
117.750059
 42
0.000000
 10
-47.500018
 20
118.750059
 42
0.000000
 10
-47.500018
 20
119.750059
 42
0.000000
 10
-47.000018
 20
120.750059
 42
0.000000
 10
-47.500018
 20
121.750059
 42
0.000000
 10
-47.500018
 20
122.750059
 42
0.000000
 10
-48.000018
 20
123.750059
 42
0.000000
 10
-47.500018
 20
124.750059
 42
0.000000
 10
-47.500018
 20
125.750059
 42
0.000000
 10
-47.000018
 20
126.750059
 42
0.000000
 10
-47.500018
 20
127.750059
 42
0.000000
 10
-47.500018
 20
128.750059
 42
0.000000
 10
-48.000018
 20
129.750059
 42
0.000000
 10
-47.500018
 20
130.750059
 42
0.000000
 10
-47.500018
 20
131.750059
 42
0.000000
 10
-47.000018
 20
132.750059
 42
0.000000
 10
-47.500018
 20
133.750059
 42
0.000000
 10
-47.500018
 20
134.750059
 42
0.000000
 10
-48.000018
 20
135.750059
 42
0.000000
 10
-47.500018
 20
136.750059
 42
0.000000
 10
-47.500018
 20
137.742392
 42
0.000000
 10
-47.000018
 20
138.750059
 42
0.000000
 10
-47.500018
 20
139.750059
 42
0.000000
 10
-47.500018
 20
140.750059
 42
0.000000
 10
-48.000018
 20
141.750059
 42
0.000000
 10
-47.500018
 20
142.750059
 42
0.000000
 10
-47.500018
 20
143.750059
 42
0.000000
 10
-47.000018
 20
144.750059
 42
0.000000
 10
-47.500018
 20
145.750059
 42
0.000000
 10
-47.500018
 20
146.750059
 42
0.000000
 10
-48.000018
 20
147.750059
 42
0.000000
 10
-47.500018
 20
148.750059
 42
0.000000
 10
-47.500018
 20
149.750059
 42
0.000000
 10
-47.000018
 20
150.750059
 42
0.000000
 10
-47.500018
 20
151.750059
 42
0.000000
 10
-47.500018
 20
152.750059
 42
0.000000
 10
-48.000018
 20
153.750059
 42
0.000000
 10
-47.500018
 20
154.750059
 42
0.000000
 10
-47.500018
 20
155.750059
 42
0.000000
 10
-47.000018
 20
156.750059
 42
0.000000
 10
-47.500018
 20
157.750059
 42
0.000000
 10
-47.500018
 20
158.750059
 42
0.000000
 10
-48.000018
 20
159.750059
 42
0.000000
 10
-47.500018
 20
160.750059
 42
0.000000
 10
-47.500018
 20
161.750059
 42
0.000000
 10
-47.000018
 20
162.750059
 42
0.000000
 10
-47.500018
 20
163.750059
 42
0.000000
 10
-47.500018
 20
164.750059
 42
0.000000
 10
-48.000018
 20
165.750059
 42
0.000000
 10
-47.500018
 20
166.750059
 42
0.000000
 10
-47.500018
 20
167.750059
 42
0.000000
 10
-47.000018
 20
168.750059
 42
0.000000
 10
-47.495620
 20
169.741263
 42
0.000000
 10
-47.500018
 20
170.750059
 42
0.000000
 10
-48.000018
 20
171.750059
 42
0.000000
 10
-47.500018
 20
172.750059
 42
0.000000
 10
-47.500018
 20
173.750059
 42
0.000000
 10
-47.000018
 20
174.750059
 42
0.000000
 10
-47.500018
 20
175.750059
 42
0.000000
 10
-47.500018
 20
176.750059
 42
0.000000
 10
-48.000018
 20
177.750059
 42
0.000000
 10
-47.500018
 20
178.750059
 42
0.000000
 10
-47.500018
 20
179.750059
 42
0.000000
 10
-47.000018
 20
180.750059
 42
0.000000
 10
-47.500018
 20
181.750059
 42
0.000000
 10
-47.500018
 20
182.750059
 42
0.000000
 10
-48.000018
 20
183.750059
 42
0.000000
 10
-47.500018
 20
184.750059
 42
0.000000
 10
-47.500018
 20
185.750059
 42
0.000000
 10
-47.000018
 20
186.750059
 42
0.000000
 10
-47.500018
 20
187.750059
 42
0.000000
 10
-47.500018
 20
188.750059
 42
0.000000
 10
-48.000018
 20
189.750059
 42
0.000000
 10
-47.500018
 20
190.750059
 42
0.000000
 10
-47.500018
 20
191.750059
 42
0.000000
 10
-47.000018
 20
192.750059
 42
0.000000
 10
-47.500018
 20
193.750059
 42
0.000000
 10
-47.500018
 20
194.750059
 42
0.000000
 10
-48.000018
 20
195.750059
 42
0.000000
 10
-47.500018
 20
196.750059
 42
0.000000
 10
-47.500018
 20
197.750059
 42
0.000000
 10
-47.000018
 20
198.750059
 42
0.000000
 10
-47.500018
 20
199.750059
 42
0.000000
 10
-47.500018
 20
200.750059
 42
0.000000
 10
-48.000018
 20
201.750059
 42
0.000000
 10
-47.500018
 20
202.750059
 42
0.000000
 10
-47.500018
 20
203.750059
 42
0.000000
 10
-47.000018
 20
204.750059
 42
0.000000
 10
-47.500018
 20
205.750059
 42
0.000000
 10
-47.500018
 20
206.750059
 42
0.000000
 10
-48.000018
 20
207.750059
 42
0.000000
 10
-47.500018
 20
208.750059
 42
0.000000
 10
-47.500018
 20
209.750059
 42
0.000000
 10
-47.000018
 20
210.750059
 42
0.000000
 10
-47.500018
 20
211.750059
 42
0.000000
 10
-47.500018
 20
212.750059
 42
0.000000
 10
-48.000018
 20
213.750059
 42
0.000000
 10
-47.500018
 20
214.750059
 42
0.000000
 10
-47.500018
 20
215.750059
 42
0.000000
 10
-47.000018
 20
216.750059
 42
0.000000
 10
-47.500018
 20
217.750059
 42
0.000000
 10
-47.500018
 20
218.750059
 42
0.000000
 10
-48.000018
 20
219.750059
 42
0.000000
 10
-47.500018
 20
220.750059
 42
0.000000
 10
-47.500018
 20
221.750059
 42
0.000000
 10
-47.000018
 20
222.750059
 42
0.000000
 10
-47.500018
 20
223.750059
 42
0.000000
 10
-47.500018
 20
224.750059
 42
0.000000
 10
-48.000018
 20
225.750059
 42
0.000000
 10
-47.500018
 20
226.750059
 42
0.000000
 10
-47.500018
 20
227.750059
 42
0.000000
 10
-47.000018
 20
228.750059
 42
0.000000
 10
-47.500018
 20
229.750059
 42
0.000000
 10
-47.500018
 20
230.750059
 42
0.000000
 10
-48.000018
 20
231.750059
 42
0.000000
 10
-47.500018
 20
232.750059
 42
0.000000
 10
-47.500018
 20
233.750059
 42
0.000000
 10
-47.000018
 20
234.750059
 42
0.000000
 10
-47.500018
 20
235.750059
 42
0.000000
 10
-47.500018
 20
236.750059
 42
0.000000
 10
-48.000018
 20
237.750059
 42
0.000000
 10
-47.500018
 20
238.750059
 42
0.000000
 10
-47.500018
 20
239.750059
 42
0.000000
 10
-47.000018
 20
240.750059
 42
0.000000
 10
-47.500018
 20
241.750059
 42
0.000000
 10
-47.500018
 20
242.750059
 42
0.000000
 10
-48.000018
 20
243.750059
 42
0.000000
 10
-47.500018
 20
244.750059
 42
0.000000
 10
-47.500018
 20
245.742392
 42
0.000000
 10
-47.000018
 20
246.750059
 42
0.000000
 10
-47.500018
 20
247.750059
 42
0.000000
 10
-47.500018
 20
248.750059
 42
0.000000
 10
-48.000018
 20
249.750059
 42
0.000000
 10
-47.500018
 20
250.750059
 42
0.000000
 10
-47.500018
 20
251.750059
 42
0.000000
 10
-47.000018
 20
252.750059
 42
0.000000
 10
-47.500018
 20
253.750059
 42
0.000000
 10
-47.500018
 20
254.750059
 42
0.000000
 10
-48.000018
 20
255.750059
 42
0.000000
 10
-47.500018
 20
256.750059
 42
0.000000
 10
-47.500018
 20
257.750059
 42
0.000000
 10
-47.000018
 20
258.750059
 42
0.000000
 10
-47.500018
 20
259.750059
 42
0.000000
 10
-47.500018
 20
260.750059
 42
0.000000
 10
-48.000018
 20
261.750059
 42
0.000000
 10
-47.500018
 20
262.750059
 42
0.000000
 10
-47.500018
 20
263.750059
 42
0.000000
 10
-47.000018
 20
264.750059
 42
0.000000
 10
-47.500018
 20
265.750059
 42
0.000000
 10
-47.500018
 20
266.750059
 42
0.000000
 10
-48.000018
 20
267.750059
 42
0.000000
 10
-47.500018
 20
268.750059
 42
0.000000
 10
-47.500018
 20
269.750059
 42
0.000000
 10
-47.000018
 20
270.750059
 42
0.000000
 10
-47.500018
 20
271.750059
 42
0.000000
 10
-47.500018
 20
272.750059
 42
0.000000
 10
-48.000018
 20
273.750059
 42
0.000000
 10
-47.500018
 20
274.750059
 42
0.000000
 10
-47.500018
 20
275.750059
 42
0.000000
 10
-47.000018
 20
276.750059
 42
0.000000
 10
-47.500018
 20
277.750059
 42
0.000000
 10
-47.500018
 20
278.750059
 42
0.000000
 10
-48.000018
 20
279.750059
 42
0.000000
 10
-47.500018
 20
280.750059
 42
0.000000
 10
-47.500018
 20
281.742392
 42
0.000000
 10
-47.000018
 20
282.750059
 42
0.000000
 10
-47.500018
 20
283.750059
 42
0.000000
 10
-47.500018
 20
284.750059
 42
0.000000
 10
-48.000018
 20
285.750059
 42
0.000000
 10
-47.500018
 20
286.750059
 42
0.000000
 10
-47.500018
 20
287.750059
 42
0.000000
 10
-47.000018
 20
288.750059
 42
0.000000
 10
-47.500018
 20
289.750059
 42
0.000000
 10
-47.500018
 20
290.750059
 42
0.000000
 10
-48.000018
 20
291.750059
 42
0.000000
 10
-47.500018
 20
292.750059
 42
0.000000
 10
-47.500018
 20
293.742392
 42
0.000000
 10
-47.000018
 20
294.750059
 42
0.000000
 10
-47.500018
 20
295.750059
 42
0.000000
 10
-47.500018
 20
296.250078
 42
0.000000
 10
-57.500018
 20
296.250078
 42
0.000000
 10
-57.500018
 20
-41.249941
 42
0.000000
 97
     0
 75
     0
 76
     1
 98
     0
  0
ENDBLK
  5
20F
100
AcDbEntity
  8
0
100
AcDbBlockEnd
  0
BLOCK
  5
210
100
AcDbEntity
  8
SCHRAFF
100
AcDbBlockBegin
  2
B-3
 70
    66
 10
0.000000
 20
0.000000
 30
0.000000
  0
HATCH
  5
211
100
AcDbEntity
  8
SCHRAFF
 62
     9
440
     0
100
AcDbHatch
 10
0.000000
 20
0.000000
 30
0.000000
210
0.000000
220
0.000000
230
1.000000
  2
SOLID
 70
     1
 71
     1
 91
     1
 92
    18
 72
     1
 73
     0
 93
     7
 10
212.500023
 20
-41.249941
 42
0.000000
 10
-57.500018
 20
-41.249941
 42
0.000000
 10
-57.500018
 20
296.250078
 42
0.000000
 10
-67.500018
 20
296.250078
 42
0.000000
 10
-67.500018
 20
-51.249941
 42
0.000000
 10
212.500023
 20
-51.249941
 42
0.000000
 10
212.500023
 20
-41.249941
 42
0.000000
 97
     0
 75
     0
 76
     1
 98
     0
  0
ENDBLK
  5
212
100
AcDbEntity
  8
0
100
AcDbBlockEnd
  0
BLOCK
  5
213
100
AcDbEntity
  8
SCHRAFF
100
AcDbBlockBegin
  2
B-4
 70
    66
 10
0.000000
 20
0.000000
 30
0.000000
  0
HATCH
  5
214
100
AcDbEntity
  8
SCHRAFF
 62
   254
440
     0
100
AcDbHatch
 10
0.000000
 20
0.000000
 30
0.000000
210
0.000000
220
0.000000
230
1.000000
  2
SOLID
 70
     1
 71
     1
 91
     1
 92
    18
 72
     1
 73
     0
 93
     7
 10
-152.500018
 20
-136.249941
 42
0.000000
 10
212.500023
 20
-136.249941
 42
0.000000
 10
212.500023
 20
-131.249941
 42
0.000000
 10
-147.500018
 20
-131.249941
 42
0.000000
 10
-147.500018
 20
296.250078
 42
0.000000
 10
-152.500018
 20
296.250078
 42
0.000000
 10
-152.500018
 20
-136.249941
 42
0.000000
 97
     0
 75
     0
 76
     1
 98
     0
  0
ENDBLK
  5
215
100
AcDbEntity
  8
0
100
AcDbBlockEnd
  0
BLOCK
  5
216
100
AcDbEntity
  8
SCHRAFF
100
AcDbBlockBegin
  2
B-5
 70
    66
 10
0.000000
 20
0.000000
 30
0.000000
  0
IMAGE
  5
217
100
AcDbEntity
  8
SCHRAFF
100
AcDbRasterImage
 10
140.969928
 20
-349.249941
 30
0.000000
 11
0.204938
 21
-0.000000
 31
0.000000
 12
-0.000000
 22
0.204938
 32
-0.000000
 13
395.000000
 23
405.000000
340
218
 70
     7
280
     0
281
    50
282
    50
283
     0
360
219
 71
     1
 91
     2
 14
-0.500000
 24
-0.500000
 14
394.500000
 24
404.500000
  0
ENDBLK
  5
21A
100
AcDbEntity
  8
0
100
AcDbBlockEnd
  0
BLOCK
  5
21B
100
AcDbEntity
  8
SCHRAFF
100
AcDbBlockBegin
  2
B-6
 70
    66
 10
0.000000
 20
0.000000
 30
0.000000
  0
HATCH
  5
21C
100
AcDbEntity
  8
SCHRAFF
 62
    51
440
     0
100
AcDbHatch
 10
0.000000
 20
0.000000
 30
0.000000
210
0.000000
220
0.000000
230
1.000000
  2
SOLID
 70
     1
 71
     1
 91
     1
 92
    18
 72
     1
 73
     0
 93
     5
 10
127.489689
 20
-71.249941
 42
0.000000
 10
127.489689
 20
-51.249941
 42
0.000000
 10
67.489689
 20
-51.249941
 42
0.000000
 10
67.489689
 20
-71.249941
 42
0.000000
 10
127.489689
 20
-71.249941
 42
0.000000
 97
     0
 75
     0
 76
     1
 98
     0
  0
HATCH
  5
21D
100
AcDbEntity
  8
SCHRAFF
  6
CONTINUOUS
 62
     9
100
AcDbHatch
 10
0.000000
 20
0.000000
 30
0.000000
210
0.000000
220
0.000000
230
1.000000
  2
_U
 70
     0
 71
     1
 91
     1
 92
    18
 72
     1
 73
     0
 93
     5
 10
127.489689
 20
-51.249941
 42
0.000000
 10
67.489689
 20
-51.249941
 42
0.000000
 10
67.489689
 20
-71.249941
 42
0.000000
 10
127.489689
 20
-71.249941
 42
0.000000
 10
127.489689
 20
-51.249941
 42
0.000000
 97
     0
 75
     0
 76
     0
 52
0.000000
 41
1.000000
 77
     0
 78
     1
 53
90.000000
 43
-0.000000
 44
0.000000
 45
-6.875000
 46
0.000000
 79
     0
 98
     0
  0
ENDBLK
  5
21E
100
AcDbEntity
  8
0
100
AcDbBlockEnd
  0
BLOCK
  5
21F
100
AcDbEntity
  8
SCHRAFF
100
AcDbBlockBegin
  2
B-7
 70
    66
 10
0.000000
 20
0.000000
 30
0.000000
  0
HATCH
  5
220
100
AcDbEntity
  8
SCHRAFF
 62
    51
440
     0
100
AcDbHatch
 10
0.000000
 20
0.000000
 30
0.000000
210
0.000000
220
0.000000
230
1.000000
  2
SOLID
 70
     1
 71
     1
 91
     1
 92
    18
 72
     1
 73
     0
 93
     9
 10
212.500023
 20
-51.249941
 42
0.000000
 10
127.489689
 20
-51.249941
 42
0.000000
 10
127.489689
 20
-71.249941
 42
0.000000
 10
67.489689
 20
-71.249941
 42
0.000000
 10
67.489689
 20
-51.249941
 42
0.000000
 10
-147.500018
 20
-51.249941
 42
0.000000
 10
-147.500018
 20
-131.249941
 42
0.000000
 10
212.500023
 20
-131.249941
 42
0.000000
 10
212.500023
 20
-51.249941
 42
0.000000
 97
     0
 75
     0
 76
     1
 98
     0
  0
HATCH
  5
221
100
AcDbEntity
  8
SCHRAFF
  6
CONTINUOUS
 62
     9
100
AcDbHatch
 10
0.000000
 20
0.000000
 30
0.000000
210
0.000000
220
0.000000
230
1.000000
  2
_U
 70
     0
 71
     1
 91
     1
 92
    18
 72
     1
 73
     0
 93
     9
 10
-147.500018
 20
-131.249941
 42
0.000000
 10
211.500023
 20
-131.249941
 42
0.000000
 10
212.500023
 20
-51.249941
 42
0.000000
 10
127.489689
 20
-51.249941
 42
0.000000
 10
127.489689
 20
-71.249941
 42
0.000000
 10
67.489689
 20
-71.249941
 42
0.000000
 10
67.489689
 20
-51.249941
 42
0.000000
 10
-147.500018
 20
-51.249941
 42
0.000000
 10
-147.500018
 20
-131.249941
 42
0.000000
 97
     0
 75
     0
 76
     0
 52
0.000000
 41
1.000000
 77
     0
 78
     1
 53
90.000000
 43
-0.000000
 44
0.000000
 45
-13.750000
 46
0.000000
 79
     0
 98
     0
  0
ENDBLK
  5
222
100
AcDbEntity
  8
0
100
AcDbBlockEnd
  0
BLOCK
  5
223
100
AcDbEntity
  8
SCHRAFF
100
AcDbBlockBegin
  2
B-8
 70
    66
 10
0.000000
 20
0.000000
 30
0.000000
  0
HATCH
  5
224
100
AcDbEntity
  8
SCHRAFF
 62
    51
440
     0
100
AcDbHatch
 10
0.000000
 20
0.000000
 30
0.000000
210
0.000000
220
0.000000
230
1.000000
  2
SOLID
 70
     1
 71
     1
 91
     1
 92
    18
 72
     1
 73
     0
 93
     5
 10
-87.500018
 20
78.750056
 42
0.000000
 10
-67.500018
 20
78.750056
 42
0.000000
 10
-67.500018
 20
138.750056
 42
0.000000
 10
-87.500018
 20
138.750056
 42
0.000000
 10
-87.500018
 20
78.750056
 42
0.000000
 97
     0
 75
     0
 76
     1
 98
     0
  0
ENDBLK
  5
225
100
AcDbEntity
  8
0
100
AcDbBlockEnd
  0
BLOCK
  5
226
100
AcDbEntity
  8
SCHRAFF
100
AcDbBlockBegin
  2
B-9
 70
    66
 10
0.000000
 20
0.000000
 30
0.000000
  0
HATCH
  5
227
100
AcDbEntity
  8
SCHRAFF
 62
    51
440
     0
100
AcDbHatch
 10
0.000000
 20
0.000000
 30
0.000000
210
0.000000
220
0.000000
230
1.000000
  2
SOLID
 70
     1
 71
     1
 91
     1
 92
    18
 72
     1
 73
     0
 93
     9
 10
-147.500018
 20
296.250078
 42
0.000000
 10
-147.500018
 20
-49.249941
 42
0.000000
 10
-67.500018
 20
-49.249941
 42
0.000000
 10
-67.500018
 20
78.750056
 42
0.000000
 10
-87.500018
 20
78.750056
 42
0.000000
 10
-87.500018
 20
138.750056
 42
0.000000
 10
-67.500018
 20
138.750056
 42
0.000000
 10
-67.500018
 20
296.250078
 42
0.000000
 10
-147.500018
 20
296.250078
 42
0.000000
 97
     0
 75
     0
 76
     1
 98
     0
  0
HATCH
  5
228
100
AcDbEntity
  8
SCHRAFF
  6
CONTINUOUS
 62
     9
100
AcDbHatch
 10
0.000000
 20
0.000000
 30
0.000000
210
0.000000
220
0.000000
230
1.000000
  2
_U
 70
     0
 71
     1
 91
     1
 92
    18
 72
     1
 73
     0
 93
     9
 10
-67.500018
 20
-49.249941
 42
0.000000
 10
-67.500018
 20
78.750056
 42
0.000000
 10
-87.500018
 20
78.750056
 42
0.000000
 10
-87.500018
 20
138.750056
 42
0.000000
 10
-67.500018
 20
138.750056
 42
0.000000
 10
-67.500018
 20
296.250078
 42
0.000000
 10
-147.500018
 20
296.250078
 42
0.000000
 10
-147.500018
 20
-49.249941
 42
0.000000
 10
-67.500018
 20
-49.249941
 42
0.000000
 97
     0
 75
     0
 76
     0
 52
0.000000
 41
1.000000
 77
     0
 78
     1
 53
90.000000
 43
-0.000000
 44
0.000000
 45
-13.750000
 46
0.000000
 79
     0
 98
     0
  0
ENDBLK
  5
229
100
AcDbEntity
  8
0
100
AcDbBlockEnd
  0
BLOCK
  5
22A
100
AcDbEntity
  8
Detail
100
AcDbBlockBegin
  2
B-10
 70
    66
 10
0.000000
 20
0.000000
 30
0.000000
  0
LWPOLYLINE
  5
22B
100
AcDbEntity
  8
Detail
  6
CONTINUOUS
 62
     6
100
AcDbPolyline
 90
     3
 10
-152.500018
 20
296.250078
 42
0.000000
 10
-152.500018
 20
-136.249941
 42
0.000000
 10
212.500023
 20
-136.249941
 42
0.000000
  0
LWPOLYLINE
  5
22F
100
AcDbEntity
  8
Detail
  6
CONTINUOUS
 62
     6
100
AcDbPolyline
 90
     3
 10
212.500023
 20
-131.249941
 42
0.000000
 10
-147.500018
 20
-131.249941
 42
0.000000
 10
-147.500018
 20
296.250078
 42
0.000000
  0
ENDBLK
  5
233
100
AcDbEntity
  8
0
100
AcDbBlockEnd
  0
BLOCK
  5
234
100
AcDbEntity
  8
SCHRAFF
100
AcDbBlockBegin
  2
B-11
 70
    66
 10
0.000000
 20
0.000000
 30
0.000000
  0
HATCH
  5
235
100
AcDbEntity
  8
SCHRAFF
  6
CONTINUOUS
 62
     9
100
AcDbHatch
 10
0.000000
 20
0.000000
 30
0.000000
210
0.000000
220
0.000000
230
1.000000
  2
_U
 70
     0
 71
     1
 91
     1
 92
    18
 72
     1
 73
     0
 93
     7
 10
-152.500018
 20
-136.249941
 42
0.000000
 10
-152.500018
 20
296.250078
 42
0.000000
 10
-212.500018
 20
296.250078
 42
0.000000
 10
-212.500018
 20
-196.249941
 42
0.000000
 10
212.500023
 20
-196.249941
 42
0.000000
 10
212.500023
 20
-136.249941
 42
0.000000
 10
-152.500018
 20
-136.249941
 42
0.000000
 97
     0
 75
     0
 76
     0
 52
0.000000
 41
1.000000
 77
     0
 78
     1
 53
45.000000
 43
-0.000000
 44
0.000000
 45
-17.677670
 46
17.677670
 79
     0
 98
     0
  0
ENDBLK
  5
236
100
AcDbEntity
  8
0
100
AcDbBlockEnd
  0
BLOCK
  5
237
100
AcDbEntity
  8
Detail
100
AcDbBlockBegin
  2
B-12
 70
    66
 10
0.000000
 20
0.000000
 30
0.000000
  0
ENDBLK
  5
238
100
AcDbEntity
  8
0
100
AcDbBlockEnd
  0
BLOCK
  5
239
100
AcDbEntity
  8
Detail
100
AcDbBlockBegin
  2
B-13
 70
    66
 10
0.000000
 20
0.000000
 30
0.000000
  0
LWPOLYLINE
  5
23A
100
AcDbEntity
  8
Detail
  6
CONTINUOUS
 62
     2
100
AcDbPolyline
 90
     3
 10
212.500023
 20
-136.249941
 42
0.000000
 10
-152.500018
 20
-136.249941
 42
0.000000
 10
-152.500018
 20
296.250078
 42
0.000000
  0
ENDBLK
  5
23E
100
AcDbEntity
  8
0
100
AcDbBlockEnd
  0
BLOCK
  5
23F
100
AcDbEntity
  8
Detail
100
AcDbBlockBegin
  2
B-14
 70
    66
 10
0.000000
 20
0.000000
 30
0.000000
  0
LWPOLYLINE
  5
240
100
AcDbEntity
  8
Detail
  6
CONTINUOUS
 62
     6
100
AcDbPolyline
 90
   325
 10
-47.500018
 20
292.750059
 42
0.000000
 10
-48.000018
 20
291.750059
 42
0.000000
 10
-47.500018
 20
290.750059
 42
0.000000
 10
-47.500018
 20
289.750059
 42
0.000000
 10
-47.000018
 20
288.750059
 42
0.000000
 10
-47.500018
 20
287.750059
 42
0.000000
 10
-47.500018
 20
286.750059
 42
0.000000
 10
-48.000018
 20
285.750059
 42
0.000000
 10
-47.500018
 20
284.750059
 42
0.000000
 10
-47.500018
 20
283.750059
 42
0.000000
 10
-47.000018
 20
282.750059
 42
0.000000
 10
-47.500018
 20
281.742392
 42
0.000000
 10
-47.500018
 20
280.750059
 42
0.000000
 10
-48.000018
 20
279.750059
 42
0.000000
 10
-47.500018
 20
278.750059
 42
0.000000
 10
-47.500018
 20
277.750059
 42
0.000000
 10
-47.000018
 20
276.750059
 42
0.000000
 10
-47.500018
 20
275.750059
 42
0.000000
 10
-47.500018
 20
274.750059
 42
0.000000
 10
-48.000018
 20
273.750059
 42
0.000000
 10
-47.500018
 20
272.750059
 42
0.000000
 10
-47.500018
 20
271.750059
 42
0.000000
 10
-47.000018
 20
270.750059
 42
0.000000
 10
-47.500018
 20
269.750059
 42
0.000000
 10
-47.500018
 20
268.750059
 42
0.000000
 10
-48.000018
 20
267.750059
 42
0.000000
 10
-47.500018
 20
266.750059
 42
0.000000
 10
-47.500018
 20
265.750059
 42
0.000000
 10
-47.000018
 20
264.750059
 42
0.000000
 10
-47.500018
 20
263.750059
 42
0.000000
 10
-47.500018
 20
262.750059
 42
0.000000
 10
-48.000018
 20
261.750059
 42
0.000000
 10
-47.500018
 20
260.750059
 42
0.000000
 10
-47.500018
 20
259.750059
 42
0.000000
 10
-47.000018
 20
258.750059
 42
0.000000
 10
-47.500018
 20
257.750059
 42
0.000000
 10
-47.500018
 20
256.750059
 42
0.000000
 10
-48.000018
 20
255.750059
 42
0.000000
 10
-47.500018
 20
254.750059
 42
0.000000
 10
-47.500018
 20
253.750059
 42
0.000000
 10
-47.000018
 20
252.750059
 42
0.000000
 10
-47.500018
 20
251.750059
 42
0.000000
 10
-47.500018
 20
250.750059
 42
0.000000
 10
-48.000018
 20
249.750059
 42
0.000000
 10
-47.500018
 20
248.750059
 42
0.000000
 10
-47.500018
 20
247.750059
 42
0.000000
 10
-47.000018
 20
246.750059
 42
0.000000
 10
-47.500018
 20
245.742392
 42
0.000000
 10
-47.500018
 20
244.750059
 42
0.000000
 10
-48.000018
 20
243.750059
 42
0.000000
 10
-47.500018
 20
242.750059
 42
0.000000
 10
-47.500018
 20
241.750059
 42
0.000000
 10
-47.000018
 20
240.750059
 42
0.000000
 10
-47.500018
 20
239.750059
 42
0.000000
 10
-47.500018
 20
238.750059
 42
0.000000
 10
-48.000018
 20
237.750059
 42
0.000000
 10
-47.500018
 20
236.750059
 42
0.000000
 10
-47.500018
 20
235.750059
 42
0.000000
 10
-47.000018
 20
234.750059
 42
0.000000
 10
-47.500018
 20
233.750059
 42
0.000000
 10
-47.500018
 20
232.750059
 42
0.000000
 10
-48.000018
 20
231.750059
 42
0.000000
 10
-47.500018
 20
230.750059
 42
0.000000
 10
-47.500018
 20
229.750059
 42
0.000000
 10
-47.000018
 20
228.750059
 42
0.000000
 10
-47.500018
 20
227.750059
 42
0.000000
 10
-47.500018
 20
226.750059
 42
0.000000
 10
-48.000018
 20
225.750059
 42
0.000000
 10
-47.500018
 20
224.750059
 42
0.000000
 10
-47.500018
 20
223.750059
 42
0.000000
 10
-47.000018
 20
222.750059
 42
0.000000
 10
-47.500018
 20
221.750059
 42
0.000000
 10
-47.500018
 20
220.750059
 42
0.000000
 10
-48.000018
 20
219.750059
 42
0.000000
 10
-47.500018
 20
218.750059
 42
0.000000
 10
-47.500018
 20
217.750059
 42
0.000000
 10
-47.000018
 20
216.750059
 42
0.000000
 10
-47.500018
 20
215.750059
 42
0.000000
 10
-47.500018
 20
214.750059
 42
0.000000
 10
-48.000018
 20
213.750059
 42
0.000000
 10
-47.500018
 20
212.750059
 42
0.000000
 10
-47.500018
 20
211.750059
 42
0.000000
 10
-47.000018
 20
210.750059
 42
0.000000
 10
-47.500018
 20
209.750059
 42
0.000000
 10
-47.500018
 20
208.750059
 42
0.000000
 10
-48.000018
 20
207.750059
 42
0.000000
 10
-47.500018
 20
206.750059
 42
0.000000
 10
-47.500018
 20
205.750059
 42
0.000000
 10
-47.000018
 20
204.750059
 42
0.000000
 10
-47.500018
 20
203.750059
 42
0.000000
 10
-47.500018
 20
202.750059
 42
0.000000
 10
-48.000018
 20
201.750059
 42
0.000000
 10
-47.500018
 20
200.750059
 42
0.000000
 10
-47.500018
 20
199.750059
 42
0.000000
 10
-47.000018
 20
198.750059
 42
0.000000
 10
-47.500018
 20
197.750059
 42
0.000000
 10
-47.500018
 20
196.750059
 42
0.000000
 10
-48.000018
 20
195.750059
 42
0.000000
 10
-47.500018
 20
194.750059
 42
0.000000
 10
-47.500018
 20
193.750059
 42
0.000000
 10
-47.000018
 20
192.750059
 42
0.000000
 10
-47.500018
 20
191.750059
 42
0.000000
 10
-47.500018
 20
190.750059
 42
0.000000
 10
-48.000018
 20
189.750059
 42
0.000000
 10
-47.500018
 20
188.750059
 42
0.000000
 10
-47.500018
 20
187.750059
 42
0.000000
 10
-47.000018
 20
186.750059
 42
0.000000
 10
-47.500018
 20
185.750059
 42
0.000000
 10
-47.500018
 20
184.750059
 42
0.000000
 10
-48.000018
 20
183.750059
 42
0.000000
 10
-47.500018
 20
182.750059
 42
0.000000
 10
-47.500018
 20
181.750059
 42
0.000000
 10
-47.000018
 20
180.750059
 42
0.000000
 10
-47.500018
 20
179.750059
 42
0.000000
 10
-47.500018
 20
178.750059
 42
0.000000
 10
-48.000018
 20
177.750059
 42
0.000000
 10
-47.500018
 20
176.750059
 42
0.000000
 10
-47.500018
 20
175.750059
 42
0.000000
 10
-47.000018
 20
174.750059
 42
0.000000
 10
-47.500018
 20
173.750059
 42
0.000000
 10
-47.500018
 20
172.750059
 42
0.000000
 10
-48.000018
 20
171.750059
 42
0.000000
 10
-47.500018
 20
170.750059
 42
0.000000
 10
-47.495620
 20
169.741263
 42
0.000000
 10
-47.000018
 20
168.750059
 42
0.000000
 10
-47.500018
 20
167.750059
 42
0.000000
 10
-47.500018
 20
166.750059
 42
0.000000
 10
-48.000018
 20
165.750059
 42
0.000000
 10
-47.500018
 20
164.750059
 42
0.000000
 10
-47.500018
 20
163.750059
 42
0.000000
 10
-47.000018
 20
162.750059
 42
0.000000
 10
-47.500018
 20
161.750059
 42
0.000000
 10
-47.500018
 20
160.750059
 42
0.000000
 10
-48.000018
 20
159.750059
 42
0.000000
 10
-47.500018
 20
158.750059
 42
0.000000
 10
-47.500018
 20
157.750059
 42
0.000000
 10
-47.000018
 20
156.750059
 42
0.000000
 10
-47.500018
 20
155.750059
 42
0.000000
 10
-47.500018
 20
154.750059
 42
0.000000
 10
-48.000018
 20
153.750059
 42
0.000000
 10
-47.500018
 20
152.750059
 42
0.000000
 10
-47.500018
 20
151.750059
 42
0.000000
 10
-47.000018
 20
150.750059
 42
0.000000
 10
-47.500018
 20
149.750059
 42
0.000000
 10
-47.500018
 20
148.750059
 42
0.000000
 10
-48.000018
 20
147.750059
 42
0.000000
 10
-47.500018
 20
146.750059
 42
0.000000
 10
-47.500018
 20
145.750059
 42
0.000000
 10
-47.000018
 20
144.750059
 42
0.000000
 10
-47.500018
 20
143.750059
 42
0.000000
 10
-47.500018
 20
142.750059
 42
0.000000
 10
-48.000018
 20
141.750059
 42
0.000000
 10
-47.500018
 20
140.750059
 42
0.000000
 10
-47.500018
 20
139.750059
 42
0.000000
 10
-47.000018
 20
138.750059
 42
0.000000
 10
-47.500018
 20
137.742392
 42
0.000000
 10
-47.500018
 20
136.750059
 42
0.000000
 10
-48.000018
 20
135.750059
 42
0.000000
 10
-47.500018
 20
134.750059
 42
0.000000
 10
-47.500018
 20
133.750059
 42
0.000000
 10
-47.000018
 20
132.750059
 42
0.000000
 10
-47.500018
 20
131.750059
 42
0.000000
 10
-47.500018
 20
130.750059
 42
0.000000
 10
-48.000018
 20
129.750059
 42
0.000000
 10
-47.500018
 20
128.750059
 42
0.000000
 10
-47.500018
 20
127.750059
 42
0.000000
 10
-47.000018
 20
126.750059
 42
0.000000
 10
-47.500018
 20
125.750059
 42
0.000000
 10
-47.500018
 20
124.750059
 42
0.000000
 10
-48.000018
 20
123.750059
 42
0.000000
 10
-47.500018
 20
122.750059
 42
0.000000
 10
-47.500018
 20
121.750059
 42
0.000000
 10
-47.000018
 20
120.750059
 42
0.000000
 10
-47.500018
 20
119.750059
 42
0.000000
 10
-47.500018
 20
118.750059
 42
0.000000
 10
-48.000018
 20
117.750059
 42
0.000000
 10
-47.500018
 20
116.750059
 42
0.000000
 10
-47.500018
 20
115.750059
 42
0.000000
 10
-47.000018
 20
114.750059
 42
0.000000
 10
-47.500018
 20
113.750059
 42
0.000000
 10
-47.500018
 20
112.750059
 42
0.000000
 10
-48.000018
 20
111.750059
 42
0.000000
 10
-47.500018
 20
110.750059
 42
0.000000
 10
-47.500018
 20
109.750059
 42
0.000000
 10
-47.000018
 20
108.750059
 42
0.000000
 10
-47.500018
 20
107.750059
 42
0.000000
 10
-47.500018
 20
106.750059
 42
0.000000
 10
-48.000018
 20
105.750059
 42
0.000000
 10
-47.500018
 20
104.750059
 42
0.000000
 10
-47.500018
 20
103.750059
 42
0.000000
 10
-47.000018
 20
102.750059
 42
0.000000
 10
-47.500018
 20
101.750059
 42
0.000000
 10
-47.500018
 20
100.750059
 42
0.000000
 10
-48.000018
 20
99.750059
 42
0.000000
 10
-47.500018
 20
98.750059
 42
0.000000
 10
-47.500018
 20
97.750059
 42
0.000000
 10
-47.000018
 20
96.750059
 42
0.000000
 10
-47.500018
 20
95.750059
 42
0.000000
 10
-47.500018
 20
94.750059
 42
0.000000
 10
-48.000018
 20
93.750059
 42
0.000000
 10
-47.500018
 20
92.750059
 42
0.000000
 10
-47.500018
 20
91.750059
 42
0.000000
 10
-47.000018
 20
90.750059
 42
0.000000
 10
-47.500018
 20
89.750059
 42
0.000000
 10
-47.500018
 20
88.750059
 42
0.000000
 10
-48.000018
 20
87.750059
 42
0.000000
 10
-47.500018
 20
86.750059
 42
0.000000
 10
-47.500018
 20
85.750059
 42
0.000000
 10
-47.000018
 20
84.750059
 42
0.000000
 10
-47.500018
 20
83.750059
 42
0.000000
 10
-47.500018
 20
82.750059
 42
0.000000
 10
-48.000018
 20
81.750059
 42
0.000000
 10
-47.500018
 20
80.750059
 42
0.000000
 10
-47.500018
 20
79.750059
 42
0.000000
 10
-47.000018
 20
78.750059
 42
0.000000
 10
-47.500018
 20
77.750059
 42
0.000000
 10
-47.500018
 20
76.750059
 42
0.000000
 10
-48.000018
 20
75.750059
 42
0.000000
 10
-47.500018
 20
74.750059
 42
0.000000
 10
-47.500018
 20
73.750059
 42
0.000000
 10
-47.000018
 20
72.750059
 42
0.000000
 10
-47.500018
 20
71.750059
 42
0.000000
 10
-47.500018
 20
70.750059
 42
0.000000
 10
-48.000018
 20
69.750059
 42
0.000000
 10
-47.500018
 20
68.750059
 42
0.000000
 10
-47.500018
 20
67.750059
 42
0.000000
 10
-47.000018
 20
66.750059
 42
0.000000
 10
-47.500018
 20
65.750059
 42
0.000000
 10
-47.500018
 20
64.750059
 42
0.000000
 10
-48.000018
 20
63.750059
 42
0.000000
 10
-47.500018
 20
62.750059
 42
0.000000
 10
-47.500018
 20
61.750059
 42
0.000000
 10
-47.000018
 20
60.750059
 42
0.000000
 10
-47.500018
 20
59.750059
 42
0.000000
 10
-47.500018
 20
58.750059
 42
0.000000
 10
-48.000018
 20
57.750059
 42
0.000000
 10
-47.500018
 20
56.750059
 42
0.000000
 10
-47.500018
 20
55.750059
 42
0.000000
 10
-47.000018
 20
54.750059
 42
0.000000
 10
-47.500018
 20
53.750059
 42
0.000000
 10
-47.500018
 20
52.750059
 42
0.000000
 10
-48.000018
 20
51.750059
 42
0.000000
 10
-47.500018
 20
50.750059
 42
0.000000
 10
-47.500018
 20
49.750059
 42
0.000000
 10
-47.000018
 20
48.750059
 42
0.000000
 10
-47.500018
 20
47.750059
 42
0.000000
 10
-47.500018
 20
46.750059
 42
0.000000
 10
-48.000018
 20
45.750059
 42
0.000000
 10
-47.500018
 20
44.750059
 42
0.000000
 10
-47.500018
 20
43.750059
 42
0.000000
 10
-47.000018
 20
42.750059
 42
0.000000
 10
-47.500018
 20
41.750059
 42
0.000000
 10
-47.500018
 20
40.750059
 42
0.000000
 10
-48.000018
 20
39.750059
 42
0.000000
 10
-47.500018
 20
38.750059
 42
0.000000
 10
-47.500018
 20
37.750059
 42
0.000000
 10
-47.000018
 20
36.750059
 42
0.000000
 10
-47.500018
 20
35.750059
 42
0.000000
 10
-47.500018
 20
34.750059
 42
0.000000
 10
-48.000018
 20
33.750059
 42
0.000000
 10
-47.500018
 20
32.750059
 42
0.000000
 10
-47.500018
 20
31.750059
 42
0.000000
 10
-47.000018
 20
30.750059
 42
0.000000
 10
-47.500018
 20
29.750059
 42
0.000000
 10
-47.500018
 20
28.750059
 42
0.000000
 10
-48.000018
 20
27.750059
 42
0.000000
 10
-47.500018
 20
26.750059
 42
0.000000
 10
-47.500018
 20
25.750059
 42
0.000000
 10
-47.000018
 20
24.750059
 42
0.000000
 10
-47.500018
 20
23.750059
 42
0.000000
 10
-47.500018
 20
22.750059
 42
0.000000
 10
-48.000018
 20
21.750059
 42
0.000000
 10
-47.500018
 20
20.750059
 42
0.000000
 10
-47.500018
 20
19.750059
 42
0.000000
 10
-47.000018
 20
18.750059
 42
0.000000
 10
-47.500018
 20
17.750059
 42
0.000000
 10
-47.500018
 20
16.750059
 42
0.000000
 10
-48.000018
 20
15.750059
 42
0.000000
 10
-47.500018
 20
14.750059
 42
0.000000
 10
-47.500018
 20
13.750059
 42
0.000000
 10
-47.000018
 20
12.750059
 42
0.000000
 10
-47.500018
 20
11.750059
 42
0.000000
 10
-47.500018
 20
10.750059
 42
0.000000
 10
-48.000018
 20
9.750059
 42
0.000000
 10
-47.500018
 20
8.750059
 42
0.000000
 10
-47.500018
 20
7.750059
 42
0.000000
 10
-47.000018
 20
6.750059
 42
0.000000
 10
-47.500018
 20
5.750059
 42
0.000000
 10
-47.500018
 20
4.750059
 42
0.000000
 10
-48.000018
 20
3.750059
 42
0.000000
 10
-47.500018
 20
2.750059
 42
0.000000
 10
-47.500018
 20
1.750059
 42
0.000000
 10
-47.000018
 20
0.750059
 42
0.000000
 10
-47.500018
 20
-0.257608
 42
0.000000
 10
-47.500018
 20
-1.249941
 42
0.000000
 10
-48.000018
 20
-2.249941
 42
0.000000
 10
-47.500018
 20
-3.249941
 42
0.000000
 10
-47.500018
 20
-4.249941
 42
0.000000
 10
-47.000018
 20
-5.249941
 42
0.000000
 10
-47.500018
 20
-6.249941
 42
0.000000
 10
-47.500018
 20
-7.249941
 42
0.000000
 10
-48.000018
 20
-8.249941
 42
0.000000
 10
-47.500018
 20
-9.249941
 42
0.000000
 10
-47.500018
 20
-10.249941
 42
0.000000
 10
-47.000018
 20
-11.249941
 42
0.000000
 10
-47.500018
 20
-12.249941
 42
0.000000
 10
-47.500018
 20
-13.249941
 42
0.000000
 10
-48.000018
 20
-14.249941
 42
0.000000
 10
-47.500018
 20
-15.249941
 42
0.000000
 10
-47.500018
 20
-16.249941
 42
0.000000
 10
-47.000018
 20
-17.249941
 42
0.000000
 10
-47.500018
 20
-18.249941
 42
0.000000
 10
-47.500018
 20
-19.249941
 42
0.000000
 10
-48.000018
 20
-20.249941
 42
0.000000
 10
-47.500018
 20
-21.249941
 42
0.000000
 10
-47.500018
 20
-22.249941
 42
0.000000
 10
-47.007096
 20
-23.264098
 42
0.000000
 10
-47.500018
 20
-24.249941
 42
0.000000
 10
-47.500018
 20
-25.249941
 42
0.000000
 10
-48.000018
 20
-26.249941
 42
0.000000
 10
-47.500018
 20
-27.249941
 42
0.000000
 10
-47.500018
 20
-28.249941
 42
0.000000
 10
-47.000018
 20
-29.249941
 42
0.000000
 10
-47.500018
 20
-30.249941
 42
0.000000
 10
-47.500018
 20
-31.249941
 42
0.000000
  0
ENDBLK
  5
386
100
AcDbEntity
  8
0
100
AcDbBlockEnd
  0
BLOCK
  5
387
100
AcDbEntity
  8
Detail
100
AcDbBlockBegin
  2
B-15
 70
    66
 10
0.000000
 20
0.000000
 30
0.000000
  0
LWPOLYLINE
  5
388
100
AcDbEntity
  8
Detail
  6
CONTINUOUS
 62
     6
100
AcDbPolyline
 90
     3
 10
212.500023
 20
-51.249941
 42
0.000000
 10
-67.500018
 20
-51.249941
 42
0.000000
 10
-67.500018
 20
296.250078
 42
0.000000
  0
LWPOLYLINE
  5
38C
100
AcDbEntity
  8
Detail
  6
HIDDEN
 62
     9
100
AcDbPolyline
 90
     3
 10
-58.500018
 20
296.250078
 42
0.000000
 10
-58.500018
 20
-42.249941
 42
0.000000
 10
212.500023
 20
-42.249941
 42
0.000000
  0
LWPOLYLINE
  5
390
100
AcDbEntity
  8
Detail
  6
CONTINUOUS
 62
     6
100
AcDbPolyline
 90
     3
 10
-57.500018
 20
296.250078
 42
0.000000
 10
-57.500018
 20
-41.249941
 42
0.000000
 10
212.500023
 20
-41.249941
 42
0.000000
  0
ENDBLK
  5
394
100
AcDbEntity
  8
0
100
AcDbBlockEnd
  0
BLOCK
  5
395
100
AcDbEntity
  8
Detail
100
AcDbBlockBegin
  2
B-16
 70
    66
 10
0.000000
 20
0.000000
 30
0.000000
  0
MTEXT
  5
397
100
AcDbEntity
  8
Detail
 62
     7
100
AcDbMText
 10
79.375020
 20
61.250056
 30
0.000000
 40
4.999990
 41
59.482357
 71
     1
 72
     5
  1
WDVS-Dämmstoff
  7
Arial
 50
0.000000
  0
ENDBLK
  5
398
100
AcDbEntity
  8
0
100
AcDbBlockEnd
  0
BLOCK
  5
399
100
AcDbEntity
  8
Detail
100
AcDbBlockBegin
  2
B-17
 70
    66
 10
0.000000
 20
0.000000
 30
0.000000
  0
MTEXT
  5
39A
100
AcDbEntity
  8
Detail
 62
     7
100
AcDbMText
 10
79.375020
 20
31.250066
 30
0.000000
 40
4.999990
 41
132.614682
 71
     7
 72
     5
  1
Armierungsschicht mit Glasfasergewebe,
  7
Arial
 50
0.000000
  0
MTEXT
  5
39B
100
AcDbEntity
  8
Detail
 62
     7
100
AcDbMText
 10
79.375020
 20
23.750081
 30
0.000000
 40
4.999990
 41
68.984834
 71
     7
 72
     5
  1
aufgerauht, ca. 8 mm
  7
Arial
 50
0.000000
  0
ENDBLK
  5
39C
100
AcDbEntity
  8
0
100
AcDbBlockEnd
  0
BLOCK
  5
39D
100
AcDbEntity
  8
Detail
100
AcDbBlockBegin
  2
B-18
 70
    66
 10
0.000000
 20
0.000000
 30
0.000000
  0
MTEXT
  5
39E
100
AcDbEntity
  8
Detail
 62
     7
100
AcDbMText
 10
79.375020
 20
11.250056
 30
0.000000
 40
4.999990
 41
44.257394
 71
     1
 72
     5
  1
Edelkratzputz
  7
Arial
 50
0.000000
  0
ENDBLK
  5
39F
100
AcDbEntity
  8
0
100
AcDbBlockEnd
  0
BLOCK
  5
3A0
100
AcDbEntity
  8
Detail
100
AcDbBlockBegin
  2
B-19
 70
    66
 10
0.000000
 20
0.000000
 30
0.000000
  0
MTEXT
  5
3A1
100
AcDbEntity
  8
Detail
 62
     7
100
AcDbMText
 10
79.375020
 20
106.250065
 30
0.000000
 40
4.999990
 41
82.372302
 71
     7
 72
     5
  1
Verdübelung versenkt mit
  7
Arial
 50
0.000000
  0
MTEXT
  5
3A2
100
AcDbEntity
  8
Detail
 62
     7
100
AcDbMText
 10
79.375020
 20
98.750080
 30
0.000000
 40
4.999990
 41
82.634802
 71
     7
 72
     5
  1
Thermorondell abgedeckt
  7
Arial
 50
0.000000
  0
ENDBLK
  5
3A3
100
AcDbEntity
  8
0
100
AcDbBlockEnd
  0
BLOCK
  5
3A4
100
AcDbEntity
  8
SCHRAFF
100
AcDbBlockBegin
  2
B-20
 70
    66
 10
0.000000
 20
0.000000
 30
0.000000
  0
HATCH
  5
3A5
100
AcDbEntity
  8
SCHRAFF
 62
     7
440
     0
100
AcDbHatch
 10
0.000000
 20
0.000000
 30
0.000000
210
0.000000
220
0.000000
230
1.000000
  2
SOLID
 70
     1
 71
     1
 91
     1
 92
    18
 72
     1
 73
     0
 93
     3
 10
-107.000018
 20
58.750056
 42
1.000000
 10
-108.000018
 20
58.750056
 42
1.000000
 10
-107.000018
 20
58.750056
 42
0.000000
 97
     0
 75
     0
 76
     1
 98
     0
  0
CIRCLE
  5
3A6
100
AcDbEntity
  8
Detail
  6
CONTINUOUS
 62
     7
100
AcDbCircle
 10
-107.500018
 20
58.750056
 40
0.500000
  0
ENDBLK
  5
3A7
100
AcDbEntity
  8
0
100
AcDbBlockEnd
  0
BLOCK
  5
3A8
100
AcDbEntity
  8
SCHRAFF
100
AcDbBlockBegin
  2
B-21
 70
    66
 10
0.000000
 20
0.000000
 30
0.000000
  0
HATCH
  5
3A9
100
AcDbEntity
  8
SCHRAFF
 62
     7
440
     0
100
AcDbHatch
 10
0.000000
 20
0.000000
 30
0.000000
210
0.000000
220
0.000000
230
1.000000
  2
SOLID
 70
     1
 71
     1
 91
     1
 92
    18
 72
     1
 73
     0
 93
     3
 10
-62.000018
 20
33.750057
 42
1.000000
 10
-63.000018
 20
33.750057
 42
1.000000
 10
-62.000018
 20
33.750057
 42
0.000000
 97
     0
 75
     0
 76
     1
 98
     0
  0
CIRCLE
  5
3AA
100
AcDbEntity
  8
Detail
  6
CONTINUOUS
 62
     7
100
AcDbCircle
 10
-62.500018
 20
33.750057
 40
0.500000
  0
ENDBLK
  5
3AB
100
AcDbEntity
  8
0
100
AcDbBlockEnd
  0
BLOCK
  5
3AC
100
AcDbEntity
  8
SCHRAFF
100
AcDbBlockBegin
  2
B-22
 70
    66
 10
0.000000
 20
0.000000
 30
0.000000
  0
HATCH
  5
3AD
100
AcDbEntity
  8
SCHRAFF
 62
     7
440
     0
100
AcDbHatch
 10
0.000000
 20
0.000000
 30
0.000000
210
0.000000
220
0.000000
230
1.000000
  2
SOLID
 70
     1
 71
     1
 91
     1
 92
    18
 72
     1
 73
     0
 93
     3
 10
-52.000018
 20
8.750058
 42
1.000000
 10
-53.000018
 20
8.750058
 42
1.000000
 10
-52.000018
 20
8.750058
 42
0.000000
 97
     0
 75
     0
 76
     1
 98
     0
  0
CIRCLE
  5
3AE
100
AcDbEntity
  8
Detail
  6
CONTINUOUS
 62
     7
100
AcDbCircle
 10
-52.500018
 20
8.750058
 40
0.500000
  0
ENDBLK
  5
3AF
100
AcDbEntity
  8
0
100
AcDbBlockEnd
  0
BLOCK
  5
3B0
100
AcDbEntity
  8
SCHRAFF
100
AcDbBlockBegin
  2
B-23
 70
    66
 10
0.000000
 20
0.000000
 30
0.000000
  0
HATCH
  5
3B1
100
AcDbEntity
  8
SCHRAFF
 62
     7
440
     0
100
AcDbHatch
 10
0.000000
 20
0.000000
 30
0.000000
210
0.000000
220
0.000000
230
1.000000
  2
SOLID
 70
     1
 71
     1
 91
     1
 92
    18
 72
     1
 73
     0
 93
     3
 10
-85.500018
 20
108.750056
 42
1.000000
 10
-86.500018
 20
108.750056
 42
1.000000
 10
-85.500018
 20
108.750056
 42
0.000000
 97
     0
 75
     0
 76
     1
 98
     0
  0
CIRCLE
  5
3B2
100
AcDbEntity
  8
Detail
  6
CONTINUOUS
 62
     7
100
AcDbCircle
 10
-86.000018
 20
108.750056
 40
0.500000
  0
ENDBLK
  5
3B3
100
AcDbEntity
  8
0
100
AcDbBlockEnd
  0
BLOCK
  5
3B4
100
AcDbEntity
  8
Detail
100
AcDbBlockBegin
  2
B-24
 70
    66
 10
0.000000
 20
0.000000
 30
0.000000
  0
MTEXT
  5
3B5
100
AcDbEntity
  8
Detail
 62
     7
100
AcDbMText
 10
79.375020
 20
86.250056
 30
0.000000
 40
4.999990
 41
38.902407
 71
     1
 72
     5
  1
Klebemörtel
  7
Arial
 50
0.000000
  0
ENDBLK
  5
3B6
100
AcDbEntity
  8
0
100
AcDbBlockEnd
  0
BLOCK
  5
3B7
100
AcDbEntity
  8
SCHRAFF
100
AcDbBlockBegin
  2
B-25
 70
    66
 10
0.000000
 20
0.000000
 30
0.000000
  0
HATCH
  5
3B8
100
AcDbEntity
  8
SCHRAFF
 62
     7
440
     0
100
AcDbHatch
 10
0.000000
 20
0.000000
 30
0.000000
210
0.000000
220
0.000000
230
1.000000
  2
SOLID
 70
     1
 71
     1
 91
     1
 92
    18
 72
     1
 73
     0
 93
     3
 10
-149.500018
 20
83.750056
 42
1.000000
 10
-150.500018
 20
83.750056
 42
1.000000
 10
-149.500018
 20
83.750056
 42
0.000000
 97
     0
 75
     0
 76
     1
 98
     0
  0
CIRCLE
  5
3B9
100
AcDbEntity
  8
Detail
  6
CONTINUOUS
 62
     7
100
AcDbCircle
 10
-150.000018
 20
83.750056
 40
0.500000
  0
ENDBLK
  5
3BA
100
AcDbEntity
  8
0
100
AcDbBlockEnd
  0
BLOCK
  5
3BB
100
AcDbEntity
  8
Detail
100
AcDbBlockBegin
  2
B-26
 70
    66
 10
0.000000
 20
0.000000
 30
0.000000
  0
LWPOLYLINE
  5
3BC
100
AcDbEntity
  8
Detail
  6
CONTINUOUS
 62
     9
100
AcDbPolyline
 90
     2
 10
-116.000018
 20
115.750056
 42
0.000000
 10
-116.000018
 20
101.770643
 42
0.000000
  0
LWPOLYLINE
  5
3BF
100
AcDbEntity
  8
Detail
  6
CONTINUOUS
 62
     9
100
AcDbPolyline
 90
    83
 10
-87.500018
 20
78.750056
 42
0.000000
 10
-87.000018
 20
78.750056
 42
0.000000
 10
-86.000018
 20
83.750056
 42
0.000000
 10
-86.000018
 20
133.750056
 42
0.000000
 10
-87.000018
 20
138.750056
 42
0.000000
 10
-87.500018
 20
138.750056
 42
0.000000
 10
-87.500018
 20
121.750056
 42
0.000000
 10
-88.750018
 20
118.000056
 42
0.000000
 10
-92.500018
 20
116.750056
 42
0.000000
 10
-116.000018
 20
115.750056
 42
0.000000
 10
-122.000018
 20
113.250056
 42
0.000000
 10
-164.462215
 20
112.710056
 42
0.000000
 10
-165.828158
 20
112.463046
 42
0.000000
 10
-165.903911
 20
112.710056
 42
0.000000
 10
-168.686215
 20
112.710056
 42
0.000000
 10
-170.052158
 20
112.463046
 42
0.000000
 10
-170.127911
 20
112.710056
 42
0.000000
 10
-172.910215
 20
112.710056
 42
0.000000
 10
-174.276158
 20
112.463046
 42
0.000000
 10
-174.351827
 20
112.705256
 42
0.000000
 10
-177.134215
 20
112.710056
 42
0.000000
 10
-178.500158
 20
112.463046
 42
0.000000
 10
-178.575911
 20
112.710056
 42
0.000000
 10
-181.358215
 20
112.710056
 42
0.000000
 10
-182.724158
 20
112.463046
 42
0.000000
 10
-182.799911
 20
112.710056
 42
0.000000
 10
-185.582215
 20
112.710056
 42
0.000000
 10
-186.948158
 20
112.463046
 42
0.000000
 10
-187.023911
 20
112.710056
 42
0.000000
 10
-189.806215
 20
112.710056
 42
0.000000
 10
-191.172158
 20
112.463046
 42
0.000000
 10
-191.247911
 20
112.710056
 42
0.000000
 10
-194.030215
 20
112.710056
 42
0.000000
 10
-195.396158
 20
112.463046
 42
0.000000
 10
-195.471911
 20
112.710056
 42
0.000000
 10
-198.254215
 20
112.710056
 42
0.000000
 10
-199.458372
 20
112.427623
 42
0.000000
 10
-199.917355
 20
112.590055
 42
0.000000
 10
-200.894215
 20
112.155799
 42
0.000000
 10
-201.134215
 20
111.630056
 42
0.000000
 10
-201.902215
 20
111.630056
 42
0.000000
 10
-203.420108
 20
111.089088
 42
0.000000
 10
-204.253725
 20
109.710056
 42
0.000000
 10
-206.000018
 20
108.750056
 42
0.000000
 10
-204.253725
 20
107.790056
 42
0.000000
 10
-203.420108
 20
106.411024
 42
0.000000
 10
-202.157414
 20
105.883662
 42
0.000000
 10
-201.134215
 20
105.870056
 42
0.000000
 10
-200.894215
 20
105.344312
 42
0.000000
 10
-200.142059
 20
104.910056
 42
0.000000
 10
-199.692646
 20
104.910056
 42
0.000000
 10
-199.458372
 20
105.072488
 42
0.000000
 10
-198.254215
 20
104.790056
 42
0.000000
 10
-195.471911
 20
104.790056
 42
0.000000
 10
-195.396158
 20
105.037065
 42
0.000000
 10
-194.030215
 20
104.790056
 42
0.000000
 10
-191.247911
 20
104.790056
 42
0.000000
 10
-191.172158
 20
105.037065
 42
0.000000
 10
-189.806215
 20
104.790056
 42
0.000000
 10
-187.023911
 20
104.790056
 42
0.000000
 10
-186.948158
 20
105.037065
 42
0.000000
 10
-185.582215
 20
104.790056
 42
0.000000
 10
-182.799911
 20
104.790056
 42
0.000000
 10
-182.724158
 20
105.037065
 42
0.000000
 10
-181.358215
 20
104.790056
 42
0.000000
 10
-178.575911
 20
104.790056
 42
0.000000
 10
-178.500158
 20
105.037065
 42
0.000000
 10
-177.134215
 20
104.790056
 42
0.000000
 10
-174.351827
 20
104.794856
 42
0.000000
 10
-174.276158
 20
105.037065
 42
0.000000
 10
-172.910215
 20
104.790056
 42
0.000000
 10
-170.127911
 20
104.790056
 42
0.000000
 10
-170.052158
 20
105.037065
 42
0.000000
 10
-168.686215
 20
104.790056
 42
0.000000
 10
-165.903911
 20
104.790056
 42
0.000000
 10
-165.828158
 20
105.037065
 42
0.000000
 10
-164.462215
 20
104.790056
 42
0.000000
 10
-122.000018
 20
104.250056
 42
0.000000
 10
-116.000018
 20
101.750056
 42
0.000000
 10
-92.500018
 20
100.750056
 42
0.000000
 10
-88.750018
 20
99.500056
 42
0.000000
 10
-87.500018
 20
95.750056
 42
0.000000
 10
-87.500018
 20
78.750056
 42
0.000000
  0
LWPOLYLINE
  5
413
100
AcDbEntity
  8
Detail
  6
CONTINUOUS
 62
     9
100
AcDbPolyline
 90
   203
 10
-206.000018
 20
108.750056
 42
0.000000
 10
-203.886942
 20
109.625320
 42
0.000000
 10
-203.385367
 20
110.494074
 42
0.000000
 10
-202.996692
 20
109.994074
 42
0.000000
 10
-201.916355
 20
110.441565
 42
0.000000
 10
-201.414780
 20
111.310318
 42
0.000000
 10
-201.026105
 20
110.810318
 42
0.000000
 10
-200.447328
 20
111.050056
 42
0.000000
 10
-199.846289
 20
111.050056
 42
0.000000
 10
-199.557614
 20
111.550056
 42
0.000000
 10
-199.168939
 20
111.050056
 42
0.000000
 10
-198.036289
 20
111.050056
 42
0.000000
 10
-197.747614
 20
111.550056
 42
0.000000
 10
-197.358939
 20
111.050056
 42
0.000000
 10
-196.226289
 20
111.050056
 42
0.000000
 10
-195.937614
 20
111.550056
 42
0.000000
 10
-195.548939
 20
111.050056
 42
0.000000
 10
-194.416289
 20
111.050056
 42
0.000000
 10
-194.127614
 20
111.550056
 42
0.000000
 10
-193.738939
 20
111.050056
 42
0.000000
 10
-192.606289
 20
111.050056
 42
0.000000
 10
-192.317614
 20
111.550056
 42
0.000000
 10
-191.928939
 20
111.050056
 42
0.000000
 10
-190.796289
 20
111.050056
 42
0.000000
 10
-190.507614
 20
111.550056
 42
0.000000
 10
-190.118939
 20
111.050056
 42
0.000000
 10
-188.986289
 20
111.050056
 42
0.000000
 10
-188.697614
 20
111.550056
 42
0.000000
 10
-188.308939
 20
111.050056
 42
0.000000
 10
-187.176289
 20
111.050056
 42
0.000000
 10
-186.887614
 20
111.550056
 42
0.000000
 10
-186.498939
 20
111.050056
 42
0.000000
 10
-185.366289
 20
111.050056
 42
0.000000
 10
-185.077614
 20
111.550056
 42
0.000000
 10
-184.688939
 20
111.050056
 42
0.000000
 10
-183.556289
 20
111.050056
 42
0.000000
 10
-183.267614
 20
111.550056
 42
0.000000
 10
-182.878939
 20
111.050056
 42
0.000000
 10
-181.746289
 20
111.050056
 42
0.000000
 10
-181.457614
 20
111.550056
 42
0.000000
 10
-181.068939
 20
111.050056
 42
0.000000
 10
-179.936289
 20
111.050056
 42
0.000000
 10
-179.647614
 20
111.550056
 42
0.000000
 10
-179.258939
 20
111.050056
 42
0.000000
 10
-178.126289
 20
111.050056
 42
0.000000
 10
-177.837614
 20
111.550056
 42
0.000000
 10
-177.448939
 20
111.050056
 42
0.000000
 10
-176.316289
 20
111.050056
 42
0.000000
 10
-176.027614
 20
111.550056
 42
0.000000
 10
-175.638939
 20
111.050056
 42
0.000000
 10
-174.506289
 20
111.050056
 42
0.000000
 10
-174.217614
 20
111.550056
 42
0.000000
 10
-173.828939
 20
111.050056
 42
0.000000
 10
-172.696289
 20
111.050056
 42
0.000000
 10
-172.407614
 20
111.550056
 42
0.000000
 10
-172.018939
 20
111.050056
 42
0.000000
 10
-170.886289
 20
111.050056
 42
0.000000
 10
-170.597614
 20
111.550056
 42
0.000000
 10
-170.186425
 20
111.050056
 42
0.000000
 10
-169.076289
 20
111.050056
 42
0.000000
 10
-168.787614
 20
111.550056
 42
0.000000
 10
-168.398939
 20
111.050056
 42
0.000000
 10
-167.266289
 20
111.050056
 42
0.000000
 10
-166.977614
 20
111.550056
 42
0.000000
 10
-166.588939
 20
111.050056
 42
0.000000
 10
-165.456289
 20
111.050056
 42
0.000000
 10
-165.167614
 20
111.550056
 42
0.000000
 10
-164.778939
 20
111.050056
 42
0.000000
 10
-163.646289
 20
111.050056
 42
0.000000
 10
-163.357614
 20
111.550056
 42
0.000000
 10
-162.968939
 20
111.050056
 42
0.000000
 10
-161.836289
 20
111.050056
 42
0.000000
 10
-161.547614
 20
111.550056
 42
0.000000
 10
-161.158939
 20
111.050056
 42
0.000000
 10
-160.026289
 20
111.050056
 42
0.000000
 10
-159.737614
 20
111.550056
 42
0.000000
 10
-159.348939
 20
111.050056
 42
0.000000
 10
-158.216289
 20
111.050056
 42
0.000000
 10
-157.927614
 20
111.550056
 42
0.000000
 10
-157.538939
 20
111.050056
 42
0.000000
 10
-156.406289
 20
111.050056
 42
0.000000
 10
-156.117614
 20
111.550056
 42
0.000000
 10
-155.728939
 20
111.050056
 42
0.000000
 10
-154.596289
 20
111.050056
 42
0.000000
 10
-154.307614
 20
111.550056
 42
0.000000
 10
-153.918939
 20
111.050056
 42
0.000000
 10
-152.786289
 20
111.050056
 42
0.000000
 10
-152.497614
 20
111.550056
 42
0.000000
 10
-152.108939
 20
111.050056
 42
0.000000
 10
-150.976289
 20
111.050056
 42
0.000000
 10
-150.687614
 20
111.550056
 42
0.000000
 10
-150.298939
 20
111.050056
 42
0.000000
 10
-149.166289
 20
111.050056
 42
0.000000
 10
-148.877614
 20
111.550056
 42
0.000000
 10
-148.488939
 20
111.050056
 42
0.000000
 10
-147.356289
 20
111.050056
 42
0.000000
 10
-147.067614
 20
111.550056
 42
0.000000
 10
-146.678939
 20
111.050056
 42
0.000000
 10
-146.000018
 20
111.050056
 42
0.000000
 10
-145.826813
 20
111.150056
 42
0.000000
 10
-122.000018
 20
113.250056
 42
0.000000
 10
-122.000018
 20
104.250056
 42
0.000000
 10
-145.826813
 20
106.350056
 42
0.000000
 10
-146.000018
 20
106.450056
 42
0.000000
 10
-146.162614
 20
105.950056
 42
0.000000
 10
-146.451289
 20
106.450056
 42
0.000000
 10
-147.583939
 20
106.450056
 42
0.000000
 10
-147.972614
 20
105.950056
 42
0.000000
 10
-148.261289
 20
106.450056
 42
0.000000
 10
-149.393939
 20
106.450056
 42
0.000000
 10
-149.782614
 20
105.950056
 42
0.000000
 10
-150.071289
 20
106.450056
 42
0.000000
 10
-151.203939
 20
106.450056
 42
0.000000
 10
-151.592614
 20
105.950056
 42
0.000000
 10
-151.881289
 20
106.450056
 42
0.000000
 10
-153.013939
 20
106.450056
 42
0.000000
 10
-153.402614
 20
105.950056
 42
0.000000
 10
-153.691289
 20
106.450056
 42
0.000000
 10
-154.823939
 20
106.450056
 42
0.000000
 10
-155.212614
 20
105.950056
 42
0.000000
 10
-155.501289
 20
106.450056
 42
0.000000
 10
-156.633939
 20
106.450056
 42
0.000000
 10
-157.022614
 20
105.950056
 42
0.000000
 10
-157.311289
 20
106.450056
 42
0.000000
 10
-158.443939
 20
106.450056
 42
0.000000
 10
-158.832614
 20
105.950056
 42
0.000000
 10
-159.121289
 20
106.450056
 42
0.000000
 10
-160.253939
 20
106.450056
 42
0.000000
 10
-160.642614
 20
105.950056
 42
0.000000
 10
-160.931289
 20
106.450056
 42
0.000000
 10
-162.063939
 20
106.450056
 42
0.000000
 10
-162.452614
 20
105.950056
 42
0.000000
 10
-162.741289
 20
106.450056
 42
0.000000
 10
-163.873939
 20
106.450056
 42
0.000000
 10
-164.262614
 20
105.950056
 42
0.000000
 10
-164.551289
 20
106.450056
 42
0.000000
 10
-165.683939
 20
106.450056
 42
0.000000
 10
-166.072614
 20
105.950056
 42
0.000000
 10
-166.361289
 20
106.450056
 42
0.000000
 10
-167.493939
 20
106.450056
 42
0.000000
 10
-167.882614
 20
105.950056
 42
0.000000
 10
-168.171289
 20
106.450056
 42
0.000000
 10
-169.303939
 20
106.450056
 42
0.000000
 10
-169.692614
 20
105.950056
 42
0.000000
 10
-169.981289
 20
106.450056
 42
0.000000
 10
-171.113939
 20
106.450056
 42
0.000000
 10
-171.502614
 20
105.950056
 42
0.000000
 10
-171.791289
 20
106.450056
 42
0.000000
 10
-172.923939
 20
106.450056
 42
0.000000
 10
-173.312614
 20
105.950056
 42
0.000000
 10
-173.601289
 20
106.450056
 42
0.000000
 10
-174.733939
 20
106.450056
 42
0.000000
 10
-175.122614
 20
105.950056
 42
0.000000
 10
-175.411289
 20
106.450056
 42
0.000000
 10
-176.543939
 20
106.450056
 42
0.000000
 10
-176.932614
 20
105.950056
 42
0.000000
 10
-177.221289
 20
106.450056
 42
0.000000
 10
-178.353939
 20
106.450056
 42
0.000000
 10
-178.742614
 20
105.950056
 42
0.000000
 10
-179.031289
 20
106.450056
 42
0.000000
 10
-180.163939
 20
106.450056
 42
0.000000
 10
-180.552614
 20
105.950056
 42
0.000000
 10
-180.841289
 20
106.450056
 42
0.000000
 10
-181.973939
 20
106.450056
 42
0.000000
 10
-182.362614
 20
105.950056
 42
0.000000
 10
-182.651289
 20
106.450056
 42
0.000000
 10
-183.783939
 20
106.450056
 42
0.000000
 10
-184.172614
 20
105.950056
 42
0.000000
 10
-184.461289
 20
106.450056
 42
0.000000
 10
-185.593939
 20
106.450056
 42
0.000000
 10
-185.982614
 20
105.950056
 42
0.000000
 10
-186.271289
 20
106.450056
 42
0.000000
 10
-187.403939
 20
106.450056
 42
0.000000
 10
-187.792614
 20
105.950056
 42
0.000000
 10
-188.081289
 20
106.450056
 42
0.000000
 10
-189.213939
 20
106.450056
 42
0.000000
 10
-189.602614
 20
105.950056
 42
0.000000
 10
-189.891289
 20
106.450056
 42
0.000000
 10
-191.023939
 20
106.450056
 42
0.000000
 10
-191.412614
 20
105.950056
 42
0.000000
 10
-191.701289
 20
106.450056
 42
0.000000
 10
-192.833939
 20
106.450056
 42
0.000000
 10
-193.222614
 20
105.950056
 42
0.000000
 10
-193.511289
 20
106.450056
 42
0.000000
 10
-194.643939
 20
106.450056
 42
0.000000
 10
-195.032614
 20
105.950056
 42
0.000000
 10
-195.321289
 20
106.450056
 42
0.000000
 10
-196.453939
 20
106.450056
 42
0.000000
 10
-196.842614
 20
105.950056
 42
0.000000
 10
-197.131289
 20
106.450056
 42
0.000000
 10
-198.263939
 20
106.450056
 42
0.000000
 10
-198.652614
 20
105.950056
 42
0.000000
 10
-198.941289
 20
106.450056
 42
0.000000
 10
-200.073939
 20
106.450056
 42
0.000000
 10
-200.462614
 20
105.950056
 42
0.000000
 10
-200.846829
 20
106.615535
 42
0.000000
 10
-201.775689
 20
107.000281
 42
0.000000
 10
-202.164364
 20
106.500281
 42
0.000000
 10
-202.665938
 20
107.369035
 42
0.000000
 10
-203.449302
 20
107.693515
 42
0.000000
 10
-203.837977
 20
107.193515
 42
0.000000
 10
-204.339552
 20
108.062268
 42
0.000000
 10
-206.000018
 20
108.750056
 42
0.000000
  0
ENDBLK
  5
4DF
100
AcDbEntity
  8
0
100
AcDbBlockEnd
  0
BLOCK
  5
4E0
100
AcDbEntity
  8
Detail
100
AcDbBlockBegin
  2
B-28
 70
    66
 10
0.000000
 20
0.000000
 30
0.000000
  0
LWPOLYLINE
  5
4E1
100
AcDbEntity
  8
Detail
  6
CONTINUOUS
 62
     3
100
AcDbPolyline
 90
     5
 10
-67.500018
 20
138.750056
 42
0.000000
 10
-87.500018
 20
138.750056
 42
0.000000
 10
-87.500018
 20
78.750056
 42
0.000000
 10
-67.500018
 20
78.750056
 42
0.000000
 10
-67.500018
 20
138.750056
 42
0.000000
  0
ENDBLK
  5
4E7
100
AcDbEntity
  8
0
100
AcDbBlockEnd
  0
BLOCK
  5
4E8
100
AcDbEntity
  8
L
100
AcDbBlockBegin
  2
B-29
 70
    66
 10
0.000000
 20
0.000000
 30
0.000000
  0
LWPOLYLINE
  5
4E9
100
AcDbEntity
  8
L
  6
CONTINUOUS
 62
     3
100
AcDbPolyline
 90
     8
 10
212.500023
 20
-131.249941
 42
0.000000
 10
-147.500018
 20
-131.249941
 42
0.000000
 10
-147.500018
 20
-51.249941
 42
0.000000
 10
67.489689
 20
-51.249941
 42
0.000000
 10
67.489689
 20
-71.249941
 42
0.000000
 10
127.489689
 20
-71.249941
 42
0.000000
 10
127.489689
 20
-51.249941
 42
0.000000
 10
212.500023
 20
-51.249941
 42
0.000000
  0
ENDBLK
  5
4F2
100
AcDbEntity
  8
0
100
AcDbBlockEnd
  0
BLOCK
  5
4F3
100
AcDbEntity
  8
Detail
100
AcDbBlockBegin
  2
B-30
 70
    66
 10
0.000000
 20
0.000000
 30
0.000000
  0
LWPOLYLINE
  5
4F4
100
AcDbEntity
  8
Detail
  6
CONTINUOUS
 62
     7
100
AcDbPolyline
 90
     2
 10
77.500023
 20
58.750059
 42
0.000000
 10
-107.500018
 20
58.750056
 42
0.000000
  0
ENDBLK
  5
4F7
100
AcDbEntity
  8
0
100
AcDbBlockEnd
  0
BLOCK
  5
4F8
100
AcDbEntity
  8
Detail
100
AcDbBlockBegin
  2
B-31
 70
    66
 10
0.000000
 20
0.000000
 30
0.000000
  0
LWPOLYLINE
  5
4F9
100
AcDbEntity
  8
Detail
  6
CONTINUOUS
 62
     7
100
AcDbPolyline
 90
     2
 10
77.500023
 20
33.750059
 42
0.000000
 10
-62.500018
 20
33.750057
 42
0.000000
  0
ENDBLK
  5
4FC
100
AcDbEntity
  8
0
100
AcDbBlockEnd
  0
BLOCK
  5
4FD
100
AcDbEntity
  8
Detail
100
AcDbBlockBegin
  2
B-32
 70
    66
 10
0.000000
 20
0.000000
 30
0.000000
  0
LWPOLYLINE
  5
4FE
100
AcDbEntity
  8
Detail
  6
CONTINUOUS
 62
     7
100
AcDbPolyline
 90
     2
 10
77.500023
 20
8.750059
 42
0.000000
 10
-52.500018
 20
8.750058
 42
0.000000
  0
ENDBLK
  5
501
100
AcDbEntity
  8
0
100
AcDbBlockEnd
  0
BLOCK
  5
502
100
AcDbEntity
  8
Detail
100
AcDbBlockBegin
  2
B-33
 70
    66
 10
0.000000
 20
0.000000
 30
0.000000
  0
LWPOLYLINE
  5
503
100
AcDbEntity
  8
Detail
  6
CONTINUOUS
 62
     7
100
AcDbPolyline
 90
     2
 10
77.500023
 20
108.750059
 42
0.000000
 10
-86.000018
 20
108.750056
 42
0.000000
  0
ENDBLK
  5
506
100
AcDbEntity
  8
0
100
AcDbBlockEnd
  0
BLOCK
  5
507
100
AcDbEntity
  8
Detail
100
AcDbBlockBegin
  2
B-34
 70
    66
 10
0.000000
 20
0.000000
 30
0.000000
  0
LWPOLYLINE
  5
508
100
AcDbEntity
  8
Detail
  6
CONTINUOUS
 62
     7
100
AcDbPolyline
 90
     2
 10
77.500023
 20
83.750059
 42
0.000000
 10
-150.000018
 20
83.750056
 42
0.000000
  0
ENDBLK
  5
50B
100
AcDbEntity
  8
0
100
AcDbBlockEnd
  0
BLOCK
  5
50C
100
AcDbEntity
  8
Detail
100
AcDbBlockBegin
  2
B-35
 70
    66
 10
0.000000
 20
0.000000
 30
0.000000
  0
MTEXT
  5
50D
100
AcDbEntity
  8
Detail
 62
     7
100
AcDbMText
 10
-211.093768
 20
-225.937528
 30
0.000000
 40
3.749990
 41
353.428963
 71
     7
 72
     5
  1
Capatect Details sind allgemeine planerische Vorschläge. Sie stellen schematisch die Ausführung dar. Ihnen zugrunde liegen die entsprechenden 
  7
Arial
 50
0.000000
  0
MTEXT
  5
50E
100
AcDbEntity
  8
Detail
 62
     7
100
AcDbMText
 10
-211.093768
 20
-231.562513
 30
0.000000
 40
3.749990
 41
392.764473
 71
     7
 72
     5
  1
Produktdatenblätter sowie Systemzulassungen. Die Möglichkeit der Detailanwendung sowie deren Vollständigkeit sind im speziellen Anwendungsfall vom Planer / 
  7
Arial
 50
0.000000
  0
MTEXT
  5
50F
100
AcDbEntity
  8
Detail
 62
     7
100
AcDbMText
 10
-211.093768
 20
-237.187498
 30
0.000000
 40
3.749990
 41
107.887184
 71
     7
 72
     5
  1
Unternehmer eigenverantwortlich zu prüfen. 
  7
Arial
 50
0.000000
  0
ENDBLK
  5
510
100
AcDbEntity
  8
0
100
AcDbBlockEnd
  0
BLOCK
  5
511
100
AcDbEntity
  8
Detail
100
AcDbBlockBegin
  2
B-36
 70
    66
 10
0.000000
 20
0.000000
 30
0.000000
  0
LWPOLYLINE
  5
512
100
AcDbEntity
  8
Detail
  6
CONTINUOUS
 62
     6
100
AcDbPolyline
 90
     2
 10
237.500023
 20
-246.249941
 42
0.000000
 10
-237.500018
 20
-246.249941
 42
0.000000
  0
ENDBLK
  5
515
100
AcDbEntity
  8
0
100
AcDbBlockEnd
  0
BLOCK
  5
516
100
AcDbEntity
  8
Detail
100
AcDbBlockBegin
  2
B-37
 70
    66
 10
0.000000
 20
0.000000
 30
0.000000
  0
MTEXT
  5
517
100
AcDbEntity
  8
Detail
 62
     7
100
AcDbMText
 10
-210.625002
 20
-252.656291
 30
0.000000
 40
5.625000
 41
139.564688
 71
     1
 72
     5
  1
System:	WDVS mit Edelkratzputz 
  7
Arial
 50
0.000000
  0
ENDBLK
  5
518
100
AcDbEntity
  8
0
100
AcDbBlockEnd
  0
BLOCK
  5
519
100
AcDbEntity
  8
Detail
100
AcDbBlockBegin
  2
B-38
 70
    66
 10
0.000000
 20
0.000000
 30
0.000000
  0
MTEXT
  5
51A
100
AcDbEntity
  8
Detail
 62
     7
100
AcDbMText
 10
-210.625002
 20
-295.781291
 30
0.000000
 40
5.625000
 41
61.484063
 71
     7
 72
     5
  1
Detail:	Innenecke
  7
Arial
 50
0.000000
  0
MTEXT
  5
51B
100
AcDbEntity
  8
Detail
 62
     7
100
AcDbMText
 10
-210.625002
 20
-304.218791
 30
0.000000
 40
5.625000
 41
89.775000
 71
     7
 72
     5
  1
	(Horizontalschnitt)
  7
Arial
 50
0.000000
  0
ENDBLK
  5
51C
100
AcDbEntity
  8
0
100
AcDbBlockEnd
  0
BLOCK
  5
51D
100
AcDbEntity
  8
Detail
100
AcDbBlockBegin
  2
B-39
 70
    66
 10
0.000000
 20
0.000000
 30
0.000000
  0
MTEXT
  5
51E
100
AcDbEntity
  8
Detail
 62
     7
100
AcDbMText
 10
6.314834
 20
-252.500041
 30
0.000000
 40
5.000000
 41
93.712500
 71
     1
 72
     5
  1
Plannummer:	130-0410
  7
Arial
 50
0.000000
  0
ENDBLK
  5
51F
100
AcDbEntity
  8
0
100
AcDbBlockEnd
  0
BLOCK
  5
520
100
AcDbEntity
  8
Detail
100
AcDbBlockBegin
  2
B-40
 70
    66
 10
0.000000
 20
0.000000
 30
0.000000
  0
MTEXT
  5
521
100
AcDbEntity
  8
Detail
 62
     7
100
AcDbMText
 10
6.314834
 20
-277.500041
 30
0.000000
 40
5.000000
 41
91.035000
 71
     1
 72
     5
  1
Massstab:		ca. 1:2,5
  7
Arial
 50
0.000000
  0
ENDBLK
  5
522
100
AcDbEntity
  8
0
100
AcDbBlockEnd
  0
BLOCK
  5
523
100
AcDbEntity
  8
Detail
100
AcDbBlockBegin
  2
B-41
 70
    66
 10
0.000000
 20
0.000000
 30
0.000000
  0
MTEXT
  5
524
100
AcDbEntity
  8
Detail
 62
     7
100
AcDbMText
 10
6.314834
 20
-302.500041
 30
0.000000
 40
5.000000
 41
99.435000
 71
     1
 72
     5
  1
Aktualisierung:	14.07.2016
  7
Arial
 50
0.000000
  0
ENDBLK
  5
525
100
AcDbEntity
  8
0
100
AcDbBlockEnd
  0
BLOCK
  5
526
100
AcDbEntity
  8
Detail
100
AcDbBlockBegin
  2
B-42
 70
    66
 10
0.000000
 20
0.000000
 30
0.000000
  0
LWPOLYLINE
  5
527
100
AcDbEntity
  8
Detail
  6
CONTINUOUS
 62
     6
100
AcDbPolyline
 90
     2
 10
-20.560166
 20
-321.249941
 42
0.000000
 10
-20.560166
 20
-246.249941
 42
0.000000
  0
LWPOLYLINE
  5
52A
100
AcDbEntity
  8
Detail
  6
CONTINUOUS
 62
     6
100
AcDbPolyline
 90
     2
 10
-237.500018
 20
-321.249941
 42
0.000000
 10
120.969928
 20
-321.249941
 42
0.000000
  0
LWPOLYLINE
  5
52D
100
AcDbEntity
  8
Detail
  6
CONTINUOUS
 62
     6
100
AcDbPolyline
 90
     2
 10
-20.560166
 20
-271.249941
 42
0.000000
 10
120.969928
 20
-271.249941
 42
0.000000
  0
LWPOLYLINE
  5
530
100
AcDbEntity
  8
Detail
  6
CONTINUOUS
 62
     6
100
AcDbPolyline
 90
     2
 10
-20.560166
 20
-296.249941
 42
0.000000
 10
120.969928
 20
-296.249941
 42
0.000000
  0
ENDBLK
  5
533
100
AcDbEntity
  8
0
100
AcDbBlockEnd
  0
BLOCK
  5
534
100
AcDbEntity
  8
Detail
100
AcDbBlockBegin
  2
B-43
 70
    66
 10
0.000000
 20
0.000000
 30
0.000000
  0
LWPOLYLINE
  5
535
100
AcDbEntity
  8
Detail
  6
CONTINUOUS
 62
     6
100
AcDbPolyline
 90
     2
 10
-20.560166
 20
-283.749941
 42
0.000000
 10
-237.500018
 20
-283.749941
 42
0.000000
  0
ENDBLK
  5
538
100
AcDbEntity
  8
0
100
AcDbBlockEnd
  0
BLOCK
  5
539
100
AcDbEntity
  8
Detail
100
AcDbBlockBegin
  2
B-44
 70
    66
 10
0.000000
 20
0.000000
 30
0.000000
  0
LWPOLYLINE
  5
53A
100
AcDbEntity
  8
Detail
  6
CONTINUOUS
 62
     6
100
AcDbPolyline
 90
     2
 10
120.969928
 20
-346.249941
 42
0.000000
 10
120.969928
 20
-246.249941
 42
0.000000
  0
ENDBLK
  5
53D
100
AcDbEntity
  8
0
100
AcDbBlockEnd
  0
BLOCK
  5
53E
100
AcDbEntity
  8
Detail
100
AcDbBlockBegin
  2
B-45
 70
    66
 10
0.000000
 20
0.000000
 30
0.000000
  0
LWPOLYLINE
  5
53F
100
AcDbEntity
  8
Detail
  6
CONTINUOUS
 62
     6
100
AcDbPolyline
 90
     5
 10
-237.500018
 20
-346.249941
 42
0.000000
 10
237.500023
 20
-346.249941
 42
0.000000
 10
237.500023
 20
346.250078
 42
0.000000
 10
-237.500018
 20
346.250078
 42
0.000000
 10
-237.500018
 20
-346.249941
 42
0.000000
  0
ENDBLK
  5
545
100
AcDbEntity
  8
0
100
AcDbBlockEnd
  0
BLOCK
  5
546
100
AcDbEntity
  8
SCHRAFF
100
AcDbBlockBegin
  2
B-46
 70
    66
 10
0.000000
 20
0.000000
 30
0.000000
  0
HATCH
  5
547
100
AcDbEntity
  8
SCHRAFF
  6
CONTINUOUS
 62
     9
100
AcDbHatch
 10
0.000000
 20
0.000000
 30
0.000000
210
0.000000
220
0.000000
230
1.000000
  2
_U
 70
     0
 71
     1
 91
     1
 92
    18
 72
     1
 73
     0
 93
     5
 10
-67.500018
 20
78.750056
 42
0.000000
 10
-67.500018
 20
138.750056
 42
0.000000
 10
-87.500018
 20
138.750056
 42
0.000000
 10
-87.500018
 20
78.750056
 42
0.000000
 10
-67.500018
 20
78.750056
 42
0.000000
 97
     0
 75
     0
 76
     0
 52
0.000000
 41
1.000000
 77
     0
 78
     1
 53
90.000000
 43
-0.000000
 44
0.000000
 45
-6.875000
 46
0.000000
 79
     0
 98
     0
  0
ENDBLK
  5
548
100
AcDbEntity
  8
0
100
AcDbBlockEnd
  0
BLOCK
  5
549
100
AcDbEntity
  8
Detail
100
AcDbBlockBegin
  2
B-47
 70
    66
 10
0.000000
 20
0.000000
 30
0.000000
  0
MTEXT
  5
54A
100
AcDbEntity
  8
Detail
 62
     7
100
AcDbMText
 10
39.374975
 20
-332.500019
 30
0.000000
 40
4.999982
 41
51.922313
 71
     7
 72
     5
  1
info@daw.swiss
  7
Arial
 50
0.000000
  0
MTEXT
  5
54B
100
AcDbEntity
  8
Detail
 62
     7
100
AcDbMText
 10
39.374975
 20
-339.999993
 30
0.000000
 40
4.999982
 41
54.599803
 71
     7
 72
     5
  1
www.capatect.ch
  7
Arial
 50
0.000000
  0
ENDBLK
  5
54C
100
AcDbEntity
  8
0
100
AcDbBlockEnd
  0
BLOCK
  5
54D
100
AcDbEntity
  8
Detail
100
AcDbBlockBegin
  2
B-48
 70
    66
 10
0.000000
 20
0.000000
 30
0.000000
  0
MTEXT
  5
54E
100
AcDbEntity
  8
Detail
 62
     7
100
AcDbMText
 10
-85.625025
 20
-332.500016
 30
0.000000
 40
4.999980
 41
72.134711
 71
     7
 72
     5
  1
Telefon 043 399 42 22
  7
Arial
 50
0.000000
  0
MTEXT
  5
54F
100
AcDbEntity
  8
Detail
 62
     7
100
AcDbMText
 10
-85.625025
 20
-339.999986
 30
0.000000
 40
4.999980
 41
71.767213
 71
     7
 72
     5
  1
Telefax 043 399 42 23
  7
Arial
 50
0.000000
  0
ENDBLK
  5
550
100
AcDbEntity
  8
0
100
AcDbBlockEnd
  0
BLOCK
  5
551
100
AcDbEntity
  8
Detail
100
AcDbBlockBegin
  2
B-49
 70
    66
 10
0.000000
 20
0.000000
 30
0.000000
  0
MTEXT
  5
552
100
AcDbEntity
  8
Detail
 62
     7
100
AcDbMText
 10
-210.625009
 20
-332.500016
 30
0.000000
 40
4.999980
 41
58.117268
 71
     7
 72
     5
  1
DAW Schweiz AG
  7
Arial
 50
0.000000
  0
MTEXT
  5
553
100
AcDbEntity
  8
Detail
 62
     7
100
AcDbMText
 10
-210.625009
 20
-339.999986
 30
0.000000
 40
4.999980
 41
108.149567
 71
     7
 72
     5
  1
Gewerbestrasse 6, 8606 Nänikon
  7
Arial
 50
0.000000
  0
ENDBLK
  5
554
100
AcDbEntity
  8
0
100
AcDbBlockEnd
  0
BLOCK
  5
555
100
AcDbEntity
  8
Detail
100
AcDbBlockBegin
  2
B-50
 70
    66
 10
0.000000
 20
0.000000
 30
0.000000
  0
LWPOLYLINE
  5
556
100
AcDbEntity
  8
Detail
  6
CONTINUOUS
 62
     9
100
AcDbPolyline
 90
     2
 10
90.489689
 20
-99.749941
 42
0.000000
 10
104.469102
 20
-99.749941
 42
0.000000
  0
LWPOLYLINE
  5
559
100
AcDbEntity
  8
Detail
  6
CONTINUOUS
 62
     9
100
AcDbPolyline
 90
    83
 10
127.489689
 20
-71.249941
 42
0.000000
 10
127.489689
 20
-70.749941
 42
0.000000
 10
122.489689
 20
-69.749941
 42
0.000000
 10
72.489689
 20
-69.749941
 42
0.000000
 10
67.489689
 20
-70.749941
 42
0.000000
 10
67.489689
 20
-71.249941
 42
0.000000
 10
84.489689
 20
-71.249941
 42
0.000000
 10
88.239689
 20
-72.499941
 42
0.000000
 10
89.489689
 20
-76.249941
 42
0.000000
 10
90.489689
 20
-99.749941
 42
0.000000
 10
92.989689
 20
-105.749941
 42
0.000000
 10
93.529689
 20
-148.212138
 42
0.000000
 10
93.776698
 20
-149.578081
 42
0.000000
 10
93.529689
 20
-149.653834
 42
0.000000
 10
93.529689
 20
-152.436138
 42
0.000000
 10
93.776698
 20
-153.802081
 42
0.000000
 10
93.529689
 20
-153.877834
 42
0.000000
 10
93.529689
 20
-156.660138
 42
0.000000
 10
93.776698
 20
-158.026081
 42
0.000000
 10
93.534489
 20
-158.101750
 42
0.000000
 10
93.529689
 20
-160.884138
 42
0.000000
 10
93.776698
 20
-162.250081
 42
0.000000
 10
93.529689
 20
-162.325834
 42
0.000000
 10
93.529689
 20
-165.108138
 42
0.000000
 10
93.776698
 20
-166.474081
 42
0.000000
 10
93.529689
 20
-166.549834
 42
0.000000
 10
93.529689
 20
-169.332138
 42
0.000000
 10
93.776698
 20
-170.698081
 42
0.000000
 10
93.529689
 20
-170.773834
 42
0.000000
 10
93.529689
 20
-173.556138
 42
0.000000
 10
93.776698
 20
-174.922081
 42
0.000000
 10
93.529689
 20
-174.997834
 42
0.000000
 10
93.529689
 20
-177.780138
 42
0.000000
 10
93.776698
 20
-179.146081
 42
0.000000
 10
93.529689
 20
-179.221834
 42
0.000000
 10
93.529689
 20
-182.004138
 42
0.000000
 10
93.812121
 20
-183.208294
 42
0.000000
 10
93.649690
 20
-183.667277
 42
0.000000
 10
94.083945
 20
-184.644138
 42
0.000000
 10
94.609689
 20
-184.884138
 42
0.000000
 10
94.609689
 20
-185.652138
 42
0.000000
 10
95.150657
 20
-187.170031
 42
0.000000
 10
96.529689
 20
-188.003648
 42
0.000000
 10
97.489689
 20
-189.749941
 42
0.000000
 10
98.449689
 20
-188.003648
 42
0.000000
 10
99.828721
 20
-187.170031
 42
0.000000
 10
100.356082
 20
-185.907337
 42
0.000000
 10
100.369689
 20
-184.884138
 42
0.000000
 10
100.895433
 20
-184.644138
 42
0.000000
 10
101.329689
 20
-183.891982
 42
0.000000
 10
101.329689
 20
-183.442569
 42
0.000000
 10
101.167257
 20
-183.208294
 42
0.000000
 10
101.449689
 20
-182.004138
 42
0.000000
 10
101.449689
 20
-179.221834
 42
0.000000
 10
101.202680
 20
-179.146081
 42
0.000000
 10
101.449689
 20
-177.780138
 42
0.000000
 10
101.449689
 20
-174.997834
 42
0.000000
 10
101.202680
 20
-174.922081
 42
0.000000
 10
101.449689
 20
-173.556138
 42
0.000000
 10
101.449689
 20
-170.773834
 42
0.000000
 10
101.202680
 20
-170.698081
 42
0.000000
 10
101.449689
 20
-169.332138
 42
0.000000
 10
101.449689
 20
-166.549834
 42
0.000000
 10
101.202680
 20
-166.474081
 42
0.000000
 10
101.449689
 20
-165.108138
 42
0.000000
 10
101.449689
 20
-162.325834
 42
0.000000
 10
101.202680
 20
-162.250081
 42
0.000000
 10
101.449689
 20
-160.884138
 42
0.000000
 10
101.444889
 20
-158.101750
 42
0.000000
 10
101.202680
 20
-158.026081
 42
0.000000
 10
101.449689
 20
-156.660138
 42
0.000000
 10
101.449689
 20
-153.877834
 42
0.000000
 10
101.202680
 20
-153.802081
 42
0.000000
 10
101.449689
 20
-152.436138
 42
0.000000
 10
101.449689
 20
-149.653834
 42
0.000000
 10
101.202680
 20
-149.578081
 42
0.000000
 10
101.449689
 20
-148.212138
 42
0.000000
 10
101.989689
 20
-105.749941
 42
0.000000
 10
104.489689
 20
-99.749941
 42
0.000000
 10
105.489689
 20
-76.249941
 42
0.000000
 10
106.739689
 20
-72.499941
 42
0.000000
 10
110.489689
 20
-71.249941
 42
0.000000
 10
127.489689
 20
-71.249941
 42
0.000000
  0
LWPOLYLINE
  5
5AD
100
AcDbEntity
  8
Detail
  6
CONTINUOUS
 62
     9
100
AcDbPolyline
 90
   203
 10
97.489689
 20
-189.749941
 42
0.000000
 10
96.614424
 20
-187.636865
 42
0.000000
 10
95.745670
 20
-187.135290
 42
0.000000
 10
96.245670
 20
-186.746615
 42
0.000000
 10
95.798180
 20
-185.666278
 42
0.000000
 10
94.929426
 20
-185.164703
 42
0.000000
 10
95.429426
 20
-184.776028
 42
0.000000
 10
95.189689
 20
-184.197251
 42
0.000000
 10
95.189689
 20
-183.596212
 42
0.000000
 10
94.689689
 20
-183.307537
 42
0.000000
 10
95.189689
 20
-182.918862
 42
0.000000
 10
95.189689
 20
-181.786212
 42
0.000000
 10
94.689689
 20
-181.497537
 42
0.000000
 10
95.189689
 20
-181.108862
 42
0.000000
 10
95.189689
 20
-179.976212
 42
0.000000
 10
94.689689
 20
-179.687537
 42
0.000000
 10
95.189689
 20
-179.298862
 42
0.000000
 10
95.189689
 20
-178.166212
 42
0.000000
 10
94.689689
 20
-177.877537
 42
0.000000
 10
95.189689
 20
-177.488862
 42
0.000000
 10
95.189689
 20
-176.356212
 42
0.000000
 10
94.689689
 20
-176.067537
 42
0.000000
 10
95.189689
 20
-175.678862
 42
0.000000
 10
95.189689
 20
-174.546212
 42
0.000000
 10
94.689689
 20
-174.257537
 42
0.000000
 10
95.189689
 20
-173.868862
 42
0.000000
 10
95.189689
 20
-172.736212
 42
0.000000
 10
94.689689
 20
-172.447537
 42
0.000000
 10
95.189689
 20
-172.058862
 42
0.000000
 10
95.189689
 20
-170.926212
 42
0.000000
 10
94.689689
 20
-170.637537
 42
0.000000
 10
95.189689
 20
-170.248862
 42
0.000000
 10
95.189689
 20
-169.116212
 42
0.000000
 10
94.689689
 20
-168.827537
 42
0.000000
 10
95.189689
 20
-168.438862
 42
0.000000
 10
95.189689
 20
-167.306212
 42
0.000000
 10
94.689689
 20
-167.017537
 42
0.000000
 10
95.189689
 20
-166.628862
 42
0.000000
 10
95.189689
 20
-165.496212
 42
0.000000
 10
94.689689
 20
-165.207537
 42
0.000000
 10
95.189689
 20
-164.818862
 42
0.000000
 10
95.189689
 20
-163.686212
 42
0.000000
 10
94.689689
 20
-163.397537
 42
0.000000
 10
95.189689
 20
-163.008862
 42
0.000000
 10
95.189689
 20
-161.876212
 42
0.000000
 10
94.689689
 20
-161.587537
 42
0.000000
 10
95.189689
 20
-161.198862
 42
0.000000
 10
95.189689
 20
-160.066212
 42
0.000000
 10
94.689689
 20
-159.777537
 42
0.000000
 10
95.189689
 20
-159.388862
 42
0.000000
 10
95.189689
 20
-158.256212
 42
0.000000
 10
94.689689
 20
-157.967537
 42
0.000000
 10
95.189689
 20
-157.578862
 42
0.000000
 10
95.189689
 20
-156.446212
 42
0.000000
 10
94.689689
 20
-156.157537
 42
0.000000
 10
95.189689
 20
-155.768862
 42
0.000000
 10
95.189689
 20
-154.636212
 42
0.000000
 10
94.689689
 20
-154.347537
 42
0.000000
 10
95.189689
 20
-153.936348
 42
0.000000
 10
95.189689
 20
-152.826212
 42
0.000000
 10
94.689689
 20
-152.537537
 42
0.000000
 10
95.189689
 20
-152.148862
 42
0.000000
 10
95.189689
 20
-151.016212
 42
0.000000
 10
94.689689
 20
-150.727537
 42
0.000000
 10
95.189689
 20
-150.338862
 42
0.000000
 10
95.189689
 20
-149.206212
 42
0.000000
 10
94.689689
 20
-148.917537
 42
0.000000
 10
95.189689
 20
-148.528862
 42
0.000000
 10
95.189689
 20
-147.396212
 42
0.000000
 10
94.689689
 20
-147.107537
 42
0.000000
 10
95.189689
 20
-146.718862
 42
0.000000
 10
95.189689
 20
-145.586212
 42
0.000000
 10
94.689689
 20
-145.297537
 42
0.000000
 10
95.189689
 20
-144.908862
 42
0.000000
 10
95.189689
 20
-143.776212
 42
0.000000
 10
94.689689
 20
-143.487537
 42
0.000000
 10
95.189689
 20
-143.098862
 42
0.000000
 10
95.189689
 20
-141.966212
 42
0.000000
 10
94.689689
 20
-141.677537
 42
0.000000
 10
95.189689
 20
-141.288862
 42
0.000000
 10
95.189689
 20
-140.156212
 42
0.000000
 10
94.689689
 20
-139.867537
 42
0.000000
 10
95.189689
 20
-139.478862
 42
0.000000
 10
95.189689
 20
-138.346212
 42
0.000000
 10
94.689689
 20
-138.057537
 42
0.000000
 10
95.189689
 20
-137.668862
 42
0.000000
 10
95.189689
 20
-136.536212
 42
0.000000
 10
94.689689
 20
-136.247537
 42
0.000000
 10
95.189689
 20
-135.858862
 42
0.000000
 10
95.189689
 20
-134.726212
 42
0.000000
 10
94.689689
 20
-134.437537
 42
0.000000
 10
95.189689
 20
-134.048862
 42
0.000000
 10
95.189689
 20
-132.916212
 42
0.000000
 10
94.689689
 20
-132.627537
 42
0.000000
 10
95.189689
 20
-132.238862
 42
0.000000
 10
95.189689
 20
-131.106212
 42
0.000000
 10
94.689689
 20
-130.817537
 42
0.000000
 10
95.189689
 20
-130.428862
 42
0.000000
 10
95.189689
 20
-129.749941
 42
0.000000
 10
95.089689
 20
-129.576736
 42
0.000000
 10
92.989689
 20
-105.749941
 42
0.000000
 10
101.989689
 20
-105.749941
 42
0.000000
 10
99.889689
 20
-129.576736
 42
0.000000
 10
99.789689
 20
-129.749941
 42
0.000000
 10
100.289689
 20
-129.912537
 42
0.000000
 10
99.789689
 20
-130.201212
 42
0.000000
 10
99.789689
 20
-131.333862
 42
0.000000
 10
100.289689
 20
-131.722537
 42
0.000000
 10
99.789689
 20
-132.011212
 42
0.000000
 10
99.789689
 20
-133.143862
 42
0.000000
 10
100.289689
 20
-133.532537
 42
0.000000
 10
99.789689
 20
-133.821212
 42
0.000000
 10
99.789689
 20
-134.953862
 42
0.000000
 10
100.289689
 20
-135.342537
 42
0.000000
 10
99.789689
 20
-135.631212
 42
0.000000
 10
99.789689
 20
-136.763862
 42
0.000000
 10
100.289689
 20
-137.152537
 42
0.000000
 10
99.789689
 20
-137.441212
 42
0.000000
 10
99.789689
 20
-138.573862
 42
0.000000
 10
100.289689
 20
-138.962537
 42
0.000000
 10
99.789689
 20
-139.251212
 42
0.000000
 10
99.789689
 20
-140.383862
 42
0.000000
 10
100.289689
 20
-140.772537
 42
0.000000
 10
99.789689
 20
-141.061212
 42
0.000000
 10
99.789689
 20
-142.193862
 42
0.000000
 10
100.289689
 20
-142.582537
 42
0.000000
 10
99.789689
 20
-142.871212
 42
0.000000
 10
99.789689
 20
-144.003862
 42
0.000000
 10
100.289689
 20
-144.392537
 42
0.000000
 10
99.789689
 20
-144.681212
 42
0.000000
 10
99.789689
 20
-145.813862
 42
0.000000
 10
100.289689
 20
-146.202537
 42
0.000000
 10
99.789689
 20
-146.491212
 42
0.000000
 10
99.789689
 20
-147.623862
 42
0.000000
 10
100.289689
 20
-148.012537
 42
0.000000
 10
99.789689
 20
-148.301212
 42
0.000000
 10
99.789689
 20
-149.433862
 42
0.000000
 10
100.289689
 20
-149.822537
 42
0.000000
 10
99.789689
 20
-150.111212
 42
0.000000
 10
99.789689
 20
-151.243862
 42
0.000000
 10
100.289689
 20
-151.632537
 42
0.000000
 10
99.789689
 20
-151.921212
 42
0.000000
 10
99.789689
 20
-153.053862
 42
0.000000
 10
100.289689
 20
-153.442537
 42
0.000000
 10
99.789689
 20
-153.731212
 42
0.000000
 10
99.789689
 20
-154.863862
 42
0.000000
 10
100.289689
 20
-155.252537
 42
0.000000
 10
99.789689
 20
-155.541212
 42
0.000000
 10
99.789689
 20
-156.673862
 42
0.000000
 10
100.289689
 20
-157.062537
 42
0.000000
 10
99.789689
 20
-157.351212
 42
0.000000
 10
99.789689
 20
-158.483862
 42
0.000000
 10
100.289689
 20
-158.872537
 42
0.000000
 10
99.789689
 20
-159.161212
 42
0.000000
 10
99.789689
 20
-160.293862
 42
0.000000
 10
100.289689
 20
-160.682537
 42
0.000000
 10
99.789689
 20
-160.971212
 42
0.000000
 10
99.789689
 20
-162.103862
 42
0.000000
 10
100.289689
 20
-162.492537
 42
0.000000
 10
99.789689
 20
-162.781212
 42
0.000000
 10
99.789689
 20
-163.913862
 42
0.000000
 10
100.289689
 20
-164.302537
 42
0.000000
 10
99.789689
 20
-164.591212
 42
0.000000
 10
99.789689
 20
-165.723862
 42
0.000000
 10
100.289689
 20
-166.112537
 42
0.000000
 10
99.789689
 20
-166.401212
 42
0.000000
 10
99.789689
 20
-167.533862
 42
0.000000
 10
100.289689
 20
-167.922537
 42
0.000000
 10
99.789689
 20
-168.211212
 42
0.000000
 10
99.789689
 20
-169.343862
 42
0.000000
 10
100.289689
 20
-169.732537
 42
0.000000
 10
99.789689
 20
-170.021212
 42
0.000000
 10
99.789689
 20
-171.153862
 42
0.000000
 10
100.289689
 20
-171.542537
 42
0.000000
 10
99.789689
 20
-171.831212
 42
0.000000
 10
99.789689
 20
-172.963862
 42
0.000000
 10
100.289689
 20
-173.352537
 42
0.000000
 10
99.789689
 20
-173.641212
 42
0.000000
 10
99.789689
 20
-174.773862
 42
0.000000
 10
100.289689
 20
-175.162537
 42
0.000000
 10
99.789689
 20
-175.451212
 42
0.000000
 10
99.789689
 20
-176.583862
 42
0.000000
 10
100.289689
 20
-176.972537
 42
0.000000
 10
99.789689
 20
-177.261212
 42
0.000000
 10
99.789689
 20
-178.393862
 42
0.000000
 10
100.289689
 20
-178.782537
 42
0.000000
 10
99.789689
 20
-179.071212
 42
0.000000
 10
99.789689
 20
-180.203862
 42
0.000000
 10
100.289689
 20
-180.592537
 42
0.000000
 10
99.789689
 20
-180.881212
 42
0.000000
 10
99.789689
 20
-182.013862
 42
0.000000
 10
100.289689
 20
-182.402537
 42
0.000000
 10
99.789689
 20
-182.691212
 42
0.000000
 10
99.789689
 20
-183.823862
 42
0.000000
 10
100.289689
 20
-184.212537
 42
0.000000
 10
99.624210
 20
-184.596752
 42
0.000000
 10
99.239463
 20
-185.525612
 42
0.000000
 10
99.739463
 20
-185.914287
 42
0.000000
 10
98.870710
 20
-186.415861
 42
0.000000
 10
98.546230
 20
-187.199225
 42
0.000000
 10
99.046230
 20
-187.587900
 42
0.000000
 10
98.177476
 20
-188.089475
 42
0.000000
 10
97.489689
 20
-189.749941
 42
0.000000
  0
ENDBLK
  5
679
100
AcDbEntity
  8
0
100
AcDbBlockEnd
  0
BLOCK
  5
67A
100
AcDbEntity
  8
Detail
100
AcDbBlockBegin
  2
B-52
 70
    66
 10
0.000000
 20
0.000000
 30
0.000000
  0
LWPOLYLINE
  5
67B
100
AcDbEntity
  8
Detail
  6
CONTINUOUS
 62
     3
100
AcDbPolyline
 90
     5
 10
67.489689
 20
-51.249941
 42
0.000000
 10
67.489689
 20
-71.249941
 42
0.000000
 10
127.489689
 20
-71.249941
 42
0.000000
 10
127.489689
 20
-51.249941
 42
0.000000
 10
67.489689
 20
-51.249941
 42
0.000000
  0
ENDBLK
  5
681
100
AcDbEntity
  8
0
100
AcDbBlockEnd
  0
BLOCK
  5
682
100
AcDbEntity
  8
Detail
100
AcDbBlockBegin
  2
B-53
 70
    66
 10
0.000000
 20
0.000000
 30
0.000000
  0
LWPOLYLINE
  5
683
100
AcDbEntity
  8
Detail
  6
CONTINUOUS
 62
     6
100
AcDbPolyline
 90
     2
 10
-147.500018
 20
-23.249941
 42
0.000000
 10
-147.500018
 20
296.250078
 42
0.000000
  0
ENDBLK
  5
686
100
AcDbEntity
  8
0
100
AcDbBlockEnd
  0
BLOCK
  5
687
100
AcDbEntity
  8
L
100
AcDbBlockBegin
  2
B-54
 70
    66
 10
0.000000
 20
0.000000
 30
0.000000
  0
LWPOLYLINE
  5
688
100
AcDbEntity
  8
L
  6
CONTINUOUS
 62
     3
100
AcDbPolyline
 90
     6
 10
-67.500018
 20
296.250078
 42
0.000000
 10
-67.500018
 20
-23.249941
 42
0.000000
 10
-67.500018
 20
-49.249941
 42
0.000000
 10
-147.500018
 20
-49.249941
 42
0.000000
 10
-147.500018
 20
-23.249941
 42
0.000000
 10
-147.500018
 20
296.250078
 42
0.000000
  0
ENDBLK
  5
68F
100
AcDbEntity
  8
0
100
AcDbBlockEnd
  0
BLOCK
  5
690
100
AcDbEntity
  8
Detail
100
AcDbBlockBegin
  2
B-55
 70
    66
 10
0.000000
 20
0.000000
 30
0.000000
  0
LWPOLYLINE
  5
691
100
AcDbEntity
  8
Detail
  6
CONTINUOUS
 62
     4
100
AcDbPolyline
 90
     2
 10
-81.000018
 20
-51.249941
 42
0.000000
 10
-61.500018
 20
-51.249941
 42
0.000000
  0
ENDBLK
  5
694
100
AcDbEntity
  8
0
100
AcDbBlockEnd
  0
BLOCK
  5
695
100
AcDbEntity
  8
Detail
100
AcDbBlockBegin
  2
B-56
 70
    66
 10
0.000000
 20
0.000000
 30
0.000000
  0
LWPOLYLINE
  5
696
100
AcDbEntity
  8
Detail
  6
CONTINUOUS
 62
     6
100
AcDbPolyline
 90
   261
 10
212.499982
 20
-30.749941
 42
0.000000
 10
211.499982
 20
-31.249941
 42
0.000000
 10
210.499982
 20
-31.249941
 42
0.000000
 10
209.499982
 20
-31.749941
 42
0.000000
 10
208.499982
 20
-31.249941
 42
0.000000
 10
207.499982
 20
-31.249941
 42
0.000000
 10
206.499982
 20
-30.749941
 42
0.000000
 10
205.499982
 20
-31.249941
 42
0.000000
 10
204.499982
 20
-31.249941
 42
0.000000
 10
203.499982
 20
-31.749941
 42
0.000000
 10
202.499982
 20
-31.249941
 42
0.000000
 10
201.499982
 20
-31.249941
 42
0.000000
 10
200.499982
 20
-30.749941
 42
0.000000
 10
199.499982
 20
-31.249941
 42
0.000000
 10
198.499982
 20
-31.249941
 42
0.000000
 10
197.499982
 20
-31.749941
 42
0.000000
 10
196.499982
 20
-31.249941
 42
0.000000
 10
195.499982
 20
-31.249941
 42
0.000000
 10
194.499982
 20
-30.749941
 42
0.000000
 10
193.499982
 20
-31.249941
 42
0.000000
 10
192.499982
 20
-31.249941
 42
0.000000
 10
191.499982
 20
-31.749941
 42
0.000000
 10
190.499982
 20
-31.249941
 42
0.000000
 10
189.499982
 20
-31.249941
 42
0.000000
 10
188.499982
 20
-30.749941
 42
0.000000
 10
187.499982
 20
-31.249941
 42
0.000000
 10
186.499982
 20
-31.249941
 42
0.000000
 10
185.499982
 20
-31.749941
 42
0.000000
 10
184.499982
 20
-31.249941
 42
0.000000
 10
183.499982
 20
-31.249941
 42
0.000000
 10
182.499982
 20
-30.749941
 42
0.000000
 10
181.499982
 20
-31.249941
 42
0.000000
 10
180.499982
 20
-31.249941
 42
0.000000
 10
179.499982
 20
-31.749941
 42
0.000000
 10
178.499982
 20
-31.249941
 42
0.000000
 10
177.499982
 20
-31.249941
 42
0.000000
 10
176.499982
 20
-30.749941
 42
0.000000
 10
175.499982
 20
-31.249941
 42
0.000000
 10
174.499982
 20
-31.249941
 42
0.000000
 10
173.499982
 20
-31.749941
 42
0.000000
 10
172.499982
 20
-31.249941
 42
0.000000
 10
171.499982
 20
-31.249941
 42
0.000000
 10
170.499982
 20
-30.749941
 42
0.000000
 10
169.499982
 20
-31.249941
 42
0.000000
 10
168.499982
 20
-31.249941
 42
0.000000
 10
167.499982
 20
-31.749941
 42
0.000000
 10
166.499982
 20
-31.249941
 42
0.000000
 10
165.499982
 20
-31.249941
 42
0.000000
 10
164.499982
 20
-30.749941
 42
0.000000
 10
163.499982
 20
-31.249941
 42
0.000000
 10
162.499982
 20
-31.249941
 42
0.000000
 10
161.499982
 20
-31.749941
 42
0.000000
 10
160.499982
 20
-31.249941
 42
0.000000
 10
159.499982
 20
-31.249941
 42
0.000000
 10
158.499982
 20
-30.749941
 42
0.000000
 10
157.499982
 20
-31.249941
 42
0.000000
 10
156.499982
 20
-31.249941
 42
0.000000
 10
155.499982
 20
-31.749941
 42
0.000000
 10
154.499982
 20
-31.249941
 42
0.000000
 10
153.491186
 20
-31.245543
 42
0.000000
 10
152.499982
 20
-30.749941
 42
0.000000
 10
151.499982
 20
-31.249941
 42
0.000000
 10
150.499982
 20
-31.249941
 42
0.000000
 10
149.499982
 20
-31.749941
 42
0.000000
 10
148.499982
 20
-31.249941
 42
0.000000
 10
147.499982
 20
-31.249941
 42
0.000000
 10
146.499982
 20
-30.749941
 42
0.000000
 10
145.499982
 20
-31.249941
 42
0.000000
 10
144.499982
 20
-31.249941
 42
0.000000
 10
143.499982
 20
-31.749941
 42
0.000000
 10
142.499982
 20
-31.249941
 42
0.000000
 10
141.499982
 20
-31.249941
 42
0.000000
 10
140.499982
 20
-30.749941
 42
0.000000
 10
139.499982
 20
-31.249941
 42
0.000000
 10
138.499982
 20
-31.249941
 42
0.000000
 10
137.499982
 20
-31.749941
 42
0.000000
 10
136.499982
 20
-31.249941
 42
0.000000
 10
135.499982
 20
-31.249941
 42
0.000000
 10
134.499982
 20
-30.749941
 42
0.000000
 10
133.499982
 20
-31.249941
 42
0.000000
 10
132.499982
 20
-31.249941
 42
0.000000
 10
131.499982
 20
-31.749941
 42
0.000000
 10
130.499982
 20
-31.249941
 42
0.000000
 10
129.499982
 20
-31.249941
 42
0.000000
 10
128.499982
 20
-30.749941
 42
0.000000
 10
127.499982
 20
-31.249941
 42
0.000000
 10
126.499982
 20
-31.249941
 42
0.000000
 10
125.499982
 20
-31.749941
 42
0.000000
 10
124.499982
 20
-31.249941
 42
0.000000
 10
123.499982
 20
-31.249941
 42
0.000000
 10
122.499982
 20
-30.749941
 42
0.000000
 10
121.492315
 20
-31.249941
 42
0.000000
 10
120.499982
 20
-31.249941
 42
0.000000
 10
119.499982
 20
-31.749941
 42
0.000000
 10
118.499982
 20
-31.249941
 42
0.000000
 10
117.499982
 20
-31.249941
 42
0.000000
 10
116.499982
 20
-30.749941
 42
0.000000
 10
115.499982
 20
-31.249941
 42
0.000000
 10
114.499982
 20
-31.249941
 42
0.000000
 10
113.499982
 20
-31.749941
 42
0.000000
 10
112.499982
 20
-31.249941
 42
0.000000
 10
111.499982
 20
-31.249941
 42
0.000000
 10
110.499982
 20
-30.749941
 42
0.000000
 10
109.499982
 20
-31.249941
 42
0.000000
 10
108.499982
 20
-31.249941
 42
0.000000
 10
107.499982
 20
-31.749941
 42
0.000000
 10
106.499982
 20
-31.249941
 42
0.000000
 10
105.499982
 20
-31.249941
 42
0.000000
 10
104.499982
 20
-30.749941
 42
0.000000
 10
103.499982
 20
-31.249941
 42
0.000000
 10
102.499982
 20
-31.249941
 42
0.000000
 10
101.499982
 20
-31.749941
 42
0.000000
 10
100.499982
 20
-31.249941
 42
0.000000
 10
99.499982
 20
-31.249941
 42
0.000000
 10
98.499982
 20
-30.749941
 42
0.000000
 10
97.499982
 20
-31.249941
 42
0.000000
 10
96.499982
 20
-31.249941
 42
0.000000
 10
95.499982
 20
-31.749941
 42
0.000000
 10
94.499982
 20
-31.249941
 42
0.000000
 10
93.499982
 20
-31.249941
 42
0.000000
 10
92.499982
 20
-30.749941
 42
0.000000
 10
91.499982
 20
-31.249941
 42
0.000000
 10
90.499982
 20
-31.249941
 42
0.000000
 10
89.499982
 20
-31.749941
 42
0.000000
 10
88.499982
 20
-31.249941
 42
0.000000
 10
87.499982
 20
-31.249941
 42
0.000000
 10
86.499982
 20
-30.749941
 42
0.000000
 10
85.499982
 20
-31.249941
 42
0.000000
 10
84.499982
 20
-31.249941
 42
0.000000
 10
83.499982
 20
-31.749941
 42
0.000000
 10
82.499982
 20
-31.249941
 42
0.000000
 10
81.499982
 20
-31.249941
 42
0.000000
 10
80.499982
 20
-30.749941
 42
0.000000
 10
79.499982
 20
-31.249941
 42
0.000000
 10
78.499982
 20
-31.249941
 42
0.000000
 10
77.499982
 20
-31.749941
 42
0.000000
 10
76.499982
 20
-31.249941
 42
0.000000
 10
75.499982
 20
-31.249941
 42
0.000000
 10
74.499982
 20
-30.749941
 42
0.000000
 10
73.499982
 20
-31.249941
 42
0.000000
 10
72.499982
 20
-31.249941
 42
0.000000
 10
71.499982
 20
-31.749941
 42
0.000000
 10
70.499982
 20
-31.249941
 42
0.000000
 10
69.499982
 20
-31.249941
 42
0.000000
 10
68.499982
 20
-30.749941
 42
0.000000
 10
67.499982
 20
-31.249941
 42
0.000000
 10
66.499982
 20
-31.249941
 42
0.000000
 10
65.499982
 20
-31.749941
 42
0.000000
 10
64.499982
 20
-31.249941
 42
0.000000
 10
63.499982
 20
-31.249941
 42
0.000000
 10
62.499982
 20
-30.749941
 42
0.000000
 10
61.499982
 20
-31.249941
 42
0.000000
 10
60.499982
 20
-31.249941
 42
0.000000
 10
59.499982
 20
-31.749941
 42
0.000000
 10
58.499982
 20
-31.249941
 42
0.000000
 10
57.499982
 20
-31.249941
 42
0.000000
 10
56.499982
 20
-30.749941
 42
0.000000
 10
55.499982
 20
-31.249941
 42
0.000000
 10
54.499982
 20
-31.249941
 42
0.000000
 10
53.499982
 20
-31.749941
 42
0.000000
 10
52.499982
 20
-31.249941
 42
0.000000
 10
51.499982
 20
-31.249941
 42
0.000000
 10
50.499982
 20
-30.749941
 42
0.000000
 10
49.499982
 20
-31.249941
 42
0.000000
 10
48.499982
 20
-31.249941
 42
0.000000
 10
47.499982
 20
-31.749941
 42
0.000000
 10
46.499982
 20
-31.249941
 42
0.000000
 10
45.499982
 20
-31.249941
 42
0.000000
 10
44.499982
 20
-30.749941
 42
0.000000
 10
43.499982
 20
-31.249941
 42
0.000000
 10
42.499982
 20
-31.249941
 42
0.000000
 10
41.499982
 20
-31.749941
 42
0.000000
 10
40.499982
 20
-31.249941
 42
0.000000
 10
39.499982
 20
-31.249941
 42
0.000000
 10
38.499982
 20
-30.749941
 42
0.000000
 10
37.499982
 20
-31.249941
 42
0.000000
 10
36.499982
 20
-31.249941
 42
0.000000
 10
35.499982
 20
-31.749941
 42
0.000000
 10
34.499982
 20
-31.249941
 42
0.000000
 10
33.499982
 20
-31.249941
 42
0.000000
 10
32.499982
 20
-30.749941
 42
0.000000
 10
31.499982
 20
-31.249941
 42
0.000000
 10
30.499982
 20
-31.249941
 42
0.000000
 10
29.499982
 20
-31.749941
 42
0.000000
 10
28.499982
 20
-31.249941
 42
0.000000
 10
27.499982
 20
-31.249941
 42
0.000000
 10
26.499982
 20
-30.749941
 42
0.000000
 10
25.499982
 20
-31.249941
 42
0.000000
 10
24.499982
 20
-31.249941
 42
0.000000
 10
23.499982
 20
-31.749941
 42
0.000000
 10
22.499982
 20
-31.249941
 42
0.000000
 10
21.499982
 20
-31.249941
 42
0.000000
 10
20.499982
 20
-30.749941
 42
0.000000
 10
19.499982
 20
-31.249941
 42
0.000000
 10
18.499982
 20
-31.249941
 42
0.000000
 10
17.499982
 20
-31.749941
 42
0.000000
 10
16.499982
 20
-31.249941
 42
0.000000
 10
15.499982
 20
-31.249941
 42
0.000000
 10
14.499982
 20
-30.749941
 42
0.000000
 10
13.499982
 20
-31.249941
 42
0.000000
 10
12.499982
 20
-31.249941
 42
0.000000
 10
11.499982
 20
-31.749941
 42
0.000000
 10
10.499982
 20
-31.249941
 42
0.000000
 10
9.499982
 20
-31.249941
 42
0.000000
 10
8.499982
 20
-30.749941
 42
0.000000
 10
7.499982
 20
-31.249941
 42
0.000000
 10
6.499982
 20
-31.249941
 42
0.000000
 10
5.499982
 20
-31.749941
 42
0.000000
 10
4.499982
 20
-31.249941
 42
0.000000
 10
3.499982
 20
-31.249941
 42
0.000000
 10
2.499982
 20
-30.749941
 42
0.000000
 10
1.499982
 20
-31.249941
 42
0.000000
 10
0.499982
 20
-31.249941
 42
0.000000
 10
-0.500018
 20
-31.749941
 42
0.000000
 10
-1.500018
 20
-31.249941
 42
0.000000
 10
-2.500018
 20
-31.249941
 42
0.000000
 10
-3.500018
 20
-30.749941
 42
0.000000
 10
-4.500018
 20
-31.249941
 42
0.000000
 10
-5.500018
 20
-31.249941
 42
0.000000
 10
-6.500018
 20
-31.749941
 42
0.000000
 10
-7.500018
 20
-31.249941
 42
0.000000
 10
-8.500018
 20
-31.249941
 42
0.000000
 10
-9.500018
 20
-30.749941
 42
0.000000
 10
-10.500018
 20
-31.249941
 42
0.000000
 10
-11.500018
 20
-31.249941
 42
0.000000
 10
-12.500018
 20
-31.749941
 42
0.000000
 10
-13.500018
 20
-31.249941
 42
0.000000
 10
-14.500018
 20
-31.249941
 42
0.000000
 10
-15.500018
 20
-30.749941
 42
0.000000
 10
-16.507685
 20
-31.249941
 42
0.000000
 10
-17.500018
 20
-31.249941
 42
0.000000
 10
-18.500018
 20
-31.749941
 42
0.000000
 10
-19.500018
 20
-31.249941
 42
0.000000
 10
-20.500018
 20
-31.249941
 42
0.000000
 10
-21.500018
 20
-30.749941
 42
0.000000
 10
-22.500018
 20
-31.249941
 42
0.000000
 10
-23.500018
 20
-31.249941
 42
0.000000
 10
-24.500018
 20
-31.749941
 42
0.000000
 10
-25.500018
 20
-31.249941
 42
0.000000
 10
-26.500018
 20
-31.249941
 42
0.000000
 10
-27.500018
 20
-30.749941
 42
0.000000
 10
-28.500018
 20
-31.249941
 42
0.000000
 10
-29.500018
 20
-31.249941
 42
0.000000
 10
-30.500018
 20
-31.749941
 42
0.000000
 10
-31.500018
 20
-31.249941
 42
0.000000
 10
-32.500018
 20
-31.249941
 42
0.000000
 10
-33.500018
 20
-30.749941
 42
0.000000
 10
-34.500018
 20
-31.249941
 42
0.000000
 10
-35.500018
 20
-31.249941
 42
0.000000
 10
-36.500018
 20
-31.749941
 42
0.000000
 10
-37.500018
 20
-31.249941
 42
0.000000
 10
-38.500018
 20
-31.249941
 42
0.000000
 10
-39.500018
 20
-30.749941
 42
0.000000
 10
-40.507685
 20
-31.249941
 42
0.000000
 10
-41.500018
 20
-31.249941
 42
0.000000
 10
-42.500018
 20
-31.749941
 42
0.000000
 10
-43.500018
 20
-31.249941
 42
0.000000
 10
-44.500018
 20
-31.249941
 42
0.000000
 10
-45.500018
 20
-30.749941
 42
0.000000
 10
-46.500018
 20
-31.249941
 42
0.000000
 10
-47.500018
 20
-31.249941
 42
0.000000
  0
ENDBLK
  5
79C
100
AcDbEntity
  8
0
100
AcDbBlockEnd
  0
BLOCK
  5
79D
100
AcDbEntity
  8
Detail
100
AcDbBlockBegin
  2
B-57
 70
    66
 10
0.000000
 20
0.000000
 30
0.000000
  0
LWPOLYLINE
  5
79E
100
AcDbEntity
  8
Detail
  6
CONTINUOUS
 62
     6
100
AcDbPolyline
 90
   329
 10
-47.500018
 20
296.250078
 42
0.000000
 10
-47.500018
 20
295.750059
 42
0.000000
 10
-47.000018
 20
294.750059
 42
0.000000
 10
-47.500018
 20
293.742392
 42
0.000000
 10
-47.500018
 20
292.750059
 42
0.000000
 10
-48.000018
 20
291.750059
 42
0.000000
 10
-47.500018
 20
290.750059
 42
0.000000
 10
-47.500018
 20
289.750059
 42
0.000000
 10
-47.000018
 20
288.750059
 42
0.000000
 10
-47.500018
 20
287.750059
 42
0.000000
 10
-47.500018
 20
286.750059
 42
0.000000
 10
-48.000018
 20
285.750059
 42
0.000000
 10
-47.500018
 20
284.750059
 42
0.000000
 10
-47.500018
 20
283.750059
 42
0.000000
 10
-47.000018
 20
282.750059
 42
0.000000
 10
-47.500018
 20
281.742392
 42
0.000000
 10
-47.500018
 20
280.750059
 42
0.000000
 10
-48.000018
 20
279.750059
 42
0.000000
 10
-47.500018
 20
278.750059
 42
0.000000
 10
-47.500018
 20
277.750059
 42
0.000000
 10
-47.000018
 20
276.750059
 42
0.000000
 10
-47.500018
 20
275.750059
 42
0.000000
 10
-47.500018
 20
274.750059
 42
0.000000
 10
-48.000018
 20
273.750059
 42
0.000000
 10
-47.500018
 20
272.750059
 42
0.000000
 10
-47.500018
 20
271.750059
 42
0.000000
 10
-47.000018
 20
270.750059
 42
0.000000
 10
-47.500018
 20
269.750059
 42
0.000000
 10
-47.500018
 20
268.750059
 42
0.000000
 10
-48.000018
 20
267.750059
 42
0.000000
 10
-47.500018
 20
266.750059
 42
0.000000
 10
-47.500018
 20
265.750059
 42
0.000000
 10
-47.000018
 20
264.750059
 42
0.000000
 10
-47.500018
 20
263.750059
 42
0.000000
 10
-47.500018
 20
262.750059
 42
0.000000
 10
-48.000018
 20
261.750059
 42
0.000000
 10
-47.500018
 20
260.750059
 42
0.000000
 10
-47.500018
 20
259.750059
 42
0.000000
 10
-47.000018
 20
258.750059
 42
0.000000
 10
-47.500018
 20
257.750059
 42
0.000000
 10
-47.500018
 20
256.750059
 42
0.000000
 10
-48.000018
 20
255.750059
 42
0.000000
 10
-47.500018
 20
254.750059
 42
0.000000
 10
-47.500018
 20
253.750059
 42
0.000000
 10
-47.000018
 20
252.750059
 42
0.000000
 10
-47.500018
 20
251.750059
 42
0.000000
 10
-47.500018
 20
250.750059
 42
0.000000
 10
-48.000018
 20
249.750059
 42
0.000000
 10
-47.500018
 20
248.750059
 42
0.000000
 10
-47.500018
 20
247.750059
 42
0.000000
 10
-47.000018
 20
246.750059
 42
0.000000
 10
-47.500018
 20
245.742392
 42
0.000000
 10
-47.500018
 20
244.750059
 42
0.000000
 10
-48.000018
 20
243.750059
 42
0.000000
 10
-47.500018
 20
242.750059
 42
0.000000
 10
-47.500018
 20
241.750059
 42
0.000000
 10
-47.000018
 20
240.750059
 42
0.000000
 10
-47.500018
 20
239.750059
 42
0.000000
 10
-47.500018
 20
238.750059
 42
0.000000
 10
-48.000018
 20
237.750059
 42
0.000000
 10
-47.500018
 20
236.750059
 42
0.000000
 10
-47.500018
 20
235.750059
 42
0.000000
 10
-47.000018
 20
234.750059
 42
0.000000
 10
-47.500018
 20
233.750059
 42
0.000000
 10
-47.500018
 20
232.750059
 42
0.000000
 10
-48.000018
 20
231.750059
 42
0.000000
 10
-47.500018
 20
230.750059
 42
0.000000
 10
-47.500018
 20
229.750059
 42
0.000000
 10
-47.000018
 20
228.750059
 42
0.000000
 10
-47.500018
 20
227.750059
 42
0.000000
 10
-47.500018
 20
226.750059
 42
0.000000
 10
-48.000018
 20
225.750059
 42
0.000000
 10
-47.500018
 20
224.750059
 42
0.000000
 10
-47.500018
 20
223.750059
 42
0.000000
 10
-47.000018
 20
222.750059
 42
0.000000
 10
-47.500018
 20
221.750059
 42
0.000000
 10
-47.500018
 20
220.750059
 42
0.000000
 10
-48.000018
 20
219.750059
 42
0.000000
 10
-47.500018
 20
218.750059
 42
0.000000
 10
-47.500018
 20
217.750059
 42
0.000000
 10
-47.000018
 20
216.750059
 42
0.000000
 10
-47.500018
 20
215.750059
 42
0.000000
 10
-47.500018
 20
214.750059
 42
0.000000
 10
-48.000018
 20
213.750059
 42
0.000000
 10
-47.500018
 20
212.750059
 42
0.000000
 10
-47.500018
 20
211.750059
 42
0.000000
 10
-47.000018
 20
210.750059
 42
0.000000
 10
-47.500018
 20
209.750059
 42
0.000000
 10
-47.500018
 20
208.750059
 42
0.000000
 10
-48.000018
 20
207.750059
 42
0.000000
 10
-47.500018
 20
206.750059
 42
0.000000
 10
-47.500018
 20
205.750059
 42
0.000000
 10
-47.000018
 20
204.750059
 42
0.000000
 10
-47.500018
 20
203.750059
 42
0.000000
 10
-47.500018
 20
202.750059
 42
0.000000
 10
-48.000018
 20
201.750059
 42
0.000000
 10
-47.500018
 20
200.750059
 42
0.000000
 10
-47.500018
 20
199.750059
 42
0.000000
 10
-47.000018
 20
198.750059
 42
0.000000
 10
-47.500018
 20
197.750059
 42
0.000000
 10
-47.500018
 20
196.750059
 42
0.000000
 10
-48.000018
 20
195.750059
 42
0.000000
 10
-47.500018
 20
194.750059
 42
0.000000
 10
-47.500018
 20
193.750059
 42
0.000000
 10
-47.000018
 20
192.750059
 42
0.000000
 10
-47.500018
 20
191.750059
 42
0.000000
 10
-47.500018
 20
190.750059
 42
0.000000
 10
-48.000018
 20
189.750059
 42
0.000000
 10
-47.500018
 20
188.750059
 42
0.000000
 10
-47.500018
 20
187.750059
 42
0.000000
 10
-47.000018
 20
186.750059
 42
0.000000
 10
-47.500018
 20
185.750059
 42
0.000000
 10
-47.500018
 20
184.750059
 42
0.000000
 10
-48.000018
 20
183.750059
 42
0.000000
 10
-47.500018
 20
182.750059
 42
0.000000
 10
-47.500018
 20
181.750059
 42
0.000000
 10
-47.000018
 20
180.750059
 42
0.000000
 10
-47.500018
 20
179.750059
 42
0.000000
 10
-47.500018
 20
178.750059
 42
0.000000
 10
-48.000018
 20
177.750059
 42
0.000000
 10
-47.500018
 20
176.750059
 42
0.000000
 10
-47.500018
 20
175.750059
 42
0.000000
 10
-47.000018
 20
174.750059
 42
0.000000
 10
-47.500018
 20
173.750059
 42
0.000000
 10
-47.500018
 20
172.750059
 42
0.000000
 10
-48.000018
 20
171.750059
 42
0.000000
 10
-47.500018
 20
170.750059
 42
0.000000
 10
-47.495620
 20
169.741263
 42
0.000000
 10
-47.000018
 20
168.750059
 42
0.000000
 10
-47.500018
 20
167.750059
 42
0.000000
 10
-47.500018
 20
166.750059
 42
0.000000
 10
-48.000018
 20
165.750059
 42
0.000000
 10
-47.500018
 20
164.750059
 42
0.000000
 10
-47.500018
 20
163.750059
 42
0.000000
 10
-47.000018
 20
162.750059
 42
0.000000
 10
-47.500018
 20
161.750059
 42
0.000000
 10
-47.500018
 20
160.750059
 42
0.000000
 10
-48.000018
 20
159.750059
 42
0.000000
 10
-47.500018
 20
158.750059
 42
0.000000
 10
-47.500018
 20
157.750059
 42
0.000000
 10
-47.000018
 20
156.750059
 42
0.000000
 10
-47.500018
 20
155.750059
 42
0.000000
 10
-47.500018
 20
154.750059
 42
0.000000
 10
-48.000018
 20
153.750059
 42
0.000000
 10
-47.500018
 20
152.750059
 42
0.000000
 10
-47.500018
 20
151.750059
 42
0.000000
 10
-47.000018
 20
150.750059
 42
0.000000
 10
-47.500018
 20
149.750059
 42
0.000000
 10
-47.500018
 20
148.750059
 42
0.000000
 10
-48.000018
 20
147.750059
 42
0.000000
 10
-47.500018
 20
146.750059
 42
0.000000
 10
-47.500018
 20
145.750059
 42
0.000000
 10
-47.000018
 20
144.750059
 42
0.000000
 10
-47.500018
 20
143.750059
 42
0.000000
 10
-47.500018
 20
142.750059
 42
0.000000
 10
-48.000018
 20
141.750059
 42
0.000000
 10
-47.500018
 20
140.750059
 42
0.000000
 10
-47.500018
 20
139.750059
 42
0.000000
 10
-47.000018
 20
138.750059
 42
0.000000
 10
-47.500018
 20
137.742392
 42
0.000000
 10
-47.500018
 20
136.750059
 42
0.000000
 10
-48.000018
 20
135.750059
 42
0.000000
 10
-47.500018
 20
134.750059
 42
0.000000
 10
-47.500018
 20
133.750059
 42
0.000000
 10
-47.000018
 20
132.750059
 42
0.000000
 10
-47.500018
 20
131.750059
 42
0.000000
 10
-47.500018
 20
130.750059
 42
0.000000
 10
-48.000018
 20
129.750059
 42
0.000000
 10
-47.500018
 20
128.750059
 42
0.000000
 10
-47.500018
 20
127.750059
 42
0.000000
 10
-47.000018
 20
126.750059
 42
0.000000
 10
-47.500018
 20
125.750059
 42
0.000000
 10
-47.500018
 20
124.750059
 42
0.000000
 10
-48.000018
 20
123.750059
 42
0.000000
 10
-47.500018
 20
122.750059
 42
0.000000
 10
-47.500018
 20
121.750059
 42
0.000000
 10
-47.000018
 20
120.750059
 42
0.000000
 10
-47.500018
 20
119.750059
 42
0.000000
 10
-47.500018
 20
118.750059
 42
0.000000
 10
-48.000018
 20
117.750059
 42
0.000000
 10
-47.500018
 20
116.750059
 42
0.000000
 10
-47.500018
 20
115.750059
 42
0.000000
 10
-47.000018
 20
114.750059
 42
0.000000
 10
-47.500018
 20
113.750059
 42
0.000000
 10
-47.500018
 20
112.750059
 42
0.000000
 10
-48.000018
 20
111.750059
 42
0.000000
 10
-47.500018
 20
110.750059
 42
0.000000
 10
-47.500018
 20
109.750059
 42
0.000000
 10
-47.000018
 20
108.750059
 42
0.000000
 10
-47.500018
 20
107.750059
 42
0.000000
 10
-47.500018
 20
106.750059
 42
0.000000
 10
-48.000018
 20
105.750059
 42
0.000000
 10
-47.500018
 20
104.750059
 42
0.000000
 10
-47.500018
 20
103.750059
 42
0.000000
 10
-47.000018
 20
102.750059
 42
0.000000
 10
-47.500018
 20
101.750059
 42
0.000000
 10
-47.500018
 20
100.750059
 42
0.000000
 10
-48.000018
 20
99.750059
 42
0.000000
 10
-47.500018
 20
98.750059
 42
0.000000
 10
-47.500018
 20
97.750059
 42
0.000000
 10
-47.000018
 20
96.750059
 42
0.000000
 10
-47.500018
 20
95.750059
 42
0.000000
 10
-47.500018
 20
94.750059
 42
0.000000
 10
-48.000018
 20
93.750059
 42
0.000000
 10
-47.500018
 20
92.750059
 42
0.000000
 10
-47.500018
 20
91.750059
 42
0.000000
 10
-47.000018
 20
90.750059
 42
0.000000
 10
-47.500018
 20
89.750059
 42
0.000000
 10
-47.500018
 20
88.750059
 42
0.000000
 10
-48.000018
 20
87.750059
 42
0.000000
 10
-47.500018
 20
86.750059
 42
0.000000
 10
-47.500018
 20
85.750059
 42
0.000000
 10
-47.000018
 20
84.750059
 42
0.000000
 10
-47.500018
 20
83.750059
 42
0.000000
 10
-47.500018
 20
82.750059
 42
0.000000
 10
-48.000018
 20
81.750059
 42
0.000000
 10
-47.500018
 20
80.750059
 42
0.000000
 10
-47.500018
 20
79.750059
 42
0.000000
 10
-47.000018
 20
78.750059
 42
0.000000
 10
-47.500018
 20
77.750059
 42
0.000000
 10
-47.500018
 20
76.750059
 42
0.000000
 10
-48.000018
 20
75.750059
 42
0.000000
 10
-47.500018
 20
74.750059
 42
0.000000
 10
-47.500018
 20
73.750059
 42
0.000000
 10
-47.000018
 20
72.750059
 42
0.000000
 10
-47.500018
 20
71.750059
 42
0.000000
 10
-47.500018
 20
70.750059
 42
0.000000
 10
-48.000018
 20
69.750059
 42
0.000000
 10
-47.500018
 20
68.750059
 42
0.000000
 10
-47.500018
 20
67.750059
 42
0.000000
 10
-47.000018
 20
66.750059
 42
0.000000
 10
-47.500018
 20
65.750059
 42
0.000000
 10
-47.500018
 20
64.750059
 42
0.000000
 10
-48.000018
 20
63.750059
 42
0.000000
 10
-47.500018
 20
62.750059
 42
0.000000
 10
-47.500018
 20
61.750059
 42
0.000000
 10
-47.000018
 20
60.750059
 42
0.000000
 10
-47.500018
 20
59.750059
 42
0.000000
 10
-47.500018
 20
58.750059
 42
0.000000
 10
-48.000018
 20
57.750059
 42
0.000000
 10
-47.500018
 20
56.750059
 42
0.000000
 10
-47.500018
 20
55.750059
 42
0.000000
 10
-47.000018
 20
54.750059
 42
0.000000
 10
-47.500018
 20
53.750059
 42
0.000000
 10
-47.500018
 20
52.750059
 42
0.000000
 10
-48.000018
 20
51.750059
 42
0.000000
 10
-47.500018
 20
50.750059
 42
0.000000
 10
-47.500018
 20
49.750059
 42
0.000000
 10
-47.000018
 20
48.750059
 42
0.000000
 10
-47.500018
 20
47.750059
 42
0.000000
 10
-47.500018
 20
46.750059
 42
0.000000
 10
-48.000018
 20
45.750059
 42
0.000000
 10
-47.500018
 20
44.750059
 42
0.000000
 10
-47.500018
 20
43.750059
 42
0.000000
 10
-47.000018
 20
42.750059
 42
0.000000
 10
-47.500018
 20
41.750059
 42
0.000000
 10
-47.500018
 20
40.750059
 42
0.000000
 10
-48.000018
 20
39.750059
 42
0.000000
 10
-47.500018
 20
38.750059
 42
0.000000
 10
-47.500018
 20
37.750059
 42
0.000000
 10
-47.000018
 20
36.750059
 42
0.000000
 10
-47.500018
 20
35.750059
 42
0.000000
 10
-47.500018
 20
34.750059
 42
0.000000
 10
-48.000018
 20
33.750059
 42
0.000000
 10
-47.500018
 20
32.750059
 42
0.000000
 10
-47.500018
 20
31.750059
 42
0.000000
 10
-47.000018
 20
30.750059
 42
0.000000
 10
-47.500018
 20
29.750059
 42
0.000000
 10
-47.500018
 20
28.750059
 42
0.000000
 10
-48.000018
 20
27.750059
 42
0.000000
 10
-47.500018
 20
26.750059
 42
0.000000
 10
-47.500018
 20
25.750059
 42
0.000000
 10
-47.000018
 20
24.750059
 42
0.000000
 10
-47.500018
 20
23.750059
 42
0.000000
 10
-47.500018
 20
22.750059
 42
0.000000
 10
-48.000018
 20
21.750059
 42
0.000000
 10
-47.500018
 20
20.750059
 42
0.000000
 10
-47.500018
 20
19.750059
 42
0.000000
 10
-47.000018
 20
18.750059
 42
0.000000
 10
-47.500018
 20
17.750059
 42
0.000000
 10
-47.500018
 20
16.750059
 42
0.000000
 10
-48.000018
 20
15.750059
 42
0.000000
 10
-47.500018
 20
14.750059
 42
0.000000
 10
-47.500018
 20
13.750059
 42
0.000000
 10
-47.000018
 20
12.750059
 42
0.000000
 10
-47.500018
 20
11.750059
 42
0.000000
 10
-47.500018
 20
10.750059
 42
0.000000
 10
-48.000018
 20
9.750059
 42
0.000000
 10
-47.500018
 20
8.750059
 42
0.000000
 10
-47.500018
 20
7.750059
 42
0.000000
 10
-47.000018
 20
6.750059
 42
0.000000
 10
-47.500018
 20
5.750059
 42
0.000000
 10
-47.500018
 20
4.750059
 42
0.000000
 10
-48.000018
 20
3.750059
 42
0.000000
 10
-47.500018
 20
2.750059
 42
0.000000
 10
-47.500018
 20
1.750059
 42
0.000000
 10
-47.000018
 20
0.750059
 42
0.000000
 10
-47.500018
 20
-0.257608
 42
0.000000
 10
-47.500018
 20
-1.249941
 42
0.000000
 10
-48.000018
 20
-2.249941
 42
0.000000
 10
-47.500018
 20
-3.249941
 42
0.000000
 10
-47.500018
 20
-4.249941
 42
0.000000
 10
-47.000018
 20
-5.249941
 42
0.000000
 10
-47.500018
 20
-6.249941
 42
0.000000
 10
-47.500018
 20
-7.249941
 42
0.000000
 10
-48.000018
 20
-8.249941
 42
0.000000
 10
-47.500018
 20
-9.249941
 42
0.000000
 10
-47.500018
 20
-10.249941
 42
0.000000
 10
-47.000018
 20
-11.249941
 42
0.000000
 10
-47.500018
 20
-12.249941
 42
0.000000
 10
-47.500018
 20
-13.249941
 42
0.000000
 10
-48.000018
 20
-14.249941
 42
0.000000
 10
-47.500018
 20
-15.249941
 42
0.000000
 10
-47.500018
 20
-16.249941
 42
0.000000
 10
-47.000018
 20
-17.249941
 42
0.000000
 10
-47.500018
 20
-18.249941
 42
0.000000
 10
-47.500018
 20
-19.249941
 42
0.000000
 10
-48.000018
 20
-20.249941
 42
0.000000
 10
-47.500018
 20
-21.249941
 42
0.000000
 10
-47.500018
 20
-22.249941
 42
0.000000
 10
-47.007096
 20
-23.264098
 42
0.000000
 10
-47.500018
 20
-24.249941
 42
0.000000
 10
-47.500018
 20
-25.249941
 42
0.000000
 10
-48.000018
 20
-26.249941
 42
0.000000
 10
-47.500018
 20
-27.249941
 42
0.000000
 10
-47.500018
 20
-28.249941
 42
0.000000
 10
-47.000018
 20
-29.249941
 42
0.000000
 10
-47.500018
 20
-30.249941
 42
0.000000
 10
-47.500018
 20
-31.249941
 42
0.000000
  0
ENDBLK
  5
8E8
100
AcDbEntity
  8
0
100
AcDbBlockEnd
  0
ENDSEC
  0
SECTION
  2
ENTITIES
  0
INSERT
  5
8E9
100
AcDbEntity
  8
0
100
AcDbBlockReference
  2
B
 10
0.000000
 20
0.000000
 30
0.000000
 41
1.000000
 42
1.000000
 43
1.000000
 50
0.000000
  0
INSERT
  5
8EA
100
AcDbEntity
  8
0
100
AcDbBlockReference
  2
B-2
 10
0.000000
 20
0.000000
 30
0.000000
 41
1.000000
 42
1.000000
 43
1.000000
 50
0.000000
  0
INSERT
  5
8EB
100
AcDbEntity
  8
0
100
AcDbBlockReference
  2
B-3
 10
0.000000
 20
0.000000
 30
0.000000
 41
1.000000
 42
1.000000
 43
1.000000
 50
0.000000
  0
INSERT
  5
8EC
100
AcDbEntity
  8
0
100
AcDbBlockReference
  2
B-4
 10
0.000000
 20
0.000000
 30
0.000000
 41
1.000000
 42
1.000000
 43
1.000000
 50
0.000000
  0
INSERT
  5
8ED
100
AcDbEntity
  8
0
100
AcDbBlockReference
  2
B-5
 10
0.000000
 20
0.000000
 30
0.000000
 41
1.000000
 42
1.000000
 43
1.000000
 50
0.000000
  0
INSERT
  5
8EE
100
AcDbEntity
  8
0
100
AcDbBlockReference
  2
B-6
 10
0.000000
 20
0.000000
 30
0.000000
 41
1.000000
 42
1.000000
 43
1.000000
 50
0.000000
  0
INSERT
  5
8EF
100
AcDbEntity
  8
0
100
AcDbBlockReference
  2
B-7
 10
0.000000
 20
0.000000
 30
0.000000
 41
1.000000
 42
1.000000
 43
1.000000
 50
0.000000
  0
INSERT
  5
8F0
100
AcDbEntity
  8
0
100
AcDbBlockReference
  2
B-8
 10
0.000000
 20
0.000000
 30
0.000000
 41
1.000000
 42
1.000000
 43
1.000000
 50
0.000000
  0
INSERT
  5
8F1
100
AcDbEntity
  8
0
100
AcDbBlockReference
  2
B-9
 10
0.000000
 20
0.000000
 30
0.000000
 41
1.000000
 42
1.000000
 43
1.000000
 50
0.000000
  0
INSERT
  5
8F2
100
AcDbEntity
  8
Detail
100
AcDbBlockReference
  2
B-10
 10
0.000000
 20
0.000000
 30
0.000000
 41
1.000000
 42
1.000000
 43
1.000000
 50
0.000000
  0
INSERT
  5
8F3
100
AcDbEntity
  8
0
100
AcDbBlockReference
  2
B-11
 10
0.000000
 20
0.000000
 30
0.000000
 41
1.000000
 42
1.000000
 43
1.000000
 50
0.000000
  0
INSERT
  5
8F4
100
AcDbEntity
  8
Detail
100
AcDbBlockReference
  2
B-12
 10
0.000000
 20
0.000000
 30
0.000000
 41
1.000000
 42
1.000000
 43
1.000000
 50
0.000000
  0
INSERT
  5
8F5
100
AcDbEntity
  8
Detail
100
AcDbBlockReference
  2
B-13
 10
0.000000
 20
0.000000
 30
0.000000
 41
1.000000
 42
1.000000
 43
1.000000
 50
0.000000
  0
INSERT
  5
8F6
100
AcDbEntity
  8
Detail
100
AcDbBlockReference
  2
B-14
 10
0.000000
 20
0.000000
 30
0.000000
 41
1.000000
 42
1.000000
 43
1.000000
 50
0.000000
  0
INSERT
  5
8F7
100
AcDbEntity
  8
Detail
100
AcDbBlockReference
  2
B-15
 10
0.000000
 20
0.000000
 30
0.000000
 41
1.000000
 42
1.000000
 43
1.000000
 50
0.000000
  0
INSERT
  5
8F8
100
AcDbEntity
  8
Detail
100
AcDbBlockReference
  2
B-16
 10
0.000000
 20
0.000000
 30
0.000000
 41
1.000000
 42
1.000000
 43
1.000000
 50
0.000000
  0
INSERT
  5
8F9
100
AcDbEntity
  8
Detail
100
AcDbBlockReference
  2
B-17
 10
0.000000
 20
0.000000
 30
0.000000
 41
1.000000
 42
1.000000
 43
1.000000
 50
0.000000
  0
INSERT
  5
8FA
100
AcDbEntity
  8
Detail
100
AcDbBlockReference
  2
B-18
 10
0.000000
 20
0.000000
 30
0.000000
 41
1.000000
 42
1.000000
 43
1.000000
 50
0.000000
  0
INSERT
  5
8FB
100
AcDbEntity
  8
Detail
100
AcDbBlockReference
  2
B-19
 10
0.000000
 20
0.000000
 30
0.000000
 41
1.000000
 42
1.000000
 43
1.000000
 50
0.000000
  0
INSERT
  5
8FC
100
AcDbEntity
  8
0
100
AcDbBlockReference
  2
B-20
 10
0.000000
 20
0.000000
 30
0.000000
 41
1.000000
 42
1.000000
 43
1.000000
 50
0.000000
  0
INSERT
  5
8FD
100
AcDbEntity
  8
0
100
AcDbBlockReference
  2
B-21
 10
0.000000
 20
0.000000
 30
0.000000
 41
1.000000
 42
1.000000
 43
1.000000
 50
0.000000
  0
INSERT
  5
8FE
100
AcDbEntity
  8
0
100
AcDbBlockReference
  2
B-22
 10
0.000000
 20
0.000000
 30
0.000000
 41
1.000000
 42
1.000000
 43
1.000000
 50
0.000000
  0
INSERT
  5
8FF
100
AcDbEntity
  8
0
100
AcDbBlockReference
  2
B-23
 10
0.000000
 20
0.000000
 30
0.000000
 41
1.000000
 42
1.000000
 43
1.000000
 50
0.000000
  0
INSERT
  5
900
100
AcDbEntity
  8
Detail
100
AcDbBlockReference
  2
B-24
 10
0.000000
 20
0.000000
 30
0.000000
 41
1.000000
 42
1.000000
 43
1.000000
 50
0.000000
  0
INSERT
  5
901
100
AcDbEntity
  8
0
100
AcDbBlockReference
  2
B-25
 10
0.000000
 20
0.000000
 30
0.000000
 41
1.000000
 42
1.000000
 43
1.000000
 50
0.000000
  0
INSERT
  5
902
100
AcDbEntity
  8
Detail
100
AcDbBlockReference
  2
B-26
 10
0.000000
 20
0.000000
 30
0.000000
 41
1.000000
 42
1.000000
 43
1.000000
 50
0.000000
  0
INSERT
  5
903
100
AcDbEntity
  8
Detail
100
AcDbBlockReference
  2
B-28
 10
0.000000
 20
0.000000
 30
0.000000
 41
1.000000
 42
1.000000
 43
1.000000
 50
0.000000
  0
INSERT
  5
904
100
AcDbEntity
  8
L
100
AcDbBlockReference
  2
B-29
 10
0.000000
 20
0.000000
 30
0.000000
 41
1.000000
 42
1.000000
 43
1.000000
 50
0.000000
  0
INSERT
  5
905
100
AcDbEntity
  8
Detail
100
AcDbBlockReference
  2
B-30
 10
0.000000
 20
0.000000
 30
0.000000
 41
1.000000
 42
1.000000
 43
1.000000
 50
0.000000
  0
INSERT
  5
906
100
AcDbEntity
  8
Detail
100
AcDbBlockReference
  2
B-31
 10
0.000000
 20
0.000000
 30
0.000000
 41
1.000000
 42
1.000000
 43
1.000000
 50
0.000000
  0
INSERT
  5
907
100
AcDbEntity
  8
Detail
100
AcDbBlockReference
  2
B-32
 10
0.000000
 20
0.000000
 30
0.000000
 41
1.000000
 42
1.000000
 43
1.000000
 50
0.000000
  0
INSERT
  5
908
100
AcDbEntity
  8
Detail
100
AcDbBlockReference
  2
B-33
 10
0.000000
 20
0.000000
 30
0.000000
 41
1.000000
 42
1.000000
 43
1.000000
 50
0.000000
  0
INSERT
  5
909
100
AcDbEntity
  8
Detail
100
AcDbBlockReference
  2
B-34
 10
0.000000
 20
0.000000
 30
0.000000
 41
1.000000
 42
1.000000
 43
1.000000
 50
0.000000
  0
INSERT
  5
90A
100
AcDbEntity
  8
Detail
100
AcDbBlockReference
  2
B-35
 10
0.000000
 20
0.000000
 30
0.000000
 41
1.000000
 42
1.000000
 43
1.000000
 50
0.000000
  0
INSERT
  5
90B
100
AcDbEntity
  8
Detail
100
AcDbBlockReference
  2
B-36
 10
0.000000
 20
0.000000
 30
0.000000
 41
1.000000
 42
1.000000
 43
1.000000
 50
0.000000
  0
INSERT
  5
90C
100
AcDbEntity
  8
Detail
100
AcDbBlockReference
  2
B-37
 10
0.000000
 20
0.000000
 30
0.000000
 41
1.000000
 42
1.000000
 43
1.000000
 50
0.000000
  0
INSERT
  5
90D
100
AcDbEntity
  8
Detail
100
AcDbBlockReference
  2
B-38
 10
0.000000
 20
0.000000
 30
0.000000
 41
1.000000
 42
1.000000
 43
1.000000
 50
0.000000
  0
INSERT
  5
90E
100
AcDbEntity
  8
Detail
100
AcDbBlockReference
  2
B-39
 10
0.000000
 20
0.000000
 30
0.000000
 41
1.000000
 42
1.000000
 43
1.000000
 50
0.000000
  0
INSERT
  5
90F
100
AcDbEntity
  8
Detail
100
AcDbBlockReference
  2
B-40
 10
0.000000
 20
0.000000
 30
0.000000
 41
1.000000
 42
1.000000
 43
1.000000
 50
0.000000
  0
INSERT
  5
910
100
AcDbEntity
  8
Detail
100
AcDbBlockReference
  2
B-41
 10
0.000000
 20
0.000000
 30
0.000000
 41
1.000000
 42
1.000000
 43
1.000000
 50
0.000000
  0
INSERT
  5
911
100
AcDbEntity
  8
Detail
100
AcDbBlockReference
  2
B-42
 10
0.000000
 20
0.000000
 30
0.000000
 41
1.000000
 42
1.000000
 43
1.000000
 50
0.000000
  0
INSERT
  5
912
100
AcDbEntity
  8
Detail
100
AcDbBlockReference
  2
B-43
 10
0.000000
 20
0.000000
 30
0.000000
 41
1.000000
 42
1.000000
 43
1.000000
 50
0.000000
  0
INSERT
  5
913
100
AcDbEntity
  8
Detail
100
AcDbBlockReference
  2
B-44
 10
0.000000
 20
0.000000
 30
0.000000
 41
1.000000
 42
1.000000
 43
1.000000
 50
0.000000
  0
INSERT
  5
914
100
AcDbEntity
  8
Detail
100
AcDbBlockReference
  2
B-45
 10
0.000000
 20
0.000000
 30
0.000000
 41
1.000000
 42
1.000000
 43
1.000000
 50
0.000000
  0
INSERT
  5
915
100
AcDbEntity
  8
0
100
AcDbBlockReference
  2
B-46
 10
0.000000
 20
0.000000
 30
0.000000
 41
1.000000
 42
1.000000
 43
1.000000
 50
0.000000
  0
INSERT
  5
916
100
AcDbEntity
  8
Detail
100
AcDbBlockReference
  2
B-47
 10
0.000000
 20
0.000000
 30
0.000000
 41
1.000000
 42
1.000000
 43
1.000000
 50
0.000000
  0
INSERT
  5
917
100
AcDbEntity
  8
Detail
100
AcDbBlockReference
  2
B-48
 10
0.000000
 20
0.000000
 30
0.000000
 41
1.000000
 42
1.000000
 43
1.000000
 50
0.000000
  0
INSERT
  5
918
100
AcDbEntity
  8
Detail
100
AcDbBlockReference
  2
B-49
 10
0.000000
 20
0.000000
 30
0.000000
 41
1.000000
 42
1.000000
 43
1.000000
 50
0.000000
  0
INSERT
  5
919
100
AcDbEntity
  8
Detail
100
AcDbBlockReference
  2
B-50
 10
0.000000
 20
0.000000
 30
0.000000
 41
1.000000
 42
1.000000
 43
1.000000
 50
0.000000
  0
INSERT
  5
91A
100
AcDbEntity
  8
Detail
100
AcDbBlockReference
  2
B-52
 10
0.000000
 20
0.000000
 30
0.000000
 41
1.000000
 42
1.000000
 43
1.000000
 50
0.000000
  0
INSERT
  5
91B
100
AcDbEntity
  8
Detail
100
AcDbBlockReference
  2
B-53
 10
0.000000
 20
0.000000
 30
0.000000
 41
1.000000
 42
1.000000
 43
1.000000
 50
0.000000
  0
INSERT
  5
91C
100
AcDbEntity
  8
L
100
AcDbBlockReference
  2
B-54
 10
0.000000
 20
0.000000
 30
0.000000
 41
1.000000
 42
1.000000
 43
1.000000
 50
0.000000
  0
INSERT
  5
91D
100
AcDbEntity
  8
Detail
100
AcDbBlockReference
  2
B-55
 10
0.000000
 20
0.000000
 30
0.000000
 41
1.000000
 42
1.000000
 43
1.000000
 50
0.000000
  0
INSERT
  5
91E
100
AcDbEntity
  8
Detail
100
AcDbBlockReference
  2
B-56
 10
0.000000
 20
0.000000
 30
0.000000
 41
1.000000
 42
1.000000
 43
1.000000
 50
0.000000
  0
INSERT
  5
91F
100
AcDbEntity
  8
Detail
100
AcDbBlockReference
  2
B-57
 10
0.000000
 20
0.000000
 30
0.000000
 41
1.000000
 42
1.000000
 43
1.000000
 50
0.000000
  0
ENDSEC
  0
SECTION
  2
OBJECTS
  0
DICTIONARY
  5
C
330
0
100
AcDbDictionary
281
     1
  3
ACAD_COLOR
350
6B
  3
ACAD_GROUP
350
D
  3
ACAD_IMAGE_DICT
350
1E2
  3
ACAD_IMAGE_VARS
350
1E3
  3
ACAD_MATERIAL
350
6A
  3
ACAD_MLINESTYLE
350
17
  3
ACAD_PLOTSETTINGS
350
19
  3
ACAD_PLOTSTYLENAME
350
E
  3
ACAD_SCALELIST
350
10C
  3
ACAD_TABLESTYLE
350
7E
  3
ACAD_VISUALSTYLE
350
EF
  3
ACDB_RECOMPOSE_DATA
350
15D
  3
AcDbVariableDictionary
350
5E
  0
DICTIONARY
  5
13C
330
10
100
AcDbDictionary
280
     1
281
     1
  0
DICTIONARY
  5
203
330
202
100
AcDbDictionary
280
     1
281
     1
  0
DICTIONARY
  5
6B
102
{ACAD_REACTORS
330
C
102
}
330
C
100
AcDbDictionary
281
     1
  0
DICTIONARY
  5
D
102
{ACAD_REACTORS
330
C
102
}
330
C
100
AcDbDictionary
281
     1
  0
DICTIONARY
  5
1E2
102
{ACAD_REACTORS
330
C
102
}
330
C
100
AcDbDictionary
281
     1
  3
WDVS mit Edelkratzputz_Innenecke_7_1.tif
350
218
  0
RASTERVARIABLES
  5
1E3
102
{ACAD_REACTORS
330
C
102
}
330
C
100
AcDbRasterVariables
 90
        0
 70
     1
 71
     1
 72
     1
  0
DICTIONARY
  5
6A
102
{ACAD_REACTORS
330
C
102
}
330
C
100
AcDbDictionary
281
     1
  3
ByBlock
350
ED
  3
ByLayer
350
EC
  3
Global
350
EE
  0
DICTIONARY
  5
12D
102
{ACAD_REACTORS
330
C
102
}
330
C
100
AcDbDictionary
281
     1
  3
Annotative
350
13B
  3
Standard
350
12E
  0
DICTIONARY
  5
17
102
{ACAD_REACTORS
330
C
102
}
330
C
100
AcDbDictionary
281
     1
  3
Standard
350
18
  0
DICTIONARY
  5
19
102
{ACAD_REACTORS
330
C
102
}
330
C
100
AcDbDictionary
281
     1
  0
ACDBDICTIONARYWDFLT
  5
E
102
{ACAD_REACTORS
330
C
102
}
330
C
100
AcDbDictionary
281
     1
  3
Normal
350
F
100
AcDbDictionaryWithDefault
340
F
  0
DICTIONARY
  5
10C
102
{ACAD_REACTORS
330
C
102
}
330
C
100
AcDbDictionary
281
     1
  3
A0
350
10D
  3
A1
350
1BE
  3
A2
350
1BF
  3
A3
350
1C0
  3
A4
350
1C1
  3
A5
350
1C2
  3
A6
350
1C3
  3
A7
350
1C4
  3
A8
350
1C5
  3
A9
350
1C6
  3
B0
350
1C7
  3
B1
350
1C8
  3
B2
350
1C9
  3
B3
350
1CA
  3
B4
350
1CB
  3
B5
350
1CC
  3
B6
350
1CD
  0
DICTIONARY
  5
7E
102
{ACAD_REACTORS
330
C
102
}
330
C
100
AcDbDictionary
281
     1
  3
Standard
350
7F
  0
DICTIONARY
  5
EF
102
{ACAD_REACTORS
330
C
102
}
330
C
100
AcDbDictionary
281
     1
  3
2dWireframe
350
F5
  3
3D Hidden
350
F7
  3
3dWireframe
350
F6
  3
Basic
350
F4
  3
Brighten
350
FB
  3
ColorChange
350
FF
  3
Conceptual
350
F8
  3
Dim
350
FA
  3
Facepattern
350
FE
  3
Flat
350
F0
  3
FlatWithEdges
350
F1
  3
Gouraud
350
F2
  3
GouraudWithEdges
350
F3
  3
Linepattern
350
FD
  3
Realistic
350
F9
  3
Thicken
350
FC
  0
XRECORD
  5
15D
102
{ACAD_REACTORS
330
C
102
}
330
C
100
AcDbXrecord
280
     1
 90
        1
330
7F
  0
DICTIONARY
  5
5E
102
{ACAD_REACTORS
330
C
102
}
330
C
100
AcDbDictionary
281
     1
  3
CANNOSCALE
350
146
  3
CMLEADERSTYLE
350
145
  3
CTABLESTYLE
350
84
  3
DIMASSOC
350
5F
  3
HIDETEXT
350
63
  3
LAYEREVAL
350
1AE
  3
LAYERNOTIFY
350
1AF
  0
MATERIAL
  5
ED
102
{ACAD_REACTORS
330
6A
102
}
330
6A
100
AcDbMaterial
  1
ByBlock
 94
       63
  0
MATERIAL
  5
EC
102
{ACAD_REACTORS
330
6A
102
}
330
6A
100
AcDbMaterial
  1
ByLayer
 94
       63
  0
MATERIAL
  5
EE
102
{ACAD_XDICTIONARY
360
173
102
}
102
{ACAD_REACTORS
330
6A
102
}
330
6A
100
AcDbMaterial
  1
Global
 43
0.0007999999797903
 43
0.0
 43
0.0
 43
0.0
 43
0.0
 43
0.0007999999797903
 43
0.0
 43
0.0
 43
0.0
 43
0.0
 43
1.0
 43
0.0
 43
0.0
 43
0.0
 43
0.0
 43
1.0
 49
0.0007999999797903
 49
0.0
 49
0.0
 49
0.0
 49
0.0
 49
0.0007999999797903
 49
0.0
 49
0.0
 49
0.0
 49
0.0
 49
1.0
 49
0.0
 49
0.0
 49
0.0
 49
0.0
 49
1.0
142
0.0007999999797903
142
0.0
142
0.0
142
0.0
142
0.0
142
0.0007999999797903
142
0.0
142
0.0
142
0.0
142
0.0
142
1.0
142
0.0
142
0.0
142
0.0
142
0.0
142
1.0
144
0.0007999999797903
144
0.0
144
0.0
144
0.0
144
0.0
144
0.0007999999797903
144
0.0
144
0.0
144
0.0
144
0.0
144
1.0
144
0.0
144
0.0
144
0.0
144
0.0
144
1.0
 94
       63
1001
ACAD
1070
    -1
1070
     3
1070
     0
1000

1071
        0
1070
     0
  0
MLINESTYLE
  5
18
102
{ACAD_REACTORS
330
17
102
}
330
17
100
AcDbMlineStyle
  2
STANDARD
 70
     0
  3

 62
   256
 51
90.0
 52
90.0
 71
     2
 49
0.5
 62
   256
  6
BYLAYER
 49
-0.5
 62
   256
  6
BYLAYER
  0
ACDBPLACEHOLDER
  5
F
102
{ACAD_REACTORS
330
E
102
}
330
E
  0
SCALE
  5
10D
102
{ACAD_REACTORS
330
10C
102
}
330
10C
100
AcDbScale
 70
     0
300
1:1
140
1.0
141
1.0
290
     1
  0
SCALE
  5
1BE
102
{ACAD_REACTORS
330
10C
102
}
330
10C
100
AcDbScale
 70
     0
300
1:2
140
1.0
141
2.0
290
     0
  0
SCALE
  5
1BF
102
{ACAD_REACTORS
330
10C
102
}
330
10C
100
AcDbScale
 70
     0
300
1:4
140
1.0
141
4.0
290
     0
  0
SCALE
  5
1C0
102
{ACAD_REACTORS
330
10C
102
}
330
10C
100
AcDbScale
 70
     0
300
1:5
140
1.0
141
5.0
290
     0
  0
SCALE
  5
1C1
102
{ACAD_REACTORS
330
10C
102
}
330
10C
100
AcDbScale
 70
     0
300
1:8
140
1.0
141
8.0
290
     0
  0
SCALE
  5
1C2
102
{ACAD_REACTORS
330
10C
102
}
330
10C
100
AcDbScale
 70
     0
300
1:10
140
1.0
141
10.0
290
     0
  0
SCALE
  5
1C3
102
{ACAD_REACTORS
330
10C
102
}
330
10C
100
AcDbScale
 70
     0
300
1:16
140
1.0
141
16.0
290
     0
  0
SCALE
  5
1C4
102
{ACAD_REACTORS
330
10C
102
}
330
10C
100
AcDbScale
 70
     0
300
1:20
140
1.0
141
20.0
290
     0
  0
SCALE
  5
1C5
102
{ACAD_REACTORS
330
10C
102
}
330
10C
100
AcDbScale
 70
     0
300
1:30
140
1.0
141
30.0
290
     0
  0
SCALE
  5
1C6
102
{ACAD_REACTORS
330
10C
102
}
330
10C
100
AcDbScale
 70
     0
300
1:40
140
1.0
141
40.0
290
     0
  0
SCALE
  5
1C7
102
{ACAD_REACTORS
330
10C
102
}
330
10C
100
AcDbScale
 70
     0
300
1:50
140
1.0
141
50.0
290
     0
  0
SCALE
  5
1C8
102
{ACAD_REACTORS
330
10C
102
}
330
10C
100
AcDbScale
 70
     0
300
1:100
140
1.0
141
100.0
290
     0
  0
SCALE
  5
1C9
102
{ACAD_REACTORS
330
10C
102
}
330
10C
100
AcDbScale
 70
     0
300
2:1
140
2.0
141
1.0
290
     0
  0
SCALE
  5
1CA
102
{ACAD_REACTORS
330
10C
102
}
330
10C
100
AcDbScale
 70
     0
300
4:1
140
4.0
141
1.0
290
     0
  0
SCALE
  5
1CB
102
{ACAD_REACTORS
330
10C
102
}
330
10C
100
AcDbScale
 70
     0
300
8:1
140
8.0
141
1.0
290
     0
  0
SCALE
  5
1CC
102
{ACAD_REACTORS
330
10C
102
}
330
10C
100
AcDbScale
 70
     0
300
10:1
140
10.0
141
1.0
290
     0
  0
SCALE
  5
1CD
102
{ACAD_REACTORS
330
10C
102
}
330
10C
100
AcDbScale
 70
     0
300
100:1
140
100.0
141
1.0
290
     0
  0
TABLESTYLE
  5
7F
102
{ACAD_XDICTIONARY
360
162
102
}
102
{ACAD_REACTORS
330
7E
102
}
330
7E
100
AcDbTableStyle
  3
Standard
 70
     0
 71
     0
 40
1.5
 41
1.5
280
     0
281
     0
  7
Standard
140
4.5
170
     2
 62
     0
 63
     7
283
     0
 90
      512
 91
        0
  1

274
    -2
284
     1
 64
     0
275
    -2
285
     1
 65
     0
276
    -2
286
     1
 66
     0
277
    -2
287
     1
 67
     0
278
    -2
288
     1
 68
     0
279
    -2
289
     1
 69
     0
  7
Standard
140
6.0
170
     5
 62
     0
 63
     7
283
     0
 90
      512
 91
        0
  1

274
    -2
284
     1
 64
     0
275
    -2
285
     1
 65
     0
276
    -2
286
     1
 66
     0
277
    -2
287
     1
 67
     0
278
    -2
288
     1
 68
     0
279
    -2
289
     1
 69
     0
  7
Standard
140
4.5
170
     5
 62
     0
 63
     7
283
     0
 90
      512
 91
        0
  1

274
    -2
284
     1
 64
     0
275
    -2
285
     1
 65
     0
276
    -2
286
     1
 66
     0
277
    -2
287
     1
 67
     0
278
    -2
288
     1
 68
     0
279
    -2
289
     1
 69
     0
  0
VISUALSTYLE
  5
F5
102
{ACAD_REACTORS
330
EF
102
}
330
EF
100
AcDbVisualStyle
  2
2dWireframe
 70
     4
 71
     0
 72
     2
 73
     1
 90
        0
 40
-0.6
 41
-30.0
 62
     5
 63
     7
421
 16777215
 74
     1
 91
        4
 64
     7
 65
   257
 75
     1
175
     1
 42
1.0
 92
        0
 66
   257
 43
1.0
 76
     1
 77
     6
 78
     2
 67
     7
 79
     5
170
     0
171
     0
290
     0
174
     0
 93
        1
 44
0.0
173
     0
291
     0
 45
0.0
  0
VISUALSTYLE
  5
F7
102
{ACAD_REACTORS
330
EF
102
}
330
EF
100
AcDbVisualStyle
  2
3D Hidden
 70
     6
 71
     1
 72
     2
 73
     2
 90
        0
 40
-0.6
 41
-30.0
 62
     5
 63
     7
421
 16777215
 74
     2
 91
        2
 64
     7
 65
   257
 75
     2
175
     1
 42
40.0
 92
        0
 66
   257
 43
1.0
 76
     1
 77
     6
 78
     2
 67
     7
 79
     3
170
     0
171
     0
290
     0
174
     0
 93
        1
 44
0.0
173
     0
291
     0
 45
0.0
  0
VISUALSTYLE
  5
F6
102
{ACAD_REACTORS
330
EF
102
}
330
EF
100
AcDbVisualStyle
  2
3dWireframe
 70
     5
 71
     0
 72
     2
 73
     1
 90
        0
 40
-0.6
 41
-30.0
 62
     5
 63
     7
421
 16777215
 74
     1
 91
        4
 64
     7
 65
   257
 75
     1
175
     1
 42
1.0
 92
        0
 66
   257
 43
1.0
 76
     1
 77
     6
 78
     2
 67
     7
 79
     5
170
     0
171
     0
290
     0
174
     0
 93
        1
 44
0.0
173
     0
291
     0
 45
0.0
  0
VISUALSTYLE
  5
F4
102
{ACAD_REACTORS
330
EF
102
}
330
EF
100
AcDbVisualStyle
  2
Basic
 70
     7
 71
     1
 72
     0
 73
     1
 90
        0
 40
-0.6
 41
-30.0
 62
     5
 63
     7
421
 16777215
 74
     0
 91
        4
 64
     7
 65
   257
 75
     1
175
     1
 42
1.0
 92
        8
 66
     7
 43
1.0
 76
     1
 77
     6
 78
     2
 67
     7
 79
     5
170
     0
171
     0
290
     0
174
     0
 93
        1
 44
0.0
173
     0
291
     1
 45
0.0
  0
VISUALSTYLE
  5
FB
102
{ACAD_REACTORS
330
EF
102
}
330
EF
100
AcDbVisualStyle
  2
Brighten
 70
    12
 71
     2
 72
     2
 73
     1
 90
        0
 40
-0.6
 41
-30.0
 62
     5
 63
     7
421
 16777215
 74
     1
 91
        4
 64
     7
 65
   257
 75
     1
175
     1
 42
1.0
 92
        8
 66
     7
 43
1.0
 76
     1
 77
     6
 78
     2
 67
     7
 79
     5
170
     0
171
     0
290
     0
174
     0
 93
        1
 44
50.0
173
     0
291
     1
 45
0.0
  0
VISUALSTYLE
  5
FF
102
{ACAD_REACTORS
330
EF
102
}
330
EF
100
AcDbVisualStyle
  2
ColorChange
 70
    16
 71
     2
 72
     2
 73
     3
 90
        0
 40
-0.6
 41
-30.0
 62
     5
 63
     8
421
  8421504
 74
     1
 91
        4
 64
     7
 65
   257
 75
     1
175
     1
 42
1.0
 92
        8
 66
     8
424
  8421504
 43
1.0
 76
     1
 77
     6
 78
     2
 67
     7
 79
     5
170
     0
171
     0
290
     0
174
     0
 93
        1
 44
0.0
173
     0
291
     1
 45
0.0
  0
VISUALSTYLE
  5
F8
102
{ACAD_REACTORS
330
EF
102
}
330
EF
100
AcDbVisualStyle
  2
Conceptual
 70
     9
 71
     3
 72
     2
 73
     1
 90
        0
 40
-0.6
 41
-30.0
 62
     5
 63
     7
421
 16777215
 74
     2
 91
        2
 64
     7
 65
   257
 75
     1
175
     1
 42
40.0
 92
        8
 66
     7
 43
1.0
 76
     1
 77
     6
 78
     2
 67
     7
 79
     3
170
     0
171
     0
290
     0
174
     0
 93
        1
 44
0.0
173
     0
291
     0
 45
0.0
  0
VISUALSTYLE
  5
FA
102
{ACAD_REACTORS
330
EF
102
}
330
EF
100
AcDbVisualStyle
  2
Dim
 70
    11
 71
     2
 72
     2
 73
     1
 90
        0
 40
-0.6
 41
-30.0
 62
     5
 63
     7
421
 16777215
 74
     1
 91
        4
 64
     7
 65
   257
 75
     1
175
     1
 42
1.0
 92
        8
 66
     7
 43
1.0
 76
     1
 77
     6
 78
     2
 67
     7
 79
     5
170
     0
171
     0
290
     0
174
     0
 93
        1
 44
-50.0
173
     0
291
     1
 45
0.0
  0
VISUALSTYLE
  5
FE
102
{ACAD_REACTORS
330
EF
102
}
330
EF
100
AcDbVisualStyle
  2
Facepattern
 70
    15
 71
     2
 72
     2
 73
     1
 90
        0
 40
-0.6
 41
-30.0
 62
     5
 63
     7
421
 16777215
 74
     1
 91
        4
 64
     7
 65
   257
 75
     1
175
     1
 42
1.0
 92
        8
 66
     7
 43
1.0
 76
     1
 77
     6
 78
     2
 67
     7
 79
     5
170
     0
171
     0
290
     0
174
     0
 93
        1
 44
0.0
173
     0
291
     1
 45
0.0
  0
VISUALSTYLE
  5
F0
102
{ACAD_REACTORS
330
EF
102
}
330
EF
100
AcDbVisualStyle
  2
Flat
 70
     0
 71
     2
 72
     1
 73
     1
 90
        2
 40
-0.6
 41
30.0
 62
     5
 63
     7
421
 16777215
 74
     0
 91
        4
 64
     7
 65
   257
 75
     1
175
     1
 42
1.0
 92
        8
 66
     7
 43
1.0
 76
     1
 77
     6
 78
     2
 67
     7
 79
     5
170
     0
171
     0
290
     0
174
     0
 93
        1
 44
0.0
173
     0
291
     1
 45
0.0
  0
VISUALSTYLE
  5
F1
102
{ACAD_REACTORS
330
EF
102
}
330
EF
100
AcDbVisualStyle
  2
FlatWithEdges
 70
     1
 71
     2
 72
     1
 73
     1
 90
        2
 40
-0.6
 41
30.0
 62
     5
 63
     7
421
 16777215
 74
     1
 91
        4
 64
     7
 65
   257
 75
     1
175
     1
 42
1.0
 92
        0
 66
   257
 43
1.0
 76
     1
 77
     6
 78
     2
 67
     7
 79
     5
170
     0
171
     0
290
     0
174
     0
 93
        1
 44
0.0
173
     0
291
     1
 45
0.0
  0
VISUALSTYLE
  5
F2
102
{ACAD_REACTORS
330
EF
102
}
330
EF
100
AcDbVisualStyle
  2
Gouraud
 70
     2
 71
     2
 72
     2
 73
     1
 90
        2
 40
-0.6
 41
30.0
 62
     5
 63
     7
421
 16777215
 74
     0
 91
        4
 64
     7
 65
   257
 75
     1
175
     1
 42
1.0
 92
        0
 66
     7
 43
1.0
 76
     1
 77
     6
 78
     2
 67
     7
 79
     5
170
     0
171
     0
290
     0
174
     0
 93
        1
 44
0.0
173
     0
291
     1
 45
0.0
  0
VISUALSTYLE
  5
F3
102
{ACAD_REACTORS
330
EF
102
}
330
EF
100
AcDbVisualStyle
  2
GouraudWithEdges
 70
     3
 71
     2
 72
     2
 73
     1
 90
        2
 40
-0.6
 41
30.0
 62
     5
 63
     7
421
 16777215
 74
     1
 91
        4
 64
     7
 65
   257
 75
     1
175
     1
 42
1.0
 92
        0
 66
   257
 43
1.0
 76
     1
 77
     6
 78
     2
 67
     7
 79
     5
170
     0
171
     0
290
     0
174
     0
 93
        1
 44
0.0
173
     0
291
     1
 45
0.0
  0
VISUALSTYLE
  5
FD
102
{ACAD_REACTORS
330
EF
102
}
330
EF
100
AcDbVisualStyle
  2
Linepattern
 70
    14
 71
     2
 72
     2
 73
     1
 90
        0
 40
-0.6
 41
-30.0
 62
     5
 63
     7
421
 16777215
 74
     1
 91
        4
 64
     7
 65
   257
 75
     7
175
     7
 42
1.0
 92
        8
 66
     7
 43
1.0
 76
     1
 77
     6
 78
     2
 67
     7
 79
     5
170
     0
171
     0
290
     0
174
     0
 93
        1
 44
0.0
173
     0
291
     1
 45
0.0
  0
VISUALSTYLE
  5
F9
102
{ACAD_REACTORS
330
EF
102
}
330
EF
100
AcDbVisualStyle
  2
Realistic
 70
     8
 71
     2
 72
     2
 73
     1
 90
        0
 40
-0.6
 41
-30.0
 62
     5
 63
     7
421
 16777215
 74
     1
 91
        0
 64
     7
 65
   257
 75
     1
175
     1
 42
1.0
 92
        8
 66
     8
424
  7895160
 43
1.0
 76
     1
 77
     6
 78
     2
 67
     7
 79
     5
170
     0
171
     0
290
     0
174
     0
 93
       13
 44
0.0
173
     0
291
     0
 45
0.0
  0
VISUALSTYLE
  5
FC
102
{ACAD_REACTORS
330
EF
102
}
330
EF
100
AcDbVisualStyle
  2
Thicken
 70
    13
 71
     2
 72
     2
 73
     1
 90
        0
 40
-0.6
 41
-30.0
 62
     5
 63
     7
421
 16777215
 74
     1
 91
        4
 64
     7
 65
   257
 75
     1
175
     1
 42
1.0
 92
       12
 66
     7
 43
1.0
 76
     1
 77
     6
 78
     2
 67
     7
 79
     5
170
     0
171
     0
290
     0
174
     0
 93
        1
 44
0.0
173
     0
291
     1
 45
0.0
  0
DICTIONARYVAR
  5
146
102
{ACAD_REACTORS
330
5E
102
}
330
5E
100
DictionaryVariables
280
     0
  1
1:1
  0
DICTIONARYVAR
  5
145
102
{ACAD_REACTORS
330
5E
102
}
330
5E
100
DictionaryVariables
280
     0
  1
STANDARD
  0
DICTIONARYVAR
  5
84
102
{ACAD_REACTORS
330
5E
102
}
330
5E
100
DictionaryVariables
280
     0
  1
STANDARD
  0
DICTIONARYVAR
  5
5F
102
{ACAD_REACTORS
330
5E
102
}
330
5E
100
DictionaryVariables
280
     0
  1
2
  0
DICTIONARYVAR
  5
63
102
{ACAD_REACTORS
330
5E
102
}
330
5E
100
DictionaryVariables
280
     0
  1
1
  0
DICTIONARYVAR
  5
1AE
102
{ACAD_REACTORS
330
5E
102
}
330
5E
100
DictionaryVariables
280
     0
  1
0
  0
DICTIONARYVAR
  5
1AF
102
{ACAD_REACTORS
330
5E
102
}
330
5E
100
DictionaryVariables
280
     0
  1
0
  0
DICTIONARY
  5
173
330
EE
100
AcDbDictionary
280
     1
281
     1
  3
BUMPTILE
360
175
  3
DIFFUSETILE
360
174
  3
OPACITYTILE
360
176
  3
REFLECTIONTILE
360
177
  0
DICTIONARY
  5
162
330
7F
100
AcDbDictionary
280
     1
281
     1
  3
ACAD_ROUNDTRIP_2008_TABLESTYLE_CELLSTYLEMAP
360
1E7
  0
XRECORD
  5
175
102
{ACAD_REACTORS
330
173
102
}
330
173
100
AcDbXrecord
280
     1
270
     1
271
     1
  0
XRECORD
  5
174
102
{ACAD_REACTORS
330
173
102
}
330
173
100
AcDbXrecord
280
     1
270
     1
271
     1
  0
XRECORD
  5
176
102
{ACAD_REACTORS
330
173
102
}
330
173
100
AcDbXrecord
280
     1
270
     1
271
     1
  0
XRECORD
  5
177
102
{ACAD_REACTORS
330
173
102
}
330
173
100
AcDbXrecord
280
     1
270
     1
271
     1
  0
CELLSTYLEMAP
  5
1E7
102
{ACAD_REACTORS
330
162
102
}
330
162
100
AcDbCellStyleMap
 90
        3
300
CELLSTYLE
  1
TABLEFORMAT_BEGIN
 90
        5
170
     1
 91
        0
 92
    32768
 62
   257
 93
        1
300
CONTENTFORMAT
  1
CONTENTFORMAT_BEGIN
 90
        0
 91
        0
 92
      512
 93
        0
300

 40
0.0
140
1.0
 94
        5
 62
     0
340
11
144
6.0
309
CONTENTFORMAT_END
171
     1
301
MARGIN
  1
CELLMARGIN_BEGIN
 40
1.5
 40
1.5
 40
1.5
 40
1.5
 40
4.5
 40
4.5
309
CELLMARGIN_END
 94
        6
 95
        1
302
GRIDFORMAT
  1
GRIDFORMAT_BEGIN
 90
        0
 91
        1
 62
     0
 92
       -2
340
8E0
 93
        0
 40
1.125
309
GRIDFORMAT_END
 95
        2
302
GRIDFORMAT
  1
GRIDFORMAT_BEGIN
 90
        0
 91
        1
 62
     0
 92
       -2
340
8E0
 93
        0
 40
1.125
309
GRIDFORMAT_END
 95
        4
302
GRIDFORMAT
  1
GRIDFORMAT_BEGIN
 90
        0
 91
        1
 62
     0
 92
       -2
340
8E0
 93
        0
 40
1.125
309
GRIDFORMAT_END
 95
        8
302
GRIDFORMAT
  1
GRIDFORMAT_BEGIN
 90
        0
 91
        1
 62
     0
 92
       -2
340
8E0
 93
        0
 40
1.125
309
GRIDFORMAT_END
 95
       16
302
GRIDFORMAT
  1
GRIDFORMAT_BEGIN
 90
        0
 91
        1
 62
     0
 92
       -2
340
8E0
 93
        0
 40
1.125
309
GRIDFORMAT_END
 95
       32
302
GRIDFORMAT
  1
GRIDFORMAT_BEGIN
 90
        0
 91
        1
 62
     0
 92
       -2
340
8E0
 93
        0
 40
1.125
309
GRIDFORMAT_END
309
TABLEFORMAT_END
  1
CELLSTYLE_BEGIN
 90
        1
 91
        1
300
_TITLE
309
CELLSTYLE_END
300
CELLSTYLE
  1
TABLEFORMAT_BEGIN
 90
        5
170
     1
 91
        0
 92
        0
 62
   257
 93
        1
300
CONTENTFORMAT
  1
CONTENTFORMAT_BEGIN
 90
        0
 91
        0
 92
      512
 93
        0
300

 40
0.0
140
1.0
 94
        5
 62
     0
340
11
144
4.5
309
CONTENTFORMAT_END
171
     1
301
MARGIN
  1
CELLMARGIN_BEGIN
 40
1.5
 40
1.5
 40
1.5
 40
1.5
 40
4.5
 40
4.5
309
CELLMARGIN_END
 94
        6
 95
        1
302
GRIDFORMAT
  1
GRIDFORMAT_BEGIN
 90
        0
 91
        1
 62
     0
 92
       -2
340
8E0
 93
        0
 40
1.125
309
GRIDFORMAT_END
 95
        2
302
GRIDFORMAT
  1
GRIDFORMAT_BEGIN
 90
        0
 91
        1
 62
     0
 92
       -2
340
8E0
 93
        0
 40
1.125
309
GRIDFORMAT_END
 95
        4
302
GRIDFORMAT
  1
GRIDFORMAT_BEGIN
 90
        0
 91
        1
 62
     0
 92
       -2
340
8E0
 93
        0
 40
1.125
309
GRIDFORMAT_END
 95
        8
302
GRIDFORMAT
  1
GRIDFORMAT_BEGIN
 90
        0
 91
        1
 62
     0
 92
       -2
340
8E0
 93
        0
 40
1.125
309
GRIDFORMAT_END
 95
       16
302
GRIDFORMAT
  1
GRIDFORMAT_BEGIN
 90
        0
 91
        1
 62
     0
 92
       -2
340
8E0
 93
        0
 40
1.125
309
GRIDFORMAT_END
 95
       32
302
GRIDFORMAT
  1
GRIDFORMAT_BEGIN
 90
        0
 91
        1
 62
     0
 92
       -2
340
8E0
 93
        0
 40
1.125
309
GRIDFORMAT_END
309
TABLEFORMAT_END
  1
CELLSTYLE_BEGIN
 90
        2
 91
        1
300
_HEADER
309
CELLSTYLE_END
300
CELLSTYLE
  1
TABLEFORMAT_BEGIN
 90
        5
170
     1
 91
        0
 92
        0
 62
   257
 93
        1
300
CONTENTFORMAT
  1
CONTENTFORMAT_BEGIN
 90
        0
 91
        0
 92
      512
 93
        0
300

 40
0.0
140
1.0
 94
        2
 62
     0
340
11
144
4.5
309
CONTENTFORMAT_END
171
     1
301
MARGIN
  1
CELLMARGIN_BEGIN
 40
1.5
 40
1.5
 40
1.5
 40
1.5
 40
4.5
 40
4.5
309
CELLMARGIN_END
 94
        6
 95
        1
302
GRIDFORMAT
  1
GRIDFORMAT_BEGIN
 90
        0
 91
        1
 62
     0
 92
       -2
340
8E0
 93
        0
 40
1.125
309
GRIDFORMAT_END
 95
        2
302
GRIDFORMAT
  1
GRIDFORMAT_BEGIN
 90
        0
 91
        1
 62
     0
 92
       -2
340
8E0
 93
        0
 40
1.125
309
GRIDFORMAT_END
 95
        4
302
GRIDFORMAT
  1
GRIDFORMAT_BEGIN
 90
        0
 91
        1
 62
     0
 92
       -2
340
8E0
 93
        0
 40
1.125
309
GRIDFORMAT_END
 95
        8
302
GRIDFORMAT
  1
GRIDFORMAT_BEGIN
 90
        0
 91
        1
 62
     0
 92
       -2
340
8E0
 93
        0
 40
1.125
309
GRIDFORMAT_END
 95
       16
302
GRIDFORMAT
  1
GRIDFORMAT_BEGIN
 90
        0
 91
        1
 62
     0
 92
       -2
340
8E0
 93
        0
 40
1.125
309
GRIDFORMAT_END
 95
       32
302
GRIDFORMAT
  1
GRIDFORMAT_BEGIN
 90
        0
 91
        1
 62
     0
 92
       -2
340
8E0
 93
        0
 40
1.125
309
GRIDFORMAT_END
309
TABLEFORMAT_END
  1
CELLSTYLE_BEGIN
 90
        3
 91
        2
300
_DATA
309
CELLSTYLE_END
  0
IMAGEDEF_REACTOR
  5
219
330
217
100
AcDbRasterImageDefReactor
 90
     2
330
217
  0
IMAGEDEF
  5
218
102
{ACAD_REACTORS
330
5E
330
219
102
}
330
5E
100
AcDbRasterImageDef
 90
     0
  1
WDVS mit Edelkratzputz_Innenecke_7_1.tif
 10
395.000000
 20
405.000000
 11
0.002532
 21
0.002469
280
     1
281
     0
  0
ENDSEC
  0
EOF
