  0
SECTION
  2
HEADER
  9
$ACADVER
  1
AC1024
  9
$ACADMAINTVER
 70
     6
  9
$DWGCODEPAGE
  3
ANSI_1252
  9
$INSBASE
 10
0.0
 20
0.0
 30
0.0
  9
$EXTMIN
 10
-262.500018
 20
-371.249941
 30
0.000000
  9
$EXTMAX
 10
237.500023
 20
346.250078
 30
0.000000
  9
$LIMMIN
 10
0.0
 20
0.0
  9
$LIMMAX
 10
420.0
 20
297.0
  9
$ORTHOMODE
 70
     0
  9
$REGENMODE
 70
     1
  9
$FILLMODE
 70
     1
  9
$QTEXTMODE
 70
     0
  9
$MIRRTEXT
 70
     0
  9
$LTSCALE
 40
25.000000
  9
$ATTMODE
 70
     1
  9
$TEXTSIZE
 40
2.5
  9
$TRACEWID
 40
1.0
  9
$TEXTSTYLE
  7
Standard
  9
$CLAYER
  8
0
  9
$CELTYPE
  6
ByLayer
  9
$CECOLOR
 62
   256
  9
$CELTSCALE
 40
1.0
  9
$DISPSILH
 70
     0
  9
$DIMSCALE
 40
1.0
  9
$DIMASZ
 40
2.5
  9
$DIMEXO
 40
0.625
  9
$DIMDLI
 40
3.75
  9
$DIMRND
 40
0.0
  9
$DIMDLE
 40
0.0
  9
$DIMEXE
 40
1.25
  9
$DIMTP
 40
0.0
  9
$DIMTM
 40
0.0
  9
$DIMTXT
 40
2.5
  9
$DIMCEN
 40
2.5
  9
$DIMTSZ
 40
0.0
  9
$DIMTOL
 70
     0
  9
$DIMLIM
 70
     0
  9
$DIMTIH
 70
     0
  9
$DIMTOH
 70
     0
  9
$DIMSE1
 70
     0
  9
$DIMSE2
 70
     0
  9
$DIMTAD
 70
     1
  9
$DIMZIN
 70
     8
  9
$DIMBLK
  1

  9
$DIMASO
 70
     1
  9
$DIMSHO
 70
     1
  9
$DIMPOST
  1

  9
$DIMAPOST
  1

  9
$DIMALT
 70
     0
  9
$DIMALTD
 70
     3
  9
$DIMALTF
 40
0.03937007874016
  9
$DIMLFAC
 40
1.0
  9
$DIMTOFL
 70
     1
  9
$DIMTVP
 40
0.0
  9
$DIMTIX
 70
     0
  9
$DIMSOXD
 70
     0
  9
$DIMSAH
 70
     0
  9
$DIMBLK1
  1

  9
$DIMBLK2
  1

  9
$DIMSTYLE
  2
ISO-25
  9
$DIMCLRD
 70
     0
  9
$DIMCLRE
 70
     0
  9
$DIMCLRT
 70
     0
  9
$DIMTFAC
 40
1.0
  9
$DIMGAP
 40
0.625
  9
$DIMJUST
 70
     0
  9
$DIMSD1
 70
     0
  9
$DIMSD2
 70
     0
  9
$DIMTOLJ
 70
     0
  9
$DIMTZIN
 70
     8
  9
$DIMALTZ
 70
     0
  9
$DIMALTTZ
 70
     0
  9
$DIMUPT
 70
     0
  9
$DIMDEC
 70
     2
  9
$DIMTDEC
 70
     2
  9
$DIMALTU
 70
     2
  9
$DIMALTTD
 70
     3
  9
$DIMTXSTY
  7
Standard
  9
$DIMAUNIT
 70
     0
  9
$DIMADEC
 70
     0
  9
$DIMALTRND
 40
0.0
  9
$DIMAZIN
 70
     0
  9
$DIMDSEP
 70
    44
  9
$DIMATFIT
 70
     3
  9
$DIMFRAC
 70
     0
  9
$DIMLDRBLK
  1

  9
$DIMLUNIT
 70
     2
  9
$DIMLWD
 70
    -2
  9
$DIMLWE
 70
    -2
  9
$DIMTMOVE
 70
     0
  9
$DIMFXL
 40
1.0
  9
$DIMFXLON
 70
     0
  9
$DIMJOGANG
 40
0.7853981633974483
  9
$DIMTFILL
 70
     0
  9
$DIMTFILLCLR
 70
     0
  9
$DIMARCSYM
 70
     0
  9
$DIMLTYPE
  6

  9
$DIMLTEX1
  6

  9
$DIMLTEX2
  6

  9
$DIMTXTDIRECTION
 70
     0
  9
$LUNITS
 70
     2
  9
$LUPREC
 70
     4
  9
$SKETCHINC
 40
1.0
  9
$FILLETRAD
 40
10.0
  9
$AUNITS
 70
     0
  9
$AUPREC
 70
     0
  9
$MENU
  1
.
  9
$ELEVATION
 40
0.0
  9
$PELEVATION
 40
0.0
  9
$THICKNESS
 40
0.0
  9
$LIMCHECK
 70
     0
  9
$CHAMFERA
 40
10.0
  9
$CHAMFERB
 40
10.0
  9
$CHAMFERC
 40
20.0
  9
$CHAMFERD
 40
0.0
  9
$SKPOLY
 70
     0
  9
$TDCREATE
 40
2452006.439837951
  9
$TDUCREATE
 40
2452006.356504618
  9
$TDUPDATE
 40
2452006.439963946
  9
$TDUUPDATE
 40
2452006.356630613
  9
$TDINDWG
 40
0.0001273843
  9
$TDUSRTIMER
 40
0.0001272685
  9
$USRTIMER
 70
     1
  9
$ANGBASE
 50
0.0
  9
$ANGDIR
 70
     0
  9
$PDMODE
 70
     0
  9
$PDSIZE
 40
0.0
  9
$PLINEWID
 40
0.0
  9
$SPLFRAME
 70
     0
  9
$SPLINETYPE
 70
     6
  9
$SPLINESEGS
 70
     8
  9
$HANDSEED
  5
7F2
  9
$SURFTAB1
 70
     6
  9
$SURFTAB2
 70
     6
  9
$SURFTYPE
 70
     6
  9
$SURFU
 70
     6
  9
$SURFV
 70
     6
  9
$UCSBASE
  2

  9
$UCSNAME
  2

  9
$UCSORG
 10
0.0
 20
0.0
 30
0.0
  9
$UCSXDIR
 10
1.0
 20
0.0
 30
0.0
  9
$UCSYDIR
 10
0.0
 20
1.0
 30
0.0
  9
$UCSORTHOREF
  2

  9
$UCSORTHOVIEW
 70
     0
  9
$UCSORGTOP
 10
0.0
 20
0.0
 30
0.0
  9
$UCSORGBOTTOM
 10
0.0
 20
0.0
 30
0.0
  9
$UCSORGLEFT
 10
0.0
 20
0.0
 30
0.0
  9
$UCSORGRIGHT
 10
0.0
 20
0.0
 30
0.0
  9
$UCSORGFRONT
 10
0.0
 20
0.0
 30
0.0
  9
$UCSORGBACK
 10
0.0
 20
0.0
 30
0.0
  9
$PUCSBASE
  2

  9
$PUCSNAME
  2

  9
$PUCSORG
 10
0.0
 20
0.0
 30
0.0
  9
$PUCSXDIR
 10
1.0
 20
0.0
 30
0.0
  9
$PUCSYDIR
 10
0.0
 20
1.0
 30
0.0
  9
$PUCSORTHOREF
  2

  9
$PUCSORTHOVIEW
 70
     0
  9
$PUCSORGTOP
 10
0.0
 20
0.0
 30
0.0
  9
$PUCSORGBOTTOM
 10
0.0
 20
0.0
 30
0.0
  9
$PUCSORGLEFT
 10
0.0
 20
0.0
 30
0.0
  9
$PUCSORGRIGHT
 10
0.0
 20
0.0
 30
0.0
  9
$PUCSORGFRONT
 10
0.0
 20
0.0
 30
0.0
  9
$PUCSORGBACK
 10
0.0
 20
0.0
 30
0.0
  9
$USERI1
 70
     0
  9
$USERI2
 70
     0
  9
$USERI3
 70
     0
  9
$USERI4
 70
     0
  9
$USERI5
 70
     0
  9
$USERR1
 40
0.0
  9
$USERR2
 40
0.0
  9
$USERR3
 40
0.0
  9
$USERR4
 40
0.0
  9
$USERR5
 40
0.0
  9
$WORLDVIEW
 70
     1
  9
$SHADEDGE
 70
     3
  9
$SHADEDIF
 70
    70
  9
$TILEMODE
 70
     1
  9
$MAXACTVP
 70
    64
  9
$PINSBASE
 10
0.0
 20
0.0
 30
0.0
  9
$PLIMCHECK
 70
     0
  9
$PEXTMIN
 10
1.000000000000000E+20
 20
1.000000000000000E+20
 30
1.000000000000000E+20
  9
$PEXTMAX
 10
-1.000000000000000E+20
 20
-1.000000000000000E+20
 30
-1.000000000000000E+20
  9
$PLIMMIN
 10
0.0
 20
0.0
  9
$PLIMMAX
 10
420.0
 20
297.0
  9
$UNITMODE
 70
     0
  9
$VISRETAIN
 70
     1
  9
$PLINEGEN
 70
     0
  9
$PSLTSCALE
 70
     1
  9
$TREEDEPTH
 70
  3020
  9
$CMLSTYLE
  2
Standard
  9
$CMLJUST
 70
     0
  9
$CMLSCALE
 40
20.0
  9
$PROXYGRAPHICS
 70
     1
  9
$MEASUREMENT
 70
     1
  9
$CELWEIGHT
370
    -1
  9
$ENDCAPS
280
     0
  9
$JOINSTYLE
280
     0
  9
$LWDISPLAY
290
     0
  9
$INSUNITS
 70
     4
  9
$HYPERLINKBASE
  1

  9
$STYLESHEET
  1

  9
$XEDIT
290
     1
  9
$CEPSNTYPE
380
     0
  9
$PSTYLEMODE
290
     1
  9
$FINGERPRINTGUID
  2

  9
$VERSIONGUID
  2

  9
$EXTNAMES
290
     1
  9
$PSVPSCALE
 40
0.0
  9
$OLESTARTUP
290
     0
  9
$SORTENTS
280
   127
  9
$INDEXCTL
280
     0
  9
$HIDETEXT
280
     1
  9
$XCLIPFRAME
280
     2
  9
$HALOGAP
280
     0
  9
$OBSCOLOR
 70
   257
  9
$OBSLTYPE
280
     0
  9
$INTERSECTIONDISPLAY
280
     0
  9
$INTERSECTIONCOLOR
 70
   257
  9
$DIMASSOC
280
     2
  9
$PROJECTNAME
  1

  9
$CAMERADISPLAY
290
     0
  9
$LENSLENGTH
 40
50.0
  9
$CAMERAHEIGHT
 40
0.0
  9
$STEPSPERSEC
 40
2.0
  9
$STEPSIZE
 40
6.0
  9
$3DDWFPREC
 40
2.0
  9
$PSOLWIDTH
 40
5.0
  9
$PSOLHEIGHT
 40
80.0
  9
$LOFTANG1
 40
1.570796326794896
  9
$LOFTANG2
 40
1.570796326794896
  9
$LOFTMAG1
 40
0.0
  9
$LOFTMAG2
 40
0.0
  9
$LOFTPARAM
 70
     7
  9
$LOFTNORMALS
280
     1
  9
$LATITUDE
 40
37.795
  9
$LONGITUDE
 40
-122.394
  9
$NORTHDIRECTION
 40
0.0
  9
$TIMEZONE
 70
 -8000
  9
$LIGHTGLYPHDISPLAY
280
     1
  9
$TILEMODELIGHTSYNCH
280
     1
  9
$CMATERIAL
347
EC
  9
$SOLIDHIST
280
     1
  9
$SHOWHIST
280
     1
  9
$DWFFRAME
280
     2
  9
$DGNFRAME
280
     0
  9
$REALWORLDSCALE
290
     1
  9
$INTERFERECOLOR
 62
     1
  9
$INTERFEREOBJVS
345
F9
  9
$INTERFEREVPVS
346
F6
  9
$CSHADOW
280
     0
  9
$SHADOWPLANELOCATION
 40
0.0
  0
ENDSEC
  0
SECTION
  2
CLASSES
  0
CLASS
  1
ACDBDICTIONARYWDFLT
  2
AcDbDictionaryWithDefault
  3
ObjectDBX Classes
 90
        0
 91
        1
280
     0
281
     0
  0
CLASS
  1
ACDBPLACEHOLDER
  2
AcDbPlaceHolder
  3
ObjectDBX Classes
 90
        0
 91
        1
280
     0
281
     0
  0
CLASS
  1
LAYOUT
  2
AcDbLayout
  3
ObjectDBX Classes
 90
        0
 91
        2
280
     0
281
     0
  0
CLASS
  1
DICTIONARYVAR
  2
AcDbDictionaryVar
  3
ObjectDBX Classes
 90
        0
 91
        7
280
     0
281
     0
  0
CLASS
  1
TABLESTYLE
  2
AcDbTableStyle
  3
ObjectDBX Classes
 90
     4095
 91
        1
280
     0
281
     0
  0
CLASS
  1
MATERIAL
  2
AcDbMaterial
  3
ObjectDBX Classes
 90
     1153
 91
        3
280
     0
281
     0
  0
CLASS
  1
VISUALSTYLE
  2
AcDbVisualStyle
  3
ObjectDBX Classes
 90
     4095
 91
       16
280
     0
281
     0
  0
CLASS
  1
SCALE
  2
AcDbScale
  3
ObjectDBX Classes
 90
     1153
 91
       17
280
     0
281
     0
  0
CLASS
  1
MLEADERSTYLE
  2
AcDbMLeaderStyle
  3
ACDB_MLEADERSTYLE_CLASS
 90
     4095
 91
        1
280
     0
281
     0
  0
CLASS
  1
CELLSTYLEMAP
  2
AcDbCellStyleMap
  3
ObjectDBX Classes
 90
     1152
 91
        2
280
     0
281
     0
  0
CLASS
  1
EXACXREFPANELOBJECT
  2
ExAcXREFPanelObject
  3
EXAC_ESW
 90
    33793
 91
        0
280
     0
281
     0
  0
CLASS
  1
NPOCOLLECTION
  2
AcDbImpNonPersistentObjectsCollection
  3
ObjectDBX Classes
 90
     1153
 91
        0
280
     0
281
     0
  0
CLASS
  1
LAYER_INDEX
  2
AcDbLayerIndex
  3
ObjectDBX Classes
 90
        0
 91
        0
280
     0
281
     0
  0
CLASS
  1
SPATIAL_INDEX
  2
AcDbSpatialIndex
  3
ObjectDBX Classes
 90
        0
 91
        0
280
     0
281
     0
  0
CLASS
  1
IDBUFFER
  2
AcDbIdBuffer
  3
ObjectDBX Classes
 90
        0
 91
        0
280
     0
281
     0
  0
CLASS
  1
RASTERVARIABLES
  2
AcDbRasterVariables
  3
ISM
 90
        0
 91
        2
280
     0
281
     0
  0
CLASS
  1
IMAGEDEF
  2
AcDbRasterImageDef
  3
ISM
 90
        0
 91
        5
280
     0
281
     0
  0
CLASS
  1
IMAGEDEF_REACTOR
  2
AcDbRasterImageDefReactor
  3
ISM
 90
        1
 91
        5
280
     0
281
     0
  0
CLASS
  1
IMAGE
  2
AcDbRasterImage
  3
ISM
 90
     2175
 91
        5
280
     0
281
     1
  0
CLASS
  1
LWPOLYLINE
  2
AcDbPolyline
  3
ObjectDBX Classes
 90
        0
 91
        0
280
     0
281
     1
  0
CLASS
  1
OLE2FRAME
  2
AcDbOle2Frame
  3
ObjectDBX Classes
 90
        0
 91
        0
280
     0
281
     1
  0
CLASS
  1
HATCH
  2
AcDbHatch
  3
ObjectDBX Classes
 90
        0
 91
        0
280
     0
281
     1
  0
CLASS
  1
XRECORD
  2
AcDbXrecord
  3
ObjectDBX Classes
 90
        0
 91
        9
280
     0
281
     0
  0
CLASS
  1
SORTENTSTABLE
  2
AcDbSortentsTable
  3
ObjectDBX Classes
 90
        0
 91
        0
280
     0
281
     0
  0
CLASS
  1
OBJECT_PTR
  2
CAseDLPNTableRecord
  3
"ASE-LPNTableRecord"
 90
    32769
 91
        0
280
     0
281
     0
  0
CLASS
  1
PLOTSETTINGS
  2
AcDbPlotSettings
  3
ObjectDBX Classes
 90
        0
 91
        0
280
     0
281
     0
  0
CLASS
  1
VBA_PROJECT
  2
AcDbVbaProject
  3
acad
 90
        0
 91
        0
280
     0
281
     0
  0
CLASS
  1
WIPEOUT
  2
AcDbWipeout
  3
WipeOut|AutoCAD Express Tool|expresstools@autodesk.com
 90
    32895
 91
        0
280
     0
281
     1
  0
CLASS
  1
WIPEOUTVARIABLES
  2
AcDbWipeoutVariables
  3
WipeOut|AutoCAD Express Tool|expresstools@autodesk.com
 90
    32768
 91
        0
280
     0
281
     0
  0
CLASS
  1
RTEXT
  2
RText
  3
RText|AutoCAD Express Tool|expresstools@autodesk.com
 90
    32768
 91
        0
280
     0
281
     1
  0
CLASS
  1
ARCALIGNEDTEXT
  2
AcDbArcAlignedText
  3
ATEXT|AutoCAD Express Tool|expresstools@autodesk.com
 90
    32768
 91
        0
280
     0
281
     1
  0
ENDSEC
  0
SECTION
  2
TABLES
  0
TABLE
  2
VPORT
  5
777
100
AcDbSymbolTable
 70
     1
  0
VPORT
  5
778
100
AcDbSymbolTableRecord
100
AcDbViewportTableRecord
  2
*ACTIVE
 70
     0
 10
0.000000
 20
0.000000
 11
1.000000
 21
1.000000
 12
50.000000
 22
50.000000
 13
0.000000
 23
0.000000
 14
1.000000
 24
1.000000
 15
10.000000
 25
10.000000
 16
0.000000
 26
0.000000
 36
1.000000
 17
0.000000
 27
0.000000
 37
0.000000
 40
100.000000
 41
1.387409
 42
50.000000
 43
0.000000
 44
0.000000
 50
0.000000
 51
0.000000
 71
     0
 72
   100
 73
     1
 74
     1
 75
     0
 76
     0
 77
     0
 78
     0
  0
ENDTAB
  0
TABLE
  2
LTYPE
  5
779
330
0
100
AcDbSymbolTable
 70
     9
  0
LTYPE
  5
77A
330
779
100
AcDbSymbolTableRecord
100
AcDbLinetypeTableRecord
  2
ByBlock
 70
     0
  3

 72
    65
 73
     0
 40
0.000000
  0
LTYPE
  5
77B
330
779
100
AcDbSymbolTableRecord
100
AcDbLinetypeTableRecord
  2
ByLayer
 70
     0
  3

 72
    65
 73
     0
 40
0.000000
  0
LTYPE
  5
77C
330
779
100
AcDbSymbolTableRecord
100
AcDbLinetypeTableRecord
  2
CONTINUOUS
 70
     0
  3
Solid line
 72
    65
 73
     0
 40
0.000000
  0
LTYPE
  5
77D
330
779
100
AcDbSymbolTableRecord
100
AcDbLinetypeTableRecord
  2
HIDDEN
 70
     0
  3
_ _ _ _ _ _ _ _ _ _ _ _ _ _ _ _ _ _ _ _ _ _ _
 72
    65
 73
     2
 40
0.375000
 49
0.250000
 74
     0
 49
-0.125000
 74
     0
  0
LTYPE
  5
77E
330
779
100
AcDbSymbolTableRecord
100
AcDbLinetypeTableRecord
  2
DOT
 70
     0
  3
...............................................
 72
    65
 73
     2
 40
0.250000
 49
0.000000
 74
     0
 49
-0.250000
 74
     0
  0
LTYPE
  5
77F
330
779
100
AcDbSymbolTableRecord
100
AcDbLinetypeTableRecord
  2
DASHED
 70
     0
  3
__ __ __ __ __ __ __ __ __ __ __ __ __ __ __ 
 72
    65
 73
     2
 40
0.750000
 49
0.500000
 74
     0
 49
-0.250000
 74
     0
  0
LTYPE
  5
780
330
779
100
AcDbSymbolTableRecord
100
AcDbLinetypeTableRecord
  2
DIVIDE
 70
     0
  3
__ . . __ . . __ . . __ . . __ . . __ . . __
 72
    65
 73
     6
 40
1.250000
 49
0.500000
 74
     0
 49
-0.250000
 74
     0
 49
0.000000
 74
     0
 49
-0.250000
 74
     0
 49
0.000000
 74
     0
 49
-0.250000
 74
     0
  0
LTYPE
  5
781
330
779
100
AcDbSymbolTableRecord
100
AcDbLinetypeTableRecord
  2
DASHDOT
 70
     0
  3
__ . __ . __ . __ . __ . __ . __ . __ . __ . __
 72
    65
 73
     4
 40
1.000000
 49
0.500000
 74
     0
 49
-0.250000
 74
     0
 49
0.000000
 74
     0
 49
-0.250000
 74
     0
  0
LTYPE
  5
782
330
779
100
AcDbSymbolTableRecord
100
AcDbLinetypeTableRecord
  2
BORDER
 70
     0
  3
__ __ . __ __ . __ __ . __ __ . __ __ . __ __
 72
    65
 73
     6
 40
1.750000
 49
0.500000
 74
     0
 49
-0.250000
 74
     0
 49
0.500000
 74
     0
 49
-0.250000
 74
     0
 49
0.000000
 74
     0
 49
-0.250000
 74
     0
  0
LTYPE
  5
783
330
779
100
AcDbSymbolTableRecord
100
AcDbLinetypeTableRecord
  2
CENTER
 70
     0
  3
____ _ ____ _ ____ _ ____ _ ____ _ ____ _ ____
 72
    65
 73
     4
 40
2.000000
 49
1.250000
 74
     0
 49
-0.250000
 74
     0
 49
0.250000
 74
     0
 49
-0.250000
 74
     0
  0
LTYPE
  5
784
330
779
100
AcDbSymbolTableRecord
100
AcDbLinetypeTableRecord
  2
PHANTOM
 70
     0
  3
_____ _ _ _____ _ _ _____ _ _ _____ _ _ ____
 72
    65
 73
     6
 40
2.500000
 49
1.250000
 74
     0
 49
-0.250000
 74
     0
 49
0.250000
 74
     0
 49
-0.250000
 74
     0
 49
0.250000
 74
     0
 49
-0.250000
 74
     0
  0
ENDTAB
  0
TABLE
  2
LAYER
  5
785
100
AcDbSymbolTable
 70
     3
  0
LAYER
  5
786
100
AcDbSymbolTableRecord
100
AcDbLayerTableRecord
  2
0
 70
     0
 62
     7
  6
CONTINUOUS
370
    -3
390
     0
  0
LAYER
  5
787
100
AcDbSymbolTableRecord
100
AcDbLayerTableRecord
  2
SCHRAFF
 70
     0
 62
     7
  6
CONTINUOUS
370
    -3
390
     0
  0
LAYER
  5
788
100
AcDbSymbolTableRecord
100
AcDbLayerTableRecord
  2
Detail
 70
     0
 62
     7
  6
CONTINUOUS
370
    -3
390
     0
  0
ENDTAB
  0
TABLE
  2
STYLE
  5
789
100
AcDbSymbolTable
 70
     2
  0
STYLE
  5
201
100
AcDbSymbolTableRecord
100
AcDbTextStyleTableRecord
  2
STANDARD
 70
     0
 40
0.000000
 41
1.000000
 50
0.000000
 71
     0
 42
3.500000
  3
txt
  4

  0
STYLE
  5
36F
100
AcDbSymbolTableRecord
100
AcDbTextStyleTableRecord
  2
Arial
 70
     0
 40
0.000000
 41
1.000000
 50
0.000000
 71
     0
 42
3.500000
  3
Arial.ttf
  4

1001
ACAD
1000
Arial
1071
     0
  0
ENDTAB
  0
TABLE
  2
DIMSTYLE
  5
78A
100
AcDbSymbolTable
 70
     0
100
AcDbDimStyleTable
  0
ENDTAB
  0
TABLE
  2
VIEW
  5
78B
100
AcDbSymbolTable
 70
     0
  0
ENDTAB
  0
TABLE
  2
UCS
  5
78C
100
AcDbSymbolTable
 70
     0
  0
ENDTAB
  0
TABLE
  2
APPID
  5
78D
100
AcDbSymbolTable
 70
     1
  0
APPID
  5
78E
100
AcDbSymbolTableRecord
100
AcDbRegAppTableRecord
  2
ACAD
 70
     0
  0
ENDTAB
  0
TABLE
  2
BLOCK_RECORD
  5
78F
100
AcDbSymbolTable
 70
    99
  0
BLOCK_RECORD
  5
202
102
{ACAD_XDICTIONARY
360
203
102
}
100
AcDbSymbolTableRecord
100
AcDbBlockTableRecord
  2
*Model_Space
  0
BLOCK_RECORD
  5
790
100
AcDbSymbolTableRecord
100
AcDbBlockTableRecord
  2
*Paper_Space
  0
BLOCK_RECORD
  5
791
100
AcDbSymbolTableRecord
100
AcDbBlockTableRecord
  2
*Paper_Space0
  0
BLOCK_RECORD
  5
792
100
AcDbSymbolTableRecord
100
AcDbBlockTableRecord
  2
B
  0
BLOCK_RECORD
  5
793
100
AcDbSymbolTableRecord
100
AcDbBlockTableRecord
  2
B-2
  0
BLOCK_RECORD
  5
794
100
AcDbSymbolTableRecord
100
AcDbBlockTableRecord
  2
B-3
  0
BLOCK_RECORD
  5
795
100
AcDbSymbolTableRecord
100
AcDbBlockTableRecord
  2
B-4
  0
BLOCK_RECORD
  5
796
100
AcDbSymbolTableRecord
100
AcDbBlockTableRecord
  2
B-5
  0
BLOCK_RECORD
  5
797
100
AcDbSymbolTableRecord
100
AcDbBlockTableRecord
  2
B-6
  0
BLOCK_RECORD
  5
798
100
AcDbSymbolTableRecord
100
AcDbBlockTableRecord
  2
B-7
  0
BLOCK_RECORD
  5
799
100
AcDbSymbolTableRecord
100
AcDbBlockTableRecord
  2
B-8
  0
BLOCK_RECORD
  5
79A
100
AcDbSymbolTableRecord
100
AcDbBlockTableRecord
  2
B-9
  0
BLOCK_RECORD
  5
79B
100
AcDbSymbolTableRecord
100
AcDbBlockTableRecord
  2
B-10
  0
BLOCK_RECORD
  5
79C
100
AcDbSymbolTableRecord
100
AcDbBlockTableRecord
  2
B-11
  0
BLOCK_RECORD
  5
79D
100
AcDbSymbolTableRecord
100
AcDbBlockTableRecord
  2
B-12
  0
BLOCK_RECORD
  5
79E
100
AcDbSymbolTableRecord
100
AcDbBlockTableRecord
  2
B-13
  0
BLOCK_RECORD
  5
79F
100
AcDbSymbolTableRecord
100
AcDbBlockTableRecord
  2
B-14
  0
BLOCK_RECORD
  5
7A0
100
AcDbSymbolTableRecord
100
AcDbBlockTableRecord
  2
B-15
  0
BLOCK_RECORD
  5
7A1
100
AcDbSymbolTableRecord
100
AcDbBlockTableRecord
  2
B-16
  0
BLOCK_RECORD
  5
7A2
100
AcDbSymbolTableRecord
100
AcDbBlockTableRecord
  2
B-17
  0
BLOCK_RECORD
  5
7A3
100
AcDbSymbolTableRecord
100
AcDbBlockTableRecord
  2
B-18
  0
BLOCK_RECORD
  5
7A4
100
AcDbSymbolTableRecord
100
AcDbBlockTableRecord
  2
B-19
  0
BLOCK_RECORD
  5
7A5
100
AcDbSymbolTableRecord
100
AcDbBlockTableRecord
  2
B-20
  0
BLOCK_RECORD
  5
7A6
100
AcDbSymbolTableRecord
100
AcDbBlockTableRecord
  2
B-21
  0
BLOCK_RECORD
  5
7A7
100
AcDbSymbolTableRecord
100
AcDbBlockTableRecord
  2
B-22
  0
BLOCK_RECORD
  5
7A8
100
AcDbSymbolTableRecord
100
AcDbBlockTableRecord
  2
B-23
  0
BLOCK_RECORD
  5
7A9
100
AcDbSymbolTableRecord
100
AcDbBlockTableRecord
  2
B-24
  0
BLOCK_RECORD
  5
7AA
100
AcDbSymbolTableRecord
100
AcDbBlockTableRecord
  2
B-25
  0
BLOCK_RECORD
  5
7AB
100
AcDbSymbolTableRecord
100
AcDbBlockTableRecord
  2
B-26
  0
BLOCK_RECORD
  5
7AC
100
AcDbSymbolTableRecord
100
AcDbBlockTableRecord
  2
B-27
  0
BLOCK_RECORD
  5
7AD
100
AcDbSymbolTableRecord
100
AcDbBlockTableRecord
  2
B-28
  0
BLOCK_RECORD
  5
7AE
100
AcDbSymbolTableRecord
100
AcDbBlockTableRecord
  2
B-29
  0
BLOCK_RECORD
  5
7AF
100
AcDbSymbolTableRecord
100
AcDbBlockTableRecord
  2
B-30
  0
BLOCK_RECORD
  5
7B0
100
AcDbSymbolTableRecord
100
AcDbBlockTableRecord
  2
B-31
  0
BLOCK_RECORD
  5
7B1
100
AcDbSymbolTableRecord
100
AcDbBlockTableRecord
  2
B-32
  0
BLOCK_RECORD
  5
7B2
100
AcDbSymbolTableRecord
100
AcDbBlockTableRecord
  2
B-33
  0
BLOCK_RECORD
  5
7B3
100
AcDbSymbolTableRecord
100
AcDbBlockTableRecord
  2
B-34
  0
BLOCK_RECORD
  5
7B4
100
AcDbSymbolTableRecord
100
AcDbBlockTableRecord
  2
B-35
  0
BLOCK_RECORD
  5
7B5
100
AcDbSymbolTableRecord
100
AcDbBlockTableRecord
  2
B-36
  0
BLOCK_RECORD
  5
7B6
100
AcDbSymbolTableRecord
100
AcDbBlockTableRecord
  2
B-37
  0
BLOCK_RECORD
  5
7B7
100
AcDbSymbolTableRecord
100
AcDbBlockTableRecord
  2
B-38
  0
BLOCK_RECORD
  5
7B8
100
AcDbSymbolTableRecord
100
AcDbBlockTableRecord
  2
B-39
  0
BLOCK_RECORD
  5
7B9
100
AcDbSymbolTableRecord
100
AcDbBlockTableRecord
  2
B-40
  0
BLOCK_RECORD
  5
7BA
100
AcDbSymbolTableRecord
100
AcDbBlockTableRecord
  2
B-41
  0
BLOCK_RECORD
  5
7BB
100
AcDbSymbolTableRecord
100
AcDbBlockTableRecord
  2
B-42
  0
BLOCK_RECORD
  5
7BC
100
AcDbSymbolTableRecord
100
AcDbBlockTableRecord
  2
B-43
  0
BLOCK_RECORD
  5
7BD
100
AcDbSymbolTableRecord
100
AcDbBlockTableRecord
  2
B-44
  0
BLOCK_RECORD
  5
7BE
100
AcDbSymbolTableRecord
100
AcDbBlockTableRecord
  2
B-45
  0
BLOCK_RECORD
  5
7BF
100
AcDbSymbolTableRecord
100
AcDbBlockTableRecord
  2
B-46
  0
BLOCK_RECORD
  5
7C0
100
AcDbSymbolTableRecord
100
AcDbBlockTableRecord
  2
B-47
  0
BLOCK_RECORD
  5
7C1
100
AcDbSymbolTableRecord
100
AcDbBlockTableRecord
  2
B-48
  0
BLOCK_RECORD
  5
7C2
100
AcDbSymbolTableRecord
100
AcDbBlockTableRecord
  2
B-49
  0
BLOCK_RECORD
  5
7C3
100
AcDbSymbolTableRecord
100
AcDbBlockTableRecord
  2
B-50
  0
BLOCK_RECORD
  5
7C4
100
AcDbSymbolTableRecord
100
AcDbBlockTableRecord
  2
B-51
  0
BLOCK_RECORD
  5
7C5
100
AcDbSymbolTableRecord
100
AcDbBlockTableRecord
  2
B-52
  0
BLOCK_RECORD
  5
7C6
100
AcDbSymbolTableRecord
100
AcDbBlockTableRecord
  2
B-53
  0
BLOCK_RECORD
  5
7C7
100
AcDbSymbolTableRecord
100
AcDbBlockTableRecord
  2
B-54
  0
BLOCK_RECORD
  5
7C8
100
AcDbSymbolTableRecord
100
AcDbBlockTableRecord
  2
B-55
  0
BLOCK_RECORD
  5
7C9
100
AcDbSymbolTableRecord
100
AcDbBlockTableRecord
  2
B-56
  0
BLOCK_RECORD
  5
7CA
100
AcDbSymbolTableRecord
100
AcDbBlockTableRecord
  2
B-57
  0
BLOCK_RECORD
  5
7CB
100
AcDbSymbolTableRecord
100
AcDbBlockTableRecord
  2
B-58
  0
BLOCK_RECORD
  5
7CC
100
AcDbSymbolTableRecord
100
AcDbBlockTableRecord
  2
B-59
  0
BLOCK_RECORD
  5
7CD
100
AcDbSymbolTableRecord
100
AcDbBlockTableRecord
  2
B-60
  0
BLOCK_RECORD
  5
7CE
100
AcDbSymbolTableRecord
100
AcDbBlockTableRecord
  2
B-61
  0
BLOCK_RECORD
  5
7CF
100
AcDbSymbolTableRecord
100
AcDbBlockTableRecord
  2
B-62
  0
BLOCK_RECORD
  5
7D0
100
AcDbSymbolTableRecord
100
AcDbBlockTableRecord
  2
B-63
  0
BLOCK_RECORD
  5
7D1
100
AcDbSymbolTableRecord
100
AcDbBlockTableRecord
  2
B-64
  0
BLOCK_RECORD
  5
7D2
100
AcDbSymbolTableRecord
100
AcDbBlockTableRecord
  2
B-65
  0
BLOCK_RECORD
  5
7D3
100
AcDbSymbolTableRecord
100
AcDbBlockTableRecord
  2
B-66
  0
BLOCK_RECORD
  5
7D4
100
AcDbSymbolTableRecord
100
AcDbBlockTableRecord
  2
B-67
  0
BLOCK_RECORD
  5
7D5
100
AcDbSymbolTableRecord
100
AcDbBlockTableRecord
  2
B-68
  0
BLOCK_RECORD
  5
7D6
100
AcDbSymbolTableRecord
100
AcDbBlockTableRecord
  2
B-70
  0
BLOCK_RECORD
  5
7D7
100
AcDbSymbolTableRecord
100
AcDbBlockTableRecord
  2
B-71
  0
BLOCK_RECORD
  5
7D8
100
AcDbSymbolTableRecord
100
AcDbBlockTableRecord
  2
B-72
  0
BLOCK_RECORD
  5
7D9
100
AcDbSymbolTableRecord
100
AcDbBlockTableRecord
  2
B-73
  0
BLOCK_RECORD
  5
7DA
100
AcDbSymbolTableRecord
100
AcDbBlockTableRecord
  2
B-74
  0
BLOCK_RECORD
  5
7DB
100
AcDbSymbolTableRecord
100
AcDbBlockTableRecord
  2
B-75
  0
BLOCK_RECORD
  5
7DC
100
AcDbSymbolTableRecord
100
AcDbBlockTableRecord
  2
B-76
  0
BLOCK_RECORD
  5
7DD
100
AcDbSymbolTableRecord
100
AcDbBlockTableRecord
  2
B-77
  0
BLOCK_RECORD
  5
7DE
100
AcDbSymbolTableRecord
100
AcDbBlockTableRecord
  2
B-78
  0
BLOCK_RECORD
  5
7DF
100
AcDbSymbolTableRecord
100
AcDbBlockTableRecord
  2
B-79
  0
BLOCK_RECORD
  5
7E0
100
AcDbSymbolTableRecord
100
AcDbBlockTableRecord
  2
B-80
  0
BLOCK_RECORD
  5
7E1
100
AcDbSymbolTableRecord
100
AcDbBlockTableRecord
  2
B-81
  0
BLOCK_RECORD
  5
7E2
100
AcDbSymbolTableRecord
100
AcDbBlockTableRecord
  2
B-82
  0
BLOCK_RECORD
  5
7E3
100
AcDbSymbolTableRecord
100
AcDbBlockTableRecord
  2
B-83
  0
BLOCK_RECORD
  5
7E4
100
AcDbSymbolTableRecord
100
AcDbBlockTableRecord
  2
B-84
  0
BLOCK_RECORD
  5
7E5
100
AcDbSymbolTableRecord
100
AcDbBlockTableRecord
  2
B-85
  0
BLOCK_RECORD
  5
7E6
100
AcDbSymbolTableRecord
100
AcDbBlockTableRecord
  2
B-87
  0
BLOCK_RECORD
  5
7E7
100
AcDbSymbolTableRecord
100
AcDbBlockTableRecord
  2
B-88
  0
BLOCK_RECORD
  5
7E8
100
AcDbSymbolTableRecord
100
AcDbBlockTableRecord
  2
B-89
  0
BLOCK_RECORD
  5
7E9
100
AcDbSymbolTableRecord
100
AcDbBlockTableRecord
  2
B-90
  0
BLOCK_RECORD
  5
7EA
100
AcDbSymbolTableRecord
100
AcDbBlockTableRecord
  2
B-91
  0
BLOCK_RECORD
  5
7EB
100
AcDbSymbolTableRecord
100
AcDbBlockTableRecord
  2
B-92
  0
BLOCK_RECORD
  5
7EC
100
AcDbSymbolTableRecord
100
AcDbBlockTableRecord
  2
B-93
  0
BLOCK_RECORD
  5
7ED
100
AcDbSymbolTableRecord
100
AcDbBlockTableRecord
  2
B-94
  0
BLOCK_RECORD
  5
7EE
100
AcDbSymbolTableRecord
100
AcDbBlockTableRecord
  2
B-95
  0
BLOCK_RECORD
  5
7EF
100
AcDbSymbolTableRecord
100
AcDbBlockTableRecord
  2
B-96
  0
BLOCK_RECORD
  5
7F0
100
AcDbSymbolTableRecord
100
AcDbBlockTableRecord
  2
B-97
  0
BLOCK_RECORD
  5
7F1
100
AcDbSymbolTableRecord
100
AcDbBlockTableRecord
  2
B-98
  0
ENDTAB
  0
ENDSEC
  0
SECTION
  2
BLOCKS
  0
BLOCK
  5
204
100
AcDbEntity
  8
0
100
AcDbBlockBegin
  2
*Model_Space
 70
     0
 10
0.000000
 20
0.000000
 30
0.000000
  3
*Model_Space
  1

  0
ENDBLK
  5
205
100
AcDbEntity
  8
0
100
AcDbBlockEnd
  0
BLOCK
  5
206
100
AcDbEntity
 67
     1
  8
0
100
AcDbBlockBegin
  2
*Paper_Space
 70
     0
 10
0.000000
 20
0.000000
 30
0.000000
  3
*Paper_Space
  1

  0
ENDBLK
  5
207
100
AcDbEntity
 67
     1
  8
0
100
AcDbBlockEnd
  0
BLOCK
  5
208
100
AcDbEntity
 67
     1
  8
0
100
AcDbBlockBegin
  2
*Paper_Space0
 70
     0
 10
0.000000
 20
0.000000
 30
0.000000
  3
*Paper_Space0
  1

  0
ENDBLK
  5
209
100
AcDbEntity
 67
     1
  8
0
100
AcDbBlockEnd
  0
BLOCK
  5
20A
100
AcDbEntity
  8
SCHRAFF
100
AcDbBlockBegin
  2
B
 70
    66
 10
0.000000
 20
0.000000
 30
0.000000
  0
HATCH
  5
20B
100
AcDbEntity
  8
SCHRAFF
 62
     8
440
     0
100
AcDbHatch
 10
0.000000
 20
0.000000
 30
0.000000
210
0.000000
220
0.000000
230
1.000000
  2
SOLID
 70
     1
 71
     1
 91
     1
 92
    18
 72
     1
 73
     0
 93
     5
 10
22.499982
 20
-78.749922
 42
-0.400000
 10
22.499982
 20
-68.749922
 42
0.000000
 10
9.499982
 20
-68.749922
 42
-1.000000
 10
9.499982
 20
-78.749922
 42
0.000000
 10
22.499982
 20
-78.749922
 42
0.000000
 97
     0
 75
     0
 76
     1
 98
     0
  0
ENDBLK
  5
20C
100
AcDbEntity
  8
0
100
AcDbBlockEnd
  0
BLOCK
  5
20D
100
AcDbEntity
  8
SCHRAFF
100
AcDbBlockBegin
  2
B-2
 70
    66
 10
0.000000
 20
0.000000
 30
0.000000
  0
HATCH
  5
20E
100
AcDbEntity
  8
SCHRAFF
 62
     9
440
     0
100
AcDbHatch
 10
0.000000
 20
0.000000
 30
0.000000
210
0.000000
220
0.000000
230
1.000000
  2
SOLID
 70
     1
 71
     1
 91
     1
 92
    18
 72
     1
 73
     0
 93
     3
 10
9.499982
 20
-78.749922
 42
1.000000
 10
9.499982
 20
-68.749922
 42
1.000000
 10
9.499982
 20
-78.749922
 42
0.000000
 97
     0
 75
     0
 76
     1
 98
     0
  0
ENDBLK
  5
20F
100
AcDbEntity
  8
0
100
AcDbBlockEnd
  0
BLOCK
  5
210
100
AcDbEntity
  8
SCHRAFF
100
AcDbBlockBegin
  2
B-3
 70
    66
 10
0.000000
 20
0.000000
 30
0.000000
  0
HATCH
  5
211
100
AcDbEntity
  8
SCHRAFF
 62
     8
440
     0
100
AcDbHatch
 10
0.000000
 20
0.000000
 30
0.000000
210
0.000000
220
0.000000
230
1.000000
  2
SOLID
 70
     1
 71
     1
 91
     1
 92
    18
 72
     1
 73
     0
 93
     5
 10
14.499982
 20
129.250078
 42
0.000000
 10
14.499982
 20
136.250078
 42
-0.500000
 10
8.499982
 20
136.250078
 42
0.000000
 10
8.499982
 20
129.250078
 42
0.000000
 10
14.499982
 20
129.250078
 42
0.000000
 97
     0
 75
     0
 76
     1
 98
     0
  0
ENDBLK
  5
212
100
AcDbEntity
  8
0
100
AcDbBlockEnd
  0
BLOCK
  5
213
100
AcDbEntity
  8
SCHRAFF
100
AcDbBlockBegin
  2
B-4
 70
    66
 10
0.000000
 20
0.000000
 30
0.000000
  0
HATCH
  5
214
100
AcDbEntity
  8
SCHRAFF
 62
     9
440
     0
100
AcDbHatch
 10
0.000000
 20
0.000000
 30
0.000000
210
0.000000
220
0.000000
230
1.000000
  2
SOLID
 70
     1
 71
     1
 91
     1
 92
    18
 72
     1
 73
     0
 93
     5
 10
8.499982
 20
-68.749922
 42
0.000000
 10
8.499982
 20
134.250078
 42
0.000000
 10
2.499982
 20
134.250078
 42
0.000000
 10
2.499982
 20
-68.749922
 42
0.000000
 10
8.499982
 20
-68.749922
 42
0.000000
 97
     0
 75
     0
 76
     1
 98
     0
  0
ENDBLK
  5
215
100
AcDbEntity
  8
0
100
AcDbBlockEnd
  0
BLOCK
  5
216
100
AcDbEntity
  8
SCHRAFF
100
AcDbBlockBegin
  2
B-5
 70
    66
 10
0.000000
 20
0.000000
 30
0.000000
  0
IMAGE
  5
217
100
AcDbEntity
  8
SCHRAFF
100
AcDbRasterImage
 10
140.969928
 20
-349.249941
 30
0.000000
 11
0.204938
 21
-0.000000
 31
0.000000
 12
-0.000000
 22
0.204938
 32
-0.000000
 13
395.000000
 23
405.000000
340
218
 70
     7
280
     0
281
    50
282
    50
283
     0
360
219
 71
     1
 91
     2
 14
-0.500000
 24
-0.500000
 14
394.500000
 24
404.500000
  0
ENDBLK
  5
21A
100
AcDbEntity
  8
0
100
AcDbBlockEnd
  0
BLOCK
  5
21B
100
AcDbEntity
  8
SCHRAFF
100
AcDbBlockBegin
  2
B-6
 70
    66
 10
0.000000
 20
0.000000
 30
0.000000
  0
HATCH
  5
21C
100
AcDbEntity
  8
SCHRAFF
 62
   254
440
     0
100
AcDbHatch
 10
0.000000
 20
0.000000
 30
0.000000
210
0.000000
220
0.000000
230
1.000000
  2
SOLID
 70
     1
 71
     1
 91
     1
 92
    18
 72
     1
 73
     0
 93
     5
 10
-77.500018
 20
50.250078
 42
0.000000
 10
-77.500018
 20
130.250078
 42
0.000000
 10
-79.500018
 20
130.250078
 42
0.000000
 10
-79.500018
 20
50.250078
 42
0.000000
 10
-77.500018
 20
50.250078
 42
0.000000
 97
     0
 75
     0
 76
     1
 98
     0
  0
ENDBLK
  5
21D
100
AcDbEntity
  8
0
100
AcDbBlockEnd
  0
BLOCK
  5
21E
100
AcDbEntity
  8
SCHRAFF
100
AcDbBlockBegin
  2
B-7
 70
    66
 10
0.000000
 20
0.000000
 30
0.000000
  0
HATCH
  5
21F
100
AcDbEntity
  8
SCHRAFF
 62
     9
440
     0
100
AcDbHatch
 10
0.000000
 20
0.000000
 30
0.000000
210
0.000000
220
0.000000
230
1.000000
  2
SOLID
 70
     1
 71
     1
 91
     1
 92
    18
 72
     1
 73
     0
 93
     5
 10
-212.500018
 20
134.250078
 42
0.000000
 10
2.499982
 20
134.250078
 42
0.000000
 10
2.499982
 20
130.250078
 42
0.000000
 10
-212.500018
 20
130.250078
 42
0.000000
 10
-212.500018
 20
134.250078
 42
0.000000
 97
     0
 75
     0
 76
     1
 98
     0
  0
ENDBLK
  5
220
100
AcDbEntity
  8
0
100
AcDbBlockEnd
  0
BLOCK
  5
221
100
AcDbEntity
  8
SCHRAFF
100
AcDbBlockBegin
  2
B-8
 70
    66
 10
0.000000
 20
0.000000
 30
0.000000
  0
HATCH
  5
222
100
AcDbEntity
  8
SCHRAFF
 62
     9
440
     0
100
AcDbHatch
 10
0.000000
 20
0.000000
 30
0.000000
210
0.000000
220
0.000000
230
1.000000
  2
SOLID
 70
     1
 71
     1
 91
     1
 92
    18
 72
     1
 73
     0
 93
     5
 10
10.499982
 20
-68.749922
 42
0.000000
 10
10.499982
 20
130.250078
 42
0.000000
 10
8.499982
 20
130.250078
 42
0.000000
 10
8.499982
 20
-68.749922
 42
0.000000
 10
10.499982
 20
-68.749922
 42
0.000000
 97
     0
 75
     0
 76
     1
 98
     0
  0
HATCH
  5
223
100
AcDbEntity
  8
SCHRAFF
 62
   253
440
     0
100
AcDbHatch
 10
0.000000
 20
0.000000
 30
0.000000
210
0.000000
220
0.000000
230
1.000000
  2
SOLID
 70
     1
 71
     1
 91
     1
 92
    18
 72
     1
 73
     0
 93
     5
 10
10.499982
 20
130.250078
 42
0.000000
 10
10.499982
 20
-68.749922
 42
0.000000
 10
14.499982
 20
-68.749922
 42
0.000000
 10
14.499982
 20
130.250078
 42
0.000000
 10
10.499982
 20
130.250078
 42
0.000000
 97
     0
 75
     0
 76
     1
 98
     0
  0
ENDBLK
  5
224
100
AcDbEntity
  8
0
100
AcDbBlockEnd
  0
BLOCK
  5
225
100
AcDbEntity
  8
Detail
100
AcDbBlockBegin
  2
B-9
 70
    66
 10
0.000000
 20
0.000000
 30
0.000000
  0
LWPOLYLINE
  5
226
100
AcDbEntity
  8
Detail
  6
CONTINUOUS
 62
     6
100
AcDbPolyline
 90
     5
 10
10.499982
 20
-68.749922
 42
0.000000
 10
8.499982
 20
-68.749922
 42
0.000000
 10
8.499982
 20
130.250078
 42
0.000000
 10
10.499982
 20
130.250078
 42
0.000000
 10
10.499982
 20
-68.749922
 42
0.000000
  0
LWPOLYLINE
  5
22C
100
AcDbEntity
  8
Detail
  6
CONTINUOUS
 62
     6
100
AcDbPolyline
 90
     5
 10
10.499982
 20
130.250078
 42
0.000000
 10
14.499982
 20
130.250078
 42
0.000000
 10
14.499982
 20
-68.749922
 42
0.000000
 10
10.499982
 20
-68.749922
 42
0.000000
 10
10.499982
 20
130.250078
 42
0.000000
  0
ENDBLK
  5
232
100
AcDbEntity
  8
0
100
AcDbBlockEnd
  0
BLOCK
  5
233
100
AcDbEntity
  8
SCHRAFF
100
AcDbBlockBegin
  2
B-10
 70
    66
 10
0.000000
 20
0.000000
 30
0.000000
  0
HATCH
  5
234
100
AcDbEntity
  8
SCHRAFF
 62
     9
440
     0
100
AcDbHatch
 10
0.000000
 20
0.000000
 30
0.000000
210
0.000000
220
0.000000
230
1.000000
  2
SOLID
 70
     1
 71
     1
 91
     1
 92
    18
 72
     1
 73
     0
 93
     5
 10
8.499982
 20
-196.249941
 42
0.000000
 10
8.499982
 20
-78.749922
 42
0.000000
 10
2.499982
 20
-78.749922
 42
0.000000
 10
2.499982
 20
-196.249941
 42
0.000000
 10
8.499982
 20
-196.249941
 42
0.000000
 97
     0
 75
     0
 76
     1
 98
     0
  0
ENDBLK
  5
235
100
AcDbEntity
  8
0
100
AcDbBlockEnd
  0
BLOCK
  5
236
100
AcDbEntity
  8
Detail
100
AcDbBlockBegin
  2
B-11
 70
    66
 10
0.000000
 20
0.000000
 30
0.000000
  0
LWPOLYLINE
  5
237
100
AcDbEntity
  8
Detail
  6
CONTINUOUS
 62
     6
100
AcDbPolyline
 90
     4
 10
-212.500018
 20
134.250078
 42
0.000000
 10
2.499982
 20
134.250078
 42
0.000000
 10
2.499982
 20
130.250078
 42
0.000000
 10
-212.500018
 20
130.250078
 42
0.000000
  0
ENDBLK
  5
23C
100
AcDbEntity
  8
0
100
AcDbBlockEnd
  0
BLOCK
  5
23D
100
AcDbEntity
  8
SCHRAFF
100
AcDbBlockBegin
  2
B-12
 70
    66
 10
0.000000
 20
0.000000
 30
0.000000
  0
HATCH
  5
23E
100
AcDbEntity
  8
SCHRAFF
 62
    51
440
     0
100
AcDbHatch
 10
0.000000
 20
0.000000
 30
0.000000
210
0.000000
220
0.000000
230
1.000000
  2
SOLID
 70
     1
 71
     1
 91
     1
 92
    18
 72
     1
 73
     0
 93
     5
 10
-193.500018
 20
110.250078
 42
0.000000
 10
-133.500018
 20
110.250078
 42
0.000000
 10
-133.500018
 20
130.250078
 42
0.000000
 10
-193.500018
 20
130.250078
 42
0.000000
 10
-193.500018
 20
110.250078
 42
0.000000
 97
     0
 75
     0
 76
     1
 98
     0
  0
HATCH
  5
23F
100
AcDbEntity
  8
SCHRAFF
  6
CONTINUOUS
 62
     9
100
AcDbHatch
 10
0.000000
 20
0.000000
 30
0.000000
210
0.000000
220
0.000000
230
1.000000
  2
_U
 70
     0
 71
     1
 91
     1
 92
    18
 72
     1
 73
     0
 93
     5
 10
-133.500018
 20
130.250078
 42
0.000000
 10
-193.500018
 20
130.250078
 42
0.000000
 10
-193.500018
 20
110.250078
 42
0.000000
 10
-133.500018
 20
110.250078
 42
0.000000
 10
-133.500018
 20
130.250078
 42
0.000000
 97
     0
 75
     0
 76
     0
 52
0.000000
 41
1.000000
 77
     0
 78
     1
 53
90.000000
 43
-0.000000
 44
0.000000
 45
-6.875000
 46
0.000000
 79
     0
 98
     0
  0
ENDBLK
  5
240
100
AcDbEntity
  8
0
100
AcDbBlockEnd
  0
BLOCK
  5
241
100
AcDbEntity
  8
SCHRAFF
100
AcDbBlockBegin
  2
B-13
 70
    66
 10
0.000000
 20
0.000000
 30
0.000000
  0
HATCH
  5
242
100
AcDbEntity
  8
SCHRAFF
 62
    21
440
     0
100
AcDbHatch
 10
0.000000
 20
0.000000
 30
0.000000
210
0.000000
220
0.000000
230
1.000000
  2
SOLID
 70
     1
 71
     1
 91
     1
 92
    18
 72
     1
 73
     0
 93
   225
 10
-212.500018
 20
136.625078
 42
0.000000
 10
-212.500018
 20
134.250078
 42
0.000000
 10
8.499982
 20
134.250078
 42
0.000000
 10
8.499982
 20
136.250078
 42
0.000000
 10
7.249982
 20
136.250078
 42
0.000000
 10
6.249982
 20
135.750078
 42
0.000000
 10
5.249982
 20
136.250078
 42
0.000000
 10
4.249982
 20
136.250078
 42
0.000000
 10
3.249982
 20
136.750078
 42
0.000000
 10
2.249982
 20
136.250078
 42
0.000000
 10
1.249982
 20
136.250078
 42
0.000000
 10
0.249982
 20
135.750078
 42
0.000000
 10
-0.750018
 20
136.250078
 42
0.000000
 10
-1.750018
 20
136.250078
 42
0.000000
 10
-2.750018
 20
136.750078
 42
0.000000
 10
-3.750018
 20
136.250078
 42
0.000000
 10
-4.750018
 20
136.250078
 42
0.000000
 10
-5.750018
 20
135.750078
 42
0.000000
 10
-6.750018
 20
136.250078
 42
0.000000
 10
-7.750018
 20
136.250078
 42
0.000000
 10
-8.750018
 20
136.750078
 42
0.000000
 10
-9.750018
 20
136.250078
 42
0.000000
 10
-10.750018
 20
136.250078
 42
0.000000
 10
-11.750018
 20
135.750078
 42
0.000000
 10
-12.750018
 20
136.250078
 42
0.000000
 10
-13.742351
 20
136.250078
 42
0.000000
 10
-14.750018
 20
136.750078
 42
0.000000
 10
-15.750018
 20
136.250078
 42
0.000000
 10
-16.750018
 20
136.250078
 42
0.000000
 10
-17.750018
 20
135.750078
 42
0.000000
 10
-18.750018
 20
136.250078
 42
0.000000
 10
-19.750018
 20
136.250078
 42
0.000000
 10
-20.750018
 20
136.750078
 42
0.000000
 10
-21.750018
 20
136.250078
 42
0.000000
 10
-22.750018
 20
136.250078
 42
0.000000
 10
-23.750018
 20
135.750078
 42
0.000000
 10
-24.750018
 20
136.250078
 42
0.000000
 10
-25.750018
 20
136.250078
 42
0.000000
 10
-26.750018
 20
136.750078
 42
0.000000
 10
-27.750018
 20
136.250078
 42
0.000000
 10
-28.750018
 20
136.250078
 42
0.000000
 10
-29.750018
 20
135.750078
 42
0.000000
 10
-30.750018
 20
136.250078
 42
0.000000
 10
-31.750018
 20
136.250078
 42
0.000000
 10
-32.750018
 20
136.750078
 42
0.000000
 10
-33.750018
 20
136.250078
 42
0.000000
 10
-34.750018
 20
136.250078
 42
0.000000
 10
-35.750018
 20
135.750078
 42
0.000000
 10
-36.750018
 20
136.250078
 42
0.000000
 10
-37.750018
 20
136.250078
 42
0.000000
 10
-38.750018
 20
136.750078
 42
0.000000
 10
-39.750018
 20
136.250078
 42
0.000000
 10
-40.750018
 20
136.250078
 42
0.000000
 10
-41.750018
 20
135.750078
 42
0.000000
 10
-42.750018
 20
136.250078
 42
0.000000
 10
-43.750018
 20
136.250078
 42
0.000000
 10
-44.750018
 20
136.750078
 42
0.000000
 10
-45.750018
 20
136.250078
 42
0.000000
 10
-46.750018
 20
136.250078
 42
0.000000
 10
-47.750018
 20
135.750078
 42
0.000000
 10
-48.750018
 20
136.250078
 42
0.000000
 10
-49.750018
 20
136.250078
 42
0.000000
 10
-50.750018
 20
136.750078
 42
0.000000
 10
-51.750018
 20
136.250078
 42
0.000000
 10
-52.750018
 20
136.250078
 42
0.000000
 10
-53.750018
 20
135.750078
 42
0.000000
 10
-54.750018
 20
136.250078
 42
0.000000
 10
-55.750018
 20
136.250078
 42
0.000000
 10
-56.750018
 20
136.750078
 42
0.000000
 10
-57.750018
 20
136.250078
 42
0.000000
 10
-58.750018
 20
136.250078
 42
0.000000
 10
-59.750018
 20
135.750078
 42
0.000000
 10
-60.750018
 20
136.250078
 42
0.000000
 10
-61.750018
 20
136.250078
 42
0.000000
 10
-62.750018
 20
136.750078
 42
0.000000
 10
-63.750018
 20
136.250078
 42
0.000000
 10
-64.750018
 20
136.250078
 42
0.000000
 10
-65.750018
 20
135.750078
 42
0.000000
 10
-66.750018
 20
136.250078
 42
0.000000
 10
-67.750018
 20
136.250078
 42
0.000000
 10
-68.750018
 20
136.750078
 42
0.000000
 10
-69.750018
 20
136.250078
 42
0.000000
 10
-70.750018
 20
136.250078
 42
0.000000
 10
-71.750018
 20
135.750078
 42
0.000000
 10
-72.750018
 20
136.250078
 42
0.000000
 10
-73.750018
 20
136.250078
 42
0.000000
 10
-74.750018
 20
136.750078
 42
0.000000
 10
-75.750018
 20
136.250078
 42
0.000000
 10
-76.750018
 20
136.250078
 42
0.000000
 10
-77.750018
 20
135.750078
 42
0.000000
 10
-78.750018
 20
136.250078
 42
0.000000
 10
-79.750018
 20
136.250078
 42
0.000000
 10
-80.750018
 20
136.750078
 42
0.000000
 10
-81.750018
 20
136.250078
 42
0.000000
 10
-82.750018
 20
136.250078
 42
0.000000
 10
-83.750018
 20
135.750078
 42
0.000000
 10
-84.750018
 20
136.250078
 42
0.000000
 10
-85.750018
 20
136.250078
 42
0.000000
 10
-86.750018
 20
136.750078
 42
0.000000
 10
-87.750018
 20
136.250078
 42
0.000000
 10
-88.750018
 20
136.250078
 42
0.000000
 10
-89.750018
 20
135.750078
 42
0.000000
 10
-90.750018
 20
136.250078
 42
0.000000
 10
-91.750018
 20
136.250078
 42
0.000000
 10
-92.750018
 20
136.750078
 42
0.000000
 10
-93.750018
 20
136.250078
 42
0.000000
 10
-94.750018
 20
136.250078
 42
0.000000
 10
-95.750018
 20
135.750078
 42
0.000000
 10
-96.750018
 20
136.250078
 42
0.000000
 10
-97.750018
 20
136.250078
 42
0.000000
 10
-98.750018
 20
136.750078
 42
0.000000
 10
-99.750018
 20
136.250078
 42
0.000000
 10
-100.750018
 20
136.250078
 42
0.000000
 10
-101.750018
 20
135.750078
 42
0.000000
 10
-102.750018
 20
136.250078
 42
0.000000
 10
-103.750018
 20
136.250078
 42
0.000000
 10
-104.750018
 20
136.750078
 42
0.000000
 10
-105.750018
 20
136.250078
 42
0.000000
 10
-106.750018
 20
136.250078
 42
0.000000
 10
-107.750018
 20
135.750078
 42
0.000000
 10
-108.750018
 20
136.250078
 42
0.000000
 10
-109.750018
 20
136.250078
 42
0.000000
 10
-110.750018
 20
136.750078
 42
0.000000
 10
-111.750018
 20
136.250078
 42
0.000000
 10
-112.750018
 20
136.250078
 42
0.000000
 10
-113.750018
 20
135.750078
 42
0.000000
 10
-114.750018
 20
136.250078
 42
0.000000
 10
-115.750018
 20
136.250078
 42
0.000000
 10
-116.750018
 20
136.750078
 42
0.000000
 10
-117.750018
 20
136.250078
 42
0.000000
 10
-118.750018
 20
136.250078
 42
0.000000
 10
-119.750018
 20
135.750078
 42
0.000000
 10
-120.750018
 20
136.250078
 42
0.000000
 10
-121.750018
 20
136.250078
 42
0.000000
 10
-122.750018
 20
136.750078
 42
0.000000
 10
-123.750018
 20
136.250078
 42
0.000000
 10
-124.750018
 20
136.250078
 42
0.000000
 10
-125.750018
 20
135.750078
 42
0.000000
 10
-126.750018
 20
136.250078
 42
0.000000
 10
-127.750018
 20
136.250078
 42
0.000000
 10
-128.750018
 20
136.750078
 42
0.000000
 10
-129.750018
 20
136.250078
 42
0.000000
 10
-130.750018
 20
136.250078
 42
0.000000
 10
-131.750018
 20
135.750078
 42
0.000000
 10
-132.750018
 20
136.250078
 42
0.000000
 10
-133.750018
 20
136.250078
 42
0.000000
 10
-134.750018
 20
136.750078
 42
0.000000
 10
-135.750018
 20
136.250078
 42
0.000000
 10
-136.750018
 20
136.250078
 42
0.000000
 10
-137.750018
 20
135.750078
 42
0.000000
 10
-138.750018
 20
136.250078
 42
0.000000
 10
-139.750018
 20
136.250078
 42
0.000000
 10
-140.750018
 20
136.750078
 42
0.000000
 10
-141.750018
 20
136.250078
 42
0.000000
 10
-142.750018
 20
136.250078
 42
0.000000
 10
-143.750018
 20
135.750078
 42
0.000000
 10
-144.750018
 20
136.250078
 42
0.000000
 10
-145.750018
 20
136.250078
 42
0.000000
 10
-146.750018
 20
136.750078
 42
0.000000
 10
-147.750018
 20
136.250078
 42
0.000000
 10
-148.750018
 20
136.250078
 42
0.000000
 10
-149.750018
 20
135.750078
 42
0.000000
 10
-150.750018
 20
136.250078
 42
0.000000
 10
-151.742351
 20
136.250078
 42
0.000000
 10
-152.750018
 20
136.750078
 42
0.000000
 10
-153.750018
 20
136.250078
 42
0.000000
 10
-154.750018
 20
136.250078
 42
0.000000
 10
-155.750018
 20
135.750078
 42
0.000000
 10
-156.750018
 20
136.250078
 42
0.000000
 10
-157.750018
 20
136.250078
 42
0.000000
 10
-158.750018
 20
136.750078
 42
0.000000
 10
-159.750018
 20
136.250078
 42
0.000000
 10
-160.750018
 20
136.250078
 42
0.000000
 10
-161.750018
 20
135.750078
 42
0.000000
 10
-162.750018
 20
136.250078
 42
0.000000
 10
-163.750018
 20
136.250078
 42
0.000000
 10
-164.750018
 20
136.750078
 42
0.000000
 10
-165.750018
 20
136.250078
 42
0.000000
 10
-166.750018
 20
136.250078
 42
0.000000
 10
-167.750018
 20
135.750078
 42
0.000000
 10
-168.750018
 20
136.250078
 42
0.000000
 10
-169.750018
 20
136.250078
 42
0.000000
 10
-170.750018
 20
136.750078
 42
0.000000
 10
-171.750018
 20
136.250078
 42
0.000000
 10
-172.750018
 20
136.250078
 42
0.000000
 10
-173.750018
 20
135.750078
 42
0.000000
 10
-174.750018
 20
136.250078
 42
0.000000
 10
-175.750018
 20
136.250078
 42
0.000000
 10
-176.750018
 20
136.750078
 42
0.000000
 10
-177.750018
 20
136.250078
 42
0.000000
 10
-178.750018
 20
136.250078
 42
0.000000
 10
-179.750018
 20
135.750078
 42
0.000000
 10
-180.750018
 20
136.250078
 42
0.000000
 10
-181.750018
 20
136.250078
 42
0.000000
 10
-182.750018
 20
136.750078
 42
0.000000
 10
-183.741222
 20
136.254476
 42
0.000000
 10
-184.750018
 20
136.250078
 42
0.000000
 10
-185.750018
 20
135.750078
 42
0.000000
 10
-186.750018
 20
136.250078
 42
0.000000
 10
-187.750018
 20
136.250078
 42
0.000000
 10
-188.750018
 20
136.750078
 42
0.000000
 10
-189.750018
 20
136.250078
 42
0.000000
 10
-190.750018
 20
136.250078
 42
0.000000
 10
-191.750018
 20
135.750078
 42
0.000000
 10
-192.750018
 20
136.250078
 42
0.000000
 10
-193.750018
 20
136.250078
 42
0.000000
 10
-194.750018
 20
136.750078
 42
0.000000
 10
-195.750018
 20
136.250078
 42
0.000000
 10
-196.750018
 20
136.250078
 42
0.000000
 10
-197.750018
 20
135.750078
 42
0.000000
 10
-198.750018
 20
136.250078
 42
0.000000
 10
-199.750018
 20
136.250078
 42
0.000000
 10
-200.750018
 20
136.750078
 42
0.000000
 10
-201.750018
 20
136.250078
 42
0.000000
 10
-202.750018
 20
136.250078
 42
0.000000
 10
-203.750018
 20
135.750078
 42
0.000000
 10
-204.750018
 20
136.250078
 42
0.000000
 10
-205.750018
 20
136.250078
 42
0.000000
 10
-206.750018
 20
136.750078
 42
0.000000
 10
-207.750018
 20
136.250078
 42
0.000000
 10
-208.750018
 20
136.250078
 42
0.000000
 10
-209.750018
 20
135.750078
 42
0.000000
 10
-210.750018
 20
136.250078
 42
0.000000
 10
-211.750018
 20
136.250078
 42
0.000000
 10
-212.500018
 20
136.625078
 42
0.000000
 97
     0
 75
     0
 76
     1
 98
     0
  0
ENDBLK
  5
243
100
AcDbEntity
  8
0
100
AcDbBlockEnd
  0
BLOCK
  5
244
100
AcDbEntity
  8
Detail
100
AcDbBlockBegin
  2
B-14
 70
    66
 10
0.000000
 20
0.000000
 30
0.000000
  0
LWPOLYLINE
  5
245
100
AcDbEntity
  8
Detail
  6
CONTINUOUS
 62
     6
100
AcDbPolyline
 90
   221
 10
-212.500018
 20
136.625078
 42
0.000000
 10
-211.750018
 20
136.250078
 42
0.000000
 10
-210.750018
 20
136.250078
 42
0.000000
 10
-209.750018
 20
135.750078
 42
0.000000
 10
-208.750018
 20
136.250078
 42
0.000000
 10
-207.750018
 20
136.250078
 42
0.000000
 10
-206.750018
 20
136.750078
 42
0.000000
 10
-205.750018
 20
136.250078
 42
0.000000
 10
-204.750018
 20
136.250078
 42
0.000000
 10
-203.750018
 20
135.750078
 42
0.000000
 10
-202.750018
 20
136.250078
 42
0.000000
 10
-201.750018
 20
136.250078
 42
0.000000
 10
-200.750018
 20
136.750078
 42
0.000000
 10
-199.750018
 20
136.250078
 42
0.000000
 10
-198.750018
 20
136.250078
 42
0.000000
 10
-197.750018
 20
135.750078
 42
0.000000
 10
-196.750018
 20
136.250078
 42
0.000000
 10
-195.750018
 20
136.250078
 42
0.000000
 10
-194.750018
 20
136.750078
 42
0.000000
 10
-193.750018
 20
136.250078
 42
0.000000
 10
-192.750018
 20
136.250078
 42
0.000000
 10
-191.750018
 20
135.750078
 42
0.000000
 10
-190.750018
 20
136.250078
 42
0.000000
 10
-189.750018
 20
136.250078
 42
0.000000
 10
-188.750018
 20
136.750078
 42
0.000000
 10
-187.750018
 20
136.250078
 42
0.000000
 10
-186.750018
 20
136.250078
 42
0.000000
 10
-185.750018
 20
135.750078
 42
0.000000
 10
-184.750018
 20
136.250078
 42
0.000000
 10
-183.741222
 20
136.254476
 42
0.000000
 10
-182.750018
 20
136.750078
 42
0.000000
 10
-181.750018
 20
136.250078
 42
0.000000
 10
-180.750018
 20
136.250078
 42
0.000000
 10
-179.750018
 20
135.750078
 42
0.000000
 10
-178.750018
 20
136.250078
 42
0.000000
 10
-177.750018
 20
136.250078
 42
0.000000
 10
-176.750018
 20
136.750078
 42
0.000000
 10
-175.750018
 20
136.250078
 42
0.000000
 10
-174.750018
 20
136.250078
 42
0.000000
 10
-173.750018
 20
135.750078
 42
0.000000
 10
-172.750018
 20
136.250078
 42
0.000000
 10
-171.750018
 20
136.250078
 42
0.000000
 10
-170.750018
 20
136.750078
 42
0.000000
 10
-169.750018
 20
136.250078
 42
0.000000
 10
-168.750018
 20
136.250078
 42
0.000000
 10
-167.750018
 20
135.750078
 42
0.000000
 10
-166.750018
 20
136.250078
 42
0.000000
 10
-165.750018
 20
136.250078
 42
0.000000
 10
-164.750018
 20
136.750078
 42
0.000000
 10
-163.750018
 20
136.250078
 42
0.000000
 10
-162.750018
 20
136.250078
 42
0.000000
 10
-161.750018
 20
135.750078
 42
0.000000
 10
-160.750018
 20
136.250078
 42
0.000000
 10
-159.750018
 20
136.250078
 42
0.000000
 10
-158.750018
 20
136.750078
 42
0.000000
 10
-157.750018
 20
136.250078
 42
0.000000
 10
-156.750018
 20
136.250078
 42
0.000000
 10
-155.750018
 20
135.750078
 42
0.000000
 10
-154.750018
 20
136.250078
 42
0.000000
 10
-153.750018
 20
136.250078
 42
0.000000
 10
-152.750018
 20
136.750078
 42
0.000000
 10
-151.742351
 20
136.250078
 42
0.000000
 10
-150.750018
 20
136.250078
 42
0.000000
 10
-149.750018
 20
135.750078
 42
0.000000
 10
-148.750018
 20
136.250078
 42
0.000000
 10
-147.750018
 20
136.250078
 42
0.000000
 10
-146.750018
 20
136.750078
 42
0.000000
 10
-145.750018
 20
136.250078
 42
0.000000
 10
-144.750018
 20
136.250078
 42
0.000000
 10
-143.750018
 20
135.750078
 42
0.000000
 10
-142.750018
 20
136.250078
 42
0.000000
 10
-141.750018
 20
136.250078
 42
0.000000
 10
-140.750018
 20
136.750078
 42
0.000000
 10
-139.750018
 20
136.250078
 42
0.000000
 10
-138.750018
 20
136.250078
 42
0.000000
 10
-137.750018
 20
135.750078
 42
0.000000
 10
-136.750018
 20
136.250078
 42
0.000000
 10
-135.750018
 20
136.250078
 42
0.000000
 10
-134.750018
 20
136.750078
 42
0.000000
 10
-133.750018
 20
136.250078
 42
0.000000
 10
-132.750018
 20
136.250078
 42
0.000000
 10
-131.750018
 20
135.750078
 42
0.000000
 10
-130.750018
 20
136.250078
 42
0.000000
 10
-129.750018
 20
136.250078
 42
0.000000
 10
-128.750018
 20
136.750078
 42
0.000000
 10
-127.750018
 20
136.250078
 42
0.000000
 10
-126.750018
 20
136.250078
 42
0.000000
 10
-125.750018
 20
135.750078
 42
0.000000
 10
-124.750018
 20
136.250078
 42
0.000000
 10
-123.750018
 20
136.250078
 42
0.000000
 10
-122.750018
 20
136.750078
 42
0.000000
 10
-121.750018
 20
136.250078
 42
0.000000
 10
-120.750018
 20
136.250078
 42
0.000000
 10
-119.750018
 20
135.750078
 42
0.000000
 10
-118.750018
 20
136.250078
 42
0.000000
 10
-117.750018
 20
136.250078
 42
0.000000
 10
-116.750018
 20
136.750078
 42
0.000000
 10
-115.750018
 20
136.250078
 42
0.000000
 10
-114.750018
 20
136.250078
 42
0.000000
 10
-113.750018
 20
135.750078
 42
0.000000
 10
-112.750018
 20
136.250078
 42
0.000000
 10
-111.750018
 20
136.250078
 42
0.000000
 10
-110.750018
 20
136.750078
 42
0.000000
 10
-109.750018
 20
136.250078
 42
0.000000
 10
-108.750018
 20
136.250078
 42
0.000000
 10
-107.750018
 20
135.750078
 42
0.000000
 10
-106.750018
 20
136.250078
 42
0.000000
 10
-105.750018
 20
136.250078
 42
0.000000
 10
-104.750018
 20
136.750078
 42
0.000000
 10
-103.750018
 20
136.250078
 42
0.000000
 10
-102.750018
 20
136.250078
 42
0.000000
 10
-101.750018
 20
135.750078
 42
0.000000
 10
-100.750018
 20
136.250078
 42
0.000000
 10
-99.750018
 20
136.250078
 42
0.000000
 10
-98.750018
 20
136.750078
 42
0.000000
 10
-97.750018
 20
136.250078
 42
0.000000
 10
-96.750018
 20
136.250078
 42
0.000000
 10
-95.750018
 20
135.750078
 42
0.000000
 10
-94.750018
 20
136.250078
 42
0.000000
 10
-93.750018
 20
136.250078
 42
0.000000
 10
-92.750018
 20
136.750078
 42
0.000000
 10
-91.750018
 20
136.250078
 42
0.000000
 10
-90.750018
 20
136.250078
 42
0.000000
 10
-89.750018
 20
135.750078
 42
0.000000
 10
-88.750018
 20
136.250078
 42
0.000000
 10
-87.750018
 20
136.250078
 42
0.000000
 10
-86.750018
 20
136.750078
 42
0.000000
 10
-85.750018
 20
136.250078
 42
0.000000
 10
-84.750018
 20
136.250078
 42
0.000000
 10
-83.750018
 20
135.750078
 42
0.000000
 10
-82.750018
 20
136.250078
 42
0.000000
 10
-81.750018
 20
136.250078
 42
0.000000
 10
-80.750018
 20
136.750078
 42
0.000000
 10
-79.750018
 20
136.250078
 42
0.000000
 10
-78.750018
 20
136.250078
 42
0.000000
 10
-77.750018
 20
135.750078
 42
0.000000
 10
-76.750018
 20
136.250078
 42
0.000000
 10
-75.750018
 20
136.250078
 42
0.000000
 10
-74.750018
 20
136.750078
 42
0.000000
 10
-73.750018
 20
136.250078
 42
0.000000
 10
-72.750018
 20
136.250078
 42
0.000000
 10
-71.750018
 20
135.750078
 42
0.000000
 10
-70.750018
 20
136.250078
 42
0.000000
 10
-69.750018
 20
136.250078
 42
0.000000
 10
-68.750018
 20
136.750078
 42
0.000000
 10
-67.750018
 20
136.250078
 42
0.000000
 10
-66.750018
 20
136.250078
 42
0.000000
 10
-65.750018
 20
135.750078
 42
0.000000
 10
-64.750018
 20
136.250078
 42
0.000000
 10
-63.750018
 20
136.250078
 42
0.000000
 10
-62.750018
 20
136.750078
 42
0.000000
 10
-61.750018
 20
136.250078
 42
0.000000
 10
-60.750018
 20
136.250078
 42
0.000000
 10
-59.750018
 20
135.750078
 42
0.000000
 10
-58.750018
 20
136.250078
 42
0.000000
 10
-57.750018
 20
136.250078
 42
0.000000
 10
-56.750018
 20
136.750078
 42
0.000000
 10
-55.750018
 20
136.250078
 42
0.000000
 10
-54.750018
 20
136.250078
 42
0.000000
 10
-53.750018
 20
135.750078
 42
0.000000
 10
-52.750018
 20
136.250078
 42
0.000000
 10
-51.750018
 20
136.250078
 42
0.000000
 10
-50.750018
 20
136.750078
 42
0.000000
 10
-49.750018
 20
136.250078
 42
0.000000
 10
-48.750018
 20
136.250078
 42
0.000000
 10
-47.750018
 20
135.750078
 42
0.000000
 10
-46.750018
 20
136.250078
 42
0.000000
 10
-45.750018
 20
136.250078
 42
0.000000
 10
-44.750018
 20
136.750078
 42
0.000000
 10
-43.750018
 20
136.250078
 42
0.000000
 10
-42.750018
 20
136.250078
 42
0.000000
 10
-41.750018
 20
135.750078
 42
0.000000
 10
-40.750018
 20
136.250078
 42
0.000000
 10
-39.750018
 20
136.250078
 42
0.000000
 10
-38.750018
 20
136.750078
 42
0.000000
 10
-37.750018
 20
136.250078
 42
0.000000
 10
-36.750018
 20
136.250078
 42
0.000000
 10
-35.750018
 20
135.750078
 42
0.000000
 10
-34.750018
 20
136.250078
 42
0.000000
 10
-33.750018
 20
136.250078
 42
0.000000
 10
-32.750018
 20
136.750078
 42
0.000000
 10
-31.750018
 20
136.250078
 42
0.000000
 10
-30.750018
 20
136.250078
 42
0.000000
 10
-29.750018
 20
135.750078
 42
0.000000
 10
-28.750018
 20
136.250078
 42
0.000000
 10
-27.750018
 20
136.250078
 42
0.000000
 10
-26.750018
 20
136.750078
 42
0.000000
 10
-25.750018
 20
136.250078
 42
0.000000
 10
-24.750018
 20
136.250078
 42
0.000000
 10
-23.750018
 20
135.750078
 42
0.000000
 10
-22.750018
 20
136.250078
 42
0.000000
 10
-21.750018
 20
136.250078
 42
0.000000
 10
-20.750018
 20
136.750078
 42
0.000000
 10
-19.750018
 20
136.250078
 42
0.000000
 10
-18.750018
 20
136.250078
 42
0.000000
 10
-17.750018
 20
135.750078
 42
0.000000
 10
-16.750018
 20
136.250078
 42
0.000000
 10
-15.750018
 20
136.250078
 42
0.000000
 10
-14.750018
 20
136.750078
 42
0.000000
 10
-13.742351
 20
136.250078
 42
0.000000
 10
-12.750018
 20
136.250078
 42
0.000000
 10
-11.750018
 20
135.750078
 42
0.000000
 10
-10.750018
 20
136.250078
 42
0.000000
 10
-9.750018
 20
136.250078
 42
0.000000
 10
-8.750018
 20
136.750078
 42
0.000000
 10
-7.750018
 20
136.250078
 42
0.000000
 10
-6.750018
 20
136.250078
 42
0.000000
 10
-5.750018
 20
135.750078
 42
0.000000
 10
-4.750018
 20
136.250078
 42
0.000000
 10
-3.750018
 20
136.250078
 42
0.000000
 10
-2.750018
 20
136.750078
 42
0.000000
 10
-1.750018
 20
136.250078
 42
0.000000
 10
-0.750018
 20
136.250078
 42
0.000000
 10
0.249982
 20
135.750078
 42
0.000000
 10
1.249982
 20
136.250078
 42
0.000000
 10
2.249982
 20
136.250078
 42
0.000000
 10
3.249982
 20
136.750078
 42
0.000000
 10
4.249982
 20
136.250078
 42
0.000000
 10
5.249982
 20
136.250078
 42
0.000000
 10
6.249982
 20
135.750078
 42
0.000000
 10
7.249982
 20
136.250078
 42
0.000000
  0
ENDBLK
  5
323
100
AcDbEntity
  8
0
100
AcDbBlockEnd
  0
BLOCK
  5
324
100
AcDbEntity
  8
SCHRAFF
100
AcDbBlockBegin
  2
B-15
 70
    66
 10
0.000000
 20
0.000000
 30
0.000000
  0
HATCH
  5
325
100
AcDbEntity
  8
SCHRAFF
 62
   250
440
     0
100
AcDbHatch
 10
0.000000
 20
0.000000
 30
0.000000
210
0.000000
220
0.000000
230
1.000000
  2
SOLID
 70
     1
 71
     1
 91
     1
 92
    18
 72
     1
 73
     0
 93
     7
 10
-21.500018
 20
135.500078
 42
0.000000
 10
7.249982
 20
135.500078
 42
0.000000
 10
7.249982
 20
136.250078
 42
0.000000
 10
8.499982
 20
136.250078
 42
0.000000
 10
8.499982
 20
134.250078
 42
0.000000
 10
-21.500018
 20
134.250078
 42
0.000000
 10
-21.500018
 20
135.500078
 42
0.000000
 97
     0
 75
     0
 76
     1
 98
     0
  0
ENDBLK
  5
326
100
AcDbEntity
  8
0
100
AcDbBlockEnd
  0
BLOCK
  5
327
100
AcDbEntity
  8
SCHRAFF
100
AcDbBlockBegin
  2
B-16
 70
    66
 10
0.000000
 20
0.000000
 30
0.000000
  0
HATCH
  5
328
100
AcDbEntity
  8
SCHRAFF
 62
    51
440
     0
100
AcDbHatch
 10
0.000000
 20
0.000000
 30
0.000000
210
0.000000
220
0.000000
230
1.000000
  2
SOLID
 70
     1
 71
     1
 91
     1
 92
    18
 72
     1
 73
     0
 93
     9
 10
-212.500018
 20
50.250078
 42
0.000000
 10
-79.500018
 20
50.250078
 42
0.000000
 10
-79.500018
 20
130.250078
 42
0.000000
 10
-133.500018
 20
130.250078
 42
0.000000
 10
-133.500018
 20
110.250078
 42
0.000000
 10
-193.500018
 20
110.250078
 42
0.000000
 10
-193.500018
 20
130.250078
 42
0.000000
 10
-212.500018
 20
130.250078
 42
0.000000
 10
-212.500018
 20
50.250078
 42
0.000000
 97
     0
 75
     0
 76
     1
 98
     0
  0
ENDBLK
  5
329
100
AcDbEntity
  8
0
100
AcDbBlockEnd
  0
BLOCK
  5
32A
100
AcDbEntity
  8
SCHRAFF
100
AcDbBlockBegin
  2
B-17
 70
    66
 10
0.000000
 20
0.000000
 30
0.000000
  0
HATCH
  5
32B
100
AcDbEntity
  8
SCHRAFF
 62
     9
440
     0
100
AcDbHatch
 10
0.000000
 20
0.000000
 30
0.000000
210
0.000000
220
0.000000
230
1.000000
  2
SOLID
 70
     1
 71
     1
 91
     1
 92
    18
 72
     1
 73
     0
 93
     5
 10
8.499982
 20
-196.249941
 42
0.000000
 10
8.499982
 20
-78.749922
 42
0.000000
 10
10.499982
 20
-78.749922
 42
0.000000
 10
10.499982
 20
-196.249941
 42
0.000000
 10
8.499982
 20
-196.249941
 42
0.000000
 97
     0
 75
     0
 76
     1
 98
     0
  0
HATCH
  5
32C
100
AcDbEntity
  8
SCHRAFF
 62
   253
440
     0
100
AcDbHatch
 10
0.000000
 20
0.000000
 30
0.000000
210
0.000000
220
0.000000
230
1.000000
  2
SOLID
 70
     1
 71
     1
 91
     1
 92
    18
 72
     1
 73
     0
 93
     5
 10
14.499982
 20
-78.749922
 42
0.000000
 10
14.499982
 20
-196.249941
 42
0.000000
 10
10.499982
 20
-196.249941
 42
0.000000
 10
10.499982
 20
-78.749922
 42
0.000000
 10
14.499982
 20
-78.749922
 42
0.000000
 97
     0
 75
     0
 76
     1
 98
     0
  0
ENDBLK
  5
32D
100
AcDbEntity
  8
0
100
AcDbBlockEnd
  0
BLOCK
  5
32E
100
AcDbEntity
  8
SCHRAFF
100
AcDbBlockBegin
  2
B-18
 70
    66
 10
0.000000
 20
0.000000
 30
0.000000
  0
HATCH
  5
32F
100
AcDbEntity
  8
SCHRAFF
 62
   254
440
     0
100
AcDbHatch
 10
0.000000
 20
0.000000
 30
0.000000
210
0.000000
220
0.000000
230
1.000000
  2
SOLID
 70
     1
 71
     1
 91
     1
 92
    18
 72
     1
 73
     0
 93
     7
 10
-212.500018
 20
50.250078
 42
0.000000
 10
-77.500018
 20
50.250078
 42
0.000000
 10
-77.500018
 20
-196.249941
 42
0.000000
 10
-82.500018
 20
-196.249941
 42
0.000000
 10
-82.500018
 20
45.250078
 42
0.000000
 10
-212.500018
 20
45.250078
 42
0.000000
 10
-212.500018
 20
50.250078
 42
0.000000
 97
     0
 75
     0
 76
     1
 98
     0
  0
ENDBLK
  5
330
100
AcDbEntity
  8
0
100
AcDbBlockEnd
  0
BLOCK
  5
331
100
AcDbEntity
  8
SCHRAFF
100
AcDbBlockBegin
  2
B-19
 70
    66
 10
0.000000
 20
0.000000
 30
0.000000
  0
HATCH
  5
332
100
AcDbEntity
  8
SCHRAFF
 62
   161
440
     0
100
AcDbHatch
 10
0.000000
 20
0.000000
 30
0.000000
210
0.000000
220
0.000000
230
1.000000
  2
SOLID
 70
     1
 71
     1
 91
     1
 92
    18
 72
     1
 73
     0
 93
     5
 10
14.499982
 20
136.250078
 42
0.000000
 10
22.499982
 20
136.250078
 42
0.000000
 10
22.499982
 20
-68.749922
 42
0.000000
 10
14.499982
 20
-68.749922
 42
0.000000
 10
14.499982
 20
136.250078
 42
0.000000
 97
     0
 75
     0
 76
     1
 98
     0
  0
HATCH
  5
333
100
AcDbEntity
  8
SCHRAFF
 62
   161
440
     0
100
AcDbHatch
 10
0.000000
 20
0.000000
 30
0.000000
210
0.000000
220
0.000000
230
1.000000
  2
SOLID
 70
     1
 71
     1
 91
     1
 92
    18
 72
     1
 73
     0
 93
     5
 10
14.499982
 20
-78.749922
 42
0.000000
 10
22.499982
 20
-78.749922
 42
0.000000
 10
22.499982
 20
-196.249941
 42
0.000000
 10
14.499982
 20
-196.249941
 42
0.000000
 10
14.499982
 20
-78.749922
 42
0.000000
 97
     0
 75
     0
 76
     1
 98
     0
  0
ENDBLK
  5
334
100
AcDbEntity
  8
0
100
AcDbBlockEnd
  0
BLOCK
  5
335
100
AcDbEntity
  8
SCHRAFF
100
AcDbBlockBegin
  2
B-20
 70
    66
 10
0.000000
 20
0.000000
 30
0.000000
  0
HATCH
  5
336
100
AcDbEntity
  8
SCHRAFF
 62
    51
440
     0
100
AcDbHatch
 10
0.000000
 20
0.000000
 30
0.000000
210
0.000000
220
0.000000
230
1.000000
  2
SOLID
 70
     1
 71
     1
 91
     1
 92
    18
 72
     1
 73
     0
 93
     5
 10
-77.500018
 20
130.250078
 42
0.000000
 10
2.499982
 20
130.250078
 42
0.000000
 10
2.499982
 20
-196.249941
 42
0.000000
 10
-77.500018
 20
-196.249941
 42
0.000000
 10
-77.500018
 20
130.250078
 42
0.000000
 97
     0
 75
     0
 76
     1
 98
     0
  0
ENDBLK
  5
337
100
AcDbEntity
  8
0
100
AcDbBlockEnd
  0
BLOCK
  5
338
100
AcDbEntity
  8
Detail
100
AcDbBlockBegin
  2
B-21
 70
    66
 10
0.000000
 20
0.000000
 30
0.000000
  0
LWPOLYLINE
  5
339
100
AcDbEntity
  8
Detail
  6
CONTINUOUS
 62
     6
100
AcDbPolyline
 90
     4
 10
-82.500018
 20
-196.249941
 42
0.000000
 10
-82.500018
 20
45.250078
 42
0.000000
 10
-212.500018
 20
45.250078
 42
0.000000
 10
-127.500018
 20
45.250078
 42
0.000000
  0
LWPOLYLINE
  5
33E
100
AcDbEntity
  8
Detail
  6
CONTINUOUS
 62
     6
100
AcDbPolyline
 90
     3
 10
-212.500018
 20
50.250078
 42
0.000000
 10
-77.500018
 20
50.250078
 42
0.000000
 10
-77.500018
 20
-196.249941
 42
0.000000
  0
ENDBLK
  5
342
100
AcDbEntity
  8
0
100
AcDbBlockEnd
  0
BLOCK
  5
343
100
AcDbEntity
  8
Detail
100
AcDbBlockBegin
  2
B-22
 70
    66
 10
0.000000
 20
0.000000
 30
0.000000
  0
LWPOLYLINE
  5
344
100
AcDbEntity
  8
Detail
  6
CONTINUOUS
 62
     6
100
AcDbPolyline
 90
     4
 10
8.499982
 20
-196.249941
 42
0.000000
 10
8.499982
 20
-78.749922
 42
0.000000
 10
10.499982
 20
-78.749922
 42
0.000000
 10
10.499982
 20
-196.249941
 42
0.000000
  0
ENDBLK
  5
349
100
AcDbEntity
  8
0
100
AcDbBlockEnd
  0
BLOCK
  5
34A
100
AcDbEntity
  8
Detail
100
AcDbBlockBegin
  2
B-23
 70
    66
 10
0.000000
 20
0.000000
 30
0.000000
  0
LWPOLYLINE
  5
34B
100
AcDbEntity
  8
Detail
  6
CONTINUOUS
 62
     6
100
AcDbPolyline
 90
     4
 10
10.499982
 20
-196.249941
 42
0.000000
 10
10.499982
 20
-78.749922
 42
0.000000
 10
14.499982
 20
-78.749922
 42
0.000000
 10
14.499982
 20
-196.249941
 42
0.000000
  0
ENDBLK
  5
350
100
AcDbEntity
  8
0
100
AcDbBlockEnd
  0
BLOCK
  5
351
100
AcDbEntity
  8
SCHRAFF
100
AcDbBlockBegin
  2
B-24
 70
    66
 10
0.000000
 20
0.000000
 30
0.000000
  0
HATCH
  5
352
100
AcDbEntity
  8
SCHRAFF
  6
CONTINUOUS
 62
     9
100
AcDbHatch
 10
0.000000
 20
0.000000
 30
0.000000
210
0.000000
220
0.000000
230
1.000000
  2
_U
 70
     0
 71
     1
 91
     1
 92
    18
 72
     1
 73
     0
 93
     5
 10
-77.500018
 20
130.250078
 42
0.000000
 10
2.499982
 20
130.250078
 42
0.000000
 10
2.499982
 20
-196.249941
 42
0.000000
 10
-77.500018
 20
-196.249941
 42
0.000000
 10
-77.500018
 20
130.250078
 42
0.000000
 97
     0
 75
     0
 76
     0
 52
0.000000
 41
1.000000
 77
     0
 78
     1
 53
90.000000
 43
-0.000000
 44
0.000000
 45
-13.750000
 46
0.000000
 79
     0
 98
     0
  0
ENDBLK
  5
353
100
AcDbEntity
  8
0
100
AcDbBlockEnd
  0
BLOCK
  5
354
100
AcDbEntity
  8
SCHRAFF
100
AcDbBlockBegin
  2
B-25
 70
    66
 10
0.000000
 20
0.000000
 30
0.000000
  0
HATCH
  5
355
100
AcDbEntity
  8
SCHRAFF
  6
CONTINUOUS
 62
     9
100
AcDbHatch
 10
0.000000
 20
0.000000
 30
0.000000
210
0.000000
220
0.000000
230
1.000000
  2
_U
 70
     0
 71
     1
 91
     1
 92
    18
 72
     1
 73
     0
 93
     7
 10
-212.500018
 20
45.250078
 42
0.000000
 10
-82.500018
 20
45.250078
 42
0.000000
 10
-82.500018
 20
-196.249941
 42
0.000000
 10
-202.500018
 20
-196.249941
 42
0.000000
 10
-202.500018
 20
-74.749922
 42
0.000000
 10
-212.500018
 20
-74.749922
 42
0.000000
 10
-212.500018
 20
45.250078
 42
0.000000
 97
     0
 75
     0
 76
     0
 52
0.000000
 41
1.000000
 77
     0
 78
     1
 53
44.999999
 43
-0.000000
 44
0.000000
 45
-17.677669
 46
17.677670
 79
     0
 98
     0
  0
ENDBLK
  5
356
100
AcDbEntity
  8
0
100
AcDbBlockEnd
  0
BLOCK
  5
357
100
AcDbEntity
  8
Detail
100
AcDbBlockBegin
  2
B-26
 70
    66
 10
0.000000
 20
0.000000
 30
0.000000
  0
LWPOLYLINE
  5
358
100
AcDbEntity
  8
Detail
  6
CONTINUOUS
 62
     3
100
AcDbPolyline
 90
     5
 10
22.499982
 20
136.250078
 42
0.000000
 10
14.499982
 20
136.250078
 42
0.000000
 10
14.499982
 20
-68.749922
 42
0.000000
 10
22.499982
 20
-68.749922
 42
0.000000
 10
22.499982
 20
136.250078
 42
0.000000
  0
LWPOLYLINE
  5
35E
100
AcDbEntity
  8
Detail
  6
CONTINUOUS
 62
     2
100
AcDbPolyline
 90
     3
 10
-82.500018
 20
-196.249941
 42
0.000000
 10
-82.500018
 20
45.250078
 42
0.000000
 10
-212.500018
 20
45.250078
 42
0.000000
  0
ENDBLK
  5
362
100
AcDbEntity
  8
0
100
AcDbBlockEnd
  0
BLOCK
  5
363
100
AcDbEntity
  8
Detail
100
AcDbBlockBegin
  2
B-27
 70
    66
 10
0.000000
 20
0.000000
 30
0.000000
  0
LWPOLYLINE
  5
364
100
AcDbEntity
  8
Detail
  6
HIDDEN
 62
     9
100
AcDbPolyline
 90
     3
 10
-212.250018
 20
133.250078
 42
0.000000
 10
7.499982
 20
133.250078
 42
0.000000
 10
7.499982
 20
-68.749922
 42
0.000000
  0
LWPOLYLINE
  5
368
100
AcDbEntity
  8
Detail
  6
CONTINUOUS
 62
     3
100
AcDbPolyline
 90
     4
 10
14.499982
 20
-196.249941
 42
0.000000
 10
14.499982
 20
-78.749922
 42
0.000000
 10
22.499982
 20
-78.749922
 42
0.000000
 10
22.499982
 20
-196.249941
 42
0.000000
  0
ENDBLK
  5
36D
100
AcDbEntity
  8
0
100
AcDbBlockEnd
  0
BLOCK
  5
36E
100
AcDbEntity
  8
Detail
100
AcDbBlockBegin
  2
B-28
 70
    66
 10
0.000000
 20
0.000000
 30
0.000000
  0
MTEXT
  5
370
100
AcDbEntity
  8
Detail
 62
     7
100
AcDbMText
 10
79.375021
 20
253.749975
 30
0.000000
 40
4.999995
 41
59.482441
 71
     1
 72
     5
  1
WDVS-Dämmstoff
  7
Arial
 50
0.000000
  0
ENDBLK
  5
371
100
AcDbEntity
  8
0
100
AcDbBlockEnd
  0
BLOCK
  5
372
100
AcDbEntity
  8
SCHRAFF
100
AcDbBlockBegin
  2
B-29
 70
    66
 10
0.000000
 20
0.000000
 30
0.000000
  0
HATCH
  5
373
100
AcDbEntity
  8
SCHRAFF
 62
     7
440
     0
100
AcDbHatch
 10
0.000000
 20
0.000000
 30
0.000000
210
0.000000
220
0.000000
230
1.000000
  2
SOLID
 70
     1
 71
     1
 91
     1
 92
    18
 72
     1
 73
     0
 93
     3
 10
-79.500018
 20
-48.749922
 42
1.000000
 10
-80.500018
 20
-48.749922
 42
1.000000
 10
-79.500018
 20
-48.749922
 42
0.000000
 97
     0
 75
     0
 76
     1
 98
     0
  0
CIRCLE
  5
374
100
AcDbEntity
  8
Detail
  6
CONTINUOUS
 62
     7
100
AcDbCircle
 10
-80.000018
 20
-48.749922
 40
0.500000
  0
LWPOLYLINE
  5
375
100
AcDbEntity
  8
Detail
  6
CONTINUOUS
 62
     7
100
AcDbPolyline
 90
     2
 10
77.500023
 20
-48.749922
 42
0.000000
 10
-80.000018
 20
-48.749922
 42
0.000000
  0
ENDBLK
  5
378
100
AcDbEntity
  8
0
100
AcDbBlockEnd
  0
BLOCK
  5
379
100
AcDbEntity
  8
SCHRAFF
100
AcDbBlockBegin
  2
B-30
 70
    66
 10
0.000000
 20
0.000000
 30
0.000000
  0
HATCH
  5
37A
100
AcDbEntity
  8
SCHRAFF
 62
     7
440
     0
100
AcDbHatch
 10
0.000000
 20
0.000000
 30
0.000000
210
0.000000
220
0.000000
230
1.000000
  2
SOLID
 70
     1
 71
     1
 91
     1
 92
    18
 72
     1
 73
     0
 93
     3
 10
-37.000018
 20
-23.749922
 42
1.000000
 10
-38.000018
 20
-23.749922
 42
1.000000
 10
-37.000018
 20
-23.749922
 42
0.000000
 97
     0
 75
     0
 76
     1
 98
     0
  0
CIRCLE
  5
37B
100
AcDbEntity
  8
Detail
  6
CONTINUOUS
 62
     7
100
AcDbCircle
 10
-37.500018
 20
-23.749922
 40
0.500000
  0
ENDBLK
  5
37C
100
AcDbEntity
  8
0
100
AcDbBlockEnd
  0
BLOCK
  5
37D
100
AcDbEntity
  8
Detail
100
AcDbBlockBegin
  2
B-31
 70
    66
 10
0.000000
 20
0.000000
 30
0.000000
  0
MTEXT
  5
37E
100
AcDbEntity
  8
Detail
 62
     7
100
AcDbMText
 10
79.375021
 20
273.749980
 30
0.000000
 40
4.999995
 41
82.372418
 71
     7
 72
     5
  1
Verdübelung versenkt mit
  7
Arial
 50
0.000000
  0
MTEXT
  5
37F
100
AcDbEntity
  8
Detail
 62
     7
100
AcDbMText
 10
79.375021
 20
266.249988
 30
0.000000
 40
4.999995
 41
82.634917
 71
     7
 72
     5
  1
Thermorondell abgedeckt
  7
Arial
 50
0.000000
  0
ENDBLK
  5
380
100
AcDbEntity
  8
0
100
AcDbBlockEnd
  0
BLOCK
  5
381
100
AcDbEntity
  8
Detail
100
AcDbBlockBegin
  2
B-32
 70
    66
 10
0.000000
 20
0.000000
 30
0.000000
  0
MTEXT
  5
382
100
AcDbEntity
  8
Detail
 62
     7
100
AcDbMText
 10
79.375023
 20
178.749979
 30
0.000000
 40
4.999995
 41
64.994935
 71
     1
 72
     5
  1
Putzabschlussprofil 
  7
Arial
 50
0.000000
  0
ENDBLK
  5
383
100
AcDbEntity
  8
0
100
AcDbBlockEnd
  0
BLOCK
  5
384
100
AcDbEntity
  8
SCHRAFF
100
AcDbBlockBegin
  2
B-33
 70
    66
 10
0.000000
 20
0.000000
 30
0.000000
  0
HATCH
  5
385
100
AcDbEntity
  8
SCHRAFF
 62
     7
440
     0
100
AcDbHatch
 10
0.000000
 20
0.000000
 30
0.000000
210
0.000000
220
0.000000
230
1.000000
  2
SOLID
 70
     1
 71
     1
 91
     1
 92
    18
 72
     1
 73
     0
 93
     3
 10
5.999982
 20
26.250078
 42
1.000000
 10
4.999982
 20
26.250078
 42
1.000000
 10
5.999982
 20
26.250078
 42
0.000000
 97
     0
 75
     0
 76
     1
 98
     0
  0
CIRCLE
  5
386
100
AcDbEntity
  8
Detail
  6
CONTINUOUS
 62
     7
100
AcDbCircle
 10
5.499982
 20
26.250078
 40
0.500000
  0
LWPOLYLINE
  5
387
100
AcDbEntity
  8
Detail
  6
CONTINUOUS
 62
     7
100
AcDbPolyline
 90
     2
 10
77.500023
 20
26.250078
 42
0.000000
 10
5.499982
 20
26.250078
 42
0.000000
  0
ENDBLK
  5
38A
100
AcDbEntity
  8
0
100
AcDbBlockEnd
  0
BLOCK
  5
38B
100
AcDbEntity
  8
Detail
100
AcDbBlockBegin
  2
B-34
 70
    66
 10
0.000000
 20
0.000000
 30
0.000000
  0
MTEXT
  5
38C
100
AcDbEntity
  8
Detail
 62
     7
100
AcDbMText
 10
79.375023
 20
153.749979
 30
0.000000
 40
4.999995
 41
67.304933
 71
     1
 72
     5
  1
elastischer Dichtstoff
  7
Arial
 50
0.000000
  0
ENDBLK
  5
38D
100
AcDbEntity
  8
0
100
AcDbBlockEnd
  0
BLOCK
  5
38E
100
AcDbEntity
  8
SCHRAFF
100
AcDbBlockBegin
  2
B-35
 70
    66
 10
0.000000
 20
0.000000
 30
0.000000
  0
HATCH
  5
38F
100
AcDbEntity
  8
SCHRAFF
 62
     7
440
     0
100
AcDbHatch
 10
0.000000
 20
0.000000
 30
0.000000
210
0.000000
220
0.000000
230
1.000000
  2
SOLID
 70
     1
 71
     1
 91
     1
 92
    18
 72
     1
 73
     0
 93
     3
 10
9.999982
 20
51.250078
 42
1.000000
 10
8.999982
 20
51.250078
 42
1.000000
 10
9.999982
 20
51.250078
 42
0.000000
 97
     0
 75
     0
 76
     1
 98
     0
  0
CIRCLE
  5
390
100
AcDbEntity
  8
Detail
  6
CONTINUOUS
 62
     7
100
AcDbCircle
 10
9.499982
 20
51.250078
 40
0.500000
  0
LWPOLYLINE
  5
391
100
AcDbEntity
  8
Detail
  6
CONTINUOUS
 62
     7
100
AcDbPolyline
 90
     2
 10
77.500023
 20
51.250078
 42
0.000000
 10
9.499982
 20
51.250078
 42
0.000000
  0
ENDBLK
  5
394
100
AcDbEntity
  8
0
100
AcDbBlockEnd
  0
BLOCK
  5
395
100
AcDbEntity
  8
Detail
100
AcDbBlockBegin
  2
B-36
 70
    66
 10
0.000000
 20
0.000000
 30
0.000000
  0
MTEXT
  5
396
100
AcDbEntity
  8
Detail
 62
     7
100
AcDbMText
 10
79.375023
 20
128.749979
 30
0.000000
 40
4.999995
 41
62.842437
 71
     1
 72
     5
  1
Gewebe-Eckschutz
  7
Arial
 50
0.000000
  0
ENDBLK
  5
397
100
AcDbEntity
  8
0
100
AcDbBlockEnd
  0
BLOCK
  5
398
100
AcDbEntity
  8
SCHRAFF
100
AcDbBlockBegin
  2
B-37
 70
    66
 10
0.000000
 20
0.000000
 30
0.000000
  0
HATCH
  5
399
100
AcDbEntity
  8
SCHRAFF
 62
     7
440
     0
100
AcDbHatch
 10
0.000000
 20
0.000000
 30
0.000000
210
0.000000
220
0.000000
230
1.000000
  2
SOLID
 70
     1
 71
     1
 91
     1
 92
    18
 72
     1
 73
     0
 93
     3
 10
12.999982
 20
76.250078
 42
1.000000
 10
11.999982
 20
76.250078
 42
1.000000
 10
12.999982
 20
76.250078
 42
0.000000
 97
     0
 75
     0
 76
     1
 98
     0
  0
CIRCLE
  5
39A
100
AcDbEntity
  8
Detail
  6
CONTINUOUS
 62
     7
100
AcDbCircle
 10
12.499982
 20
76.250078
 40
0.500000
  0
LWPOLYLINE
  5
39B
100
AcDbEntity
  8
Detail
  6
CONTINUOUS
 62
     7
100
AcDbPolyline
 90
     2
 10
77.500023
 20
76.250078
 42
0.000000
 10
12.499982
 20
76.250078
 42
0.000000
  0
ENDBLK
  5
39E
100
AcDbEntity
  8
0
100
AcDbBlockEnd
  0
BLOCK
  5
39F
100
AcDbEntity
  8
SCHRAFF
100
AcDbBlockBegin
  2
B-38
 70
    66
 10
0.000000
 20
0.000000
 30
0.000000
  0
HATCH
  5
3A0
100
AcDbEntity
  8
SCHRAFF
 62
     7
440
     0
100
AcDbHatch
 10
0.000000
 20
0.000000
 30
0.000000
210
0.000000
220
0.000000
230
1.000000
  2
SOLID
 70
     1
 71
     1
 91
     1
 92
    18
 72
     1
 73
     0
 93
     3
 10
18.999982
 20
101.250078
 42
1.000000
 10
17.999982
 20
101.250078
 42
1.000000
 10
18.999982
 20
101.250078
 42
0.000000
 97
     0
 75
     0
 76
     1
 98
     0
  0
CIRCLE
  5
3A1
100
AcDbEntity
  8
Detail
  6
CONTINUOUS
 62
     7
100
AcDbCircle
 10
18.499982
 20
101.250078
 40
0.500000
  0
LWPOLYLINE
  5
3A2
100
AcDbEntity
  8
Detail
  6
CONTINUOUS
 62
     7
100
AcDbPolyline
 90
     2
 10
77.500023
 20
101.250078
 42
0.000000
 10
18.499982
 20
101.250078
 42
0.000000
  0
ENDBLK
  5
3A5
100
AcDbEntity
  8
0
100
AcDbBlockEnd
  0
BLOCK
  5
3A6
100
AcDbEntity
  8
Detail
100
AcDbBlockBegin
  2
B-39
 70
    66
 10
0.000000
 20
0.000000
 30
0.000000
  0
MTEXT
  5
3A7
100
AcDbEntity
  8
Detail
 62
     7
100
AcDbMText
 10
79.375021
 20
103.750075
 30
0.000000
 40
4.999995
 41
51.029949
 71
     1
 72
     5
  1
Hartbekleidung 
  7
Arial
 50
0.000000
  0
ENDBLK
  5
3A8
100
AcDbEntity
  8
0
100
AcDbBlockEnd
  0
BLOCK
  5
3A9
100
AcDbEntity
  8
Detail
100
AcDbBlockBegin
  2
B-40
 70
    66
 10
0.000000
 20
0.000000
 30
0.000000
  0
MTEXT
  5
3AA
100
AcDbEntity
  8
Detail
 62
     7
100
AcDbMText
 10
79.375023
 20
78.749979
 30
0.000000
 40
4.999995
 41
44.939955
 71
     1
 72
     5
  1
Verlegemörtel
  7
Arial
 50
0.000000
  0
ENDBLK
  5
3AB
100
AcDbEntity
  8
0
100
AcDbBlockEnd
  0
BLOCK
  5
3AC
100
AcDbEntity
  8
SCHRAFF
100
AcDbBlockBegin
  2
B-41
 70
    66
 10
0.000000
 20
0.000000
 30
0.000000
  0
HATCH
  5
3AD
100
AcDbEntity
  8
SCHRAFF
 62
     7
440
     0
100
AcDbHatch
 10
0.000000
 20
0.000000
 30
0.000000
210
0.000000
220
0.000000
230
1.000000
  2
SOLID
 70
     1
 71
     1
 91
     1
 92
    18
 72
     1
 73
     0
 93
     3
 10
11.999982
 20
132.500078
 42
1.000000
 10
10.999982
 20
132.500078
 42
1.000000
 10
11.999982
 20
132.500078
 42
0.000000
 97
     0
 75
     0
 76
     1
 98
     0
  0
LWPOLYLINE
  5
3AE
100
AcDbEntity
  8
Detail
  6
CONTINUOUS
 62
     7
100
AcDbPolyline
 90
     3
 10
77.500023
 20
151.250078
 42
0.000000
 10
11.499982
 20
151.250078
 42
0.000000
 10
11.499982
 20
132.500078
 42
0.000000
  0
CIRCLE
  5
3B2
100
AcDbEntity
  8
Detail
  6
CONTINUOUS
 62
     7
100
AcDbCircle
 10
11.499982
 20
132.500078
 40
0.500000
  0
ENDBLK
  5
3B3
100
AcDbEntity
  8
0
100
AcDbBlockEnd
  0
BLOCK
  5
3B4
100
AcDbEntity
  8
Detail
100
AcDbBlockBegin
  2
B-42
 70
    66
 10
0.000000
 20
0.000000
 30
0.000000
  0
MTEXT
  5
3B5
100
AcDbEntity
  8
Detail
 62
     7
100
AcDbMText
 10
79.375023
 20
48.749984
 30
0.000000
 40
4.999995
 41
69.929930
 71
     7
 72
     5
  1
Ausgleichsschicht mit
  7
Arial
 50
0.000000
  0
MTEXT
  5
3B6
100
AcDbEntity
  8
Detail
 62
     7
100
AcDbMText
 10
79.375023
 20
41.249992
 30
0.000000
 40
4.999995
 41
68.827431
 71
     7
 72
     5
  1
Ceratherm Mörtel DP
  7
Arial
 50
0.000000
  0
ENDBLK
  5
3B7
100
AcDbEntity
  8
0
100
AcDbBlockEnd
  0
BLOCK
  5
3B8
100
AcDbEntity
  8
SCHRAFF
100
AcDbBlockBegin
  2
B-43
 70
    66
 10
0.000000
 20
0.000000
 30
0.000000
  0
HATCH
  5
3B9
100
AcDbEntity
  8
SCHRAFF
 62
     7
440
     0
100
AcDbHatch
 10
0.000000
 20
0.000000
 30
0.000000
210
0.000000
220
0.000000
230
1.000000
  2
SOLID
 70
     1
 71
     1
 91
     1
 92
    18
 72
     1
 73
     0
 93
     3
 10
-13.000018
 20
134.875078
 42
1.000000
 10
-14.000018
 20
134.875078
 42
1.000000
 10
-13.000018
 20
134.875078
 42
0.000000
 97
     0
 75
     0
 76
     1
 98
     0
  0
CIRCLE
  5
3BA
100
AcDbEntity
  8
Detail
  6
CONTINUOUS
 62
     7
100
AcDbCircle
 10
-13.500018
 20
134.875078
 40
0.500000
  0
LWPOLYLINE
  5
3BB
100
AcDbEntity
  8
Detail
  6
CONTINUOUS
 62
     7
100
AcDbPolyline
 90
     3
 10
77.500023
 20
176.250078
 42
0.000000
 10
-13.500018
 20
176.250078
 42
0.000000
 10
-13.500018
 20
134.875078
 42
0.000000
  0
ENDBLK
  5
3BF
100
AcDbEntity
  8
0
100
AcDbBlockEnd
  0
BLOCK
  5
3C0
100
AcDbEntity
  8
Detail
100
AcDbBlockBegin
  2
B-44
 70
    66
 10
0.000000
 20
0.000000
 30
0.000000
  0
LWPOLYLINE
  5
3C1
100
AcDbEntity
  8
Detail
  6
CONTINUOUS
 62
     7
100
AcDbPolyline
 90
     3
 10
77.500023
 20
201.250078
 42
0.000000
 10
-38.500018
 20
201.250078
 42
0.000000
 10
-38.500018
 20
135.250078
 42
0.000000
  0
ENDBLK
  5
3C5
100
AcDbEntity
  8
0
100
AcDbBlockEnd
  0
BLOCK
  5
3C6
100
AcDbEntity
  8
SCHRAFF
100
AcDbBlockBegin
  2
B-45
 70
    66
 10
0.000000
 20
0.000000
 30
0.000000
  0
HATCH
  5
3C7
100
AcDbEntity
  8
SCHRAFF
 62
     7
440
     0
100
AcDbHatch
 10
0.000000
 20
0.000000
 30
0.000000
210
0.000000
220
0.000000
230
1.000000
  2
SOLID
 70
     1
 71
     1
 91
     1
 92
    18
 72
     1
 73
     0
 93
     3
 10
-38.000018
 20
135.250078
 42
1.000000
 10
-39.000018
 20
135.250078
 42
1.000000
 10
-38.000018
 20
135.250078
 42
0.000000
 97
     0
 75
     0
 76
     1
 98
     0
  0
CIRCLE
  5
3C8
100
AcDbEntity
  8
Detail
  6
CONTINUOUS
 62
     7
100
AcDbCircle
 10
-38.500018
 20
135.250078
 40
0.500000
  0
ENDBLK
  5
3C9
100
AcDbEntity
  8
0
100
AcDbBlockEnd
  0
BLOCK
  5
3CA
100
AcDbEntity
  8
Detail
100
AcDbBlockBegin
  2
B-46
 70
    66
 10
0.000000
 20
0.000000
 30
0.000000
  0
LWPOLYLINE
  5
3CB
100
AcDbEntity
  8
Detail
  6
CONTINUOUS
 62
     7
100
AcDbPolyline
 90
     3
 10
77.500023
 20
276.250078
 42
0.000000
 10
-163.500018
 20
276.250078
 42
0.000000
 10
-163.500018
 20
111.750078
 42
0.000000
  0
ENDBLK
  5
3CF
100
AcDbEntity
  8
0
100
AcDbBlockEnd
  0
BLOCK
  5
3D0
100
AcDbEntity
  8
Detail
100
AcDbBlockBegin
  2
B-47
 70
    66
 10
0.000000
 20
0.000000
 30
0.000000
  0
LWPOLYLINE
  5
3D1
100
AcDbEntity
  8
Detail
  6
CONTINUOUS
 62
     7
100
AcDbPolyline
 90
     3
 10
77.500023
 20
251.250078
 42
0.000000
 10
-113.500018
 20
251.250078
 42
0.000000
 10
-113.500018
 20
90.250078
 42
0.000000
  0
ENDBLK
  5
3D5
100
AcDbEntity
  8
0
100
AcDbBlockEnd
  0
BLOCK
  5
3D6
100
AcDbEntity
  8
SCHRAFF
100
AcDbBlockBegin
  2
B-48
 70
    66
 10
0.000000
 20
0.000000
 30
0.000000
  0
HATCH
  5
3D7
100
AcDbEntity
  8
SCHRAFF
 62
     7
440
     0
100
AcDbHatch
 10
0.000000
 20
0.000000
 30
0.000000
210
0.000000
220
0.000000
230
1.000000
  2
SOLID
 70
     1
 71
     1
 91
     1
 92
    18
 72
     1
 73
     0
 93
     3
 10
-113.000018
 20
90.250078
 42
1.000000
 10
-114.000018
 20
90.250078
 42
1.000000
 10
-113.000018
 20
90.250078
 42
0.000000
 97
     0
 75
     0
 76
     1
 98
     0
  0
CIRCLE
  5
3D8
100
AcDbEntity
  8
Detail
  6
CONTINUOUS
 62
     7
100
AcDbCircle
 10
-113.500018
 20
90.250078
 40
0.500000
  0
ENDBLK
  5
3D9
100
AcDbEntity
  8
0
100
AcDbBlockEnd
  0
BLOCK
  5
3DA
100
AcDbEntity
  8
SCHRAFF
100
AcDbBlockBegin
  2
B-49
 70
    66
 10
0.000000
 20
0.000000
 30
0.000000
  0
HATCH
  5
3DB
100
AcDbEntity
  8
SCHRAFF
 62
     7
440
     0
100
AcDbHatch
 10
0.000000
 20
0.000000
 30
0.000000
210
0.000000
220
0.000000
230
1.000000
  2
SOLID
 70
     1
 71
     1
 91
     1
 92
    18
 72
     1
 73
     0
 93
     3
 10
-163.000018
 20
111.750078
 42
1.000000
 10
-164.000018
 20
111.750078
 42
1.000000
 10
-163.000018
 20
111.750078
 42
0.000000
 97
     0
 75
     0
 76
     1
 98
     0
  0
CIRCLE
  5
3DC
100
AcDbEntity
  8
Detail
  6
CONTINUOUS
 62
     7
100
AcDbCircle
 10
-163.500018
 20
111.750078
 40
0.500000
  0
ENDBLK
  5
3DD
100
AcDbEntity
  8
0
100
AcDbBlockEnd
  0
BLOCK
  5
3DE
100
AcDbEntity
  8
SCHRAFF
100
AcDbBlockBegin
  2
B-50
 70
    66
 10
0.000000
 20
0.000000
 30
0.000000
  0
HATCH
  5
3DF
100
AcDbEntity
  8
SCHRAFF
  6
CONTINUOUS
 62
     9
100
AcDbHatch
 10
0.000000
 20
0.000000
 30
0.000000
210
0.000000
220
0.000000
230
1.000000
  2
_U
 70
     0
 71
     1
 91
     1
 92
    18
 72
     1
 73
     0
 93
     9
 10
-79.500018
 20
50.250078
 42
0.000000
 10
-79.500018
 20
130.250078
 42
0.000000
 10
-133.500018
 20
130.250078
 42
0.000000
 10
-133.500018
 20
110.250078
 42
0.000000
 10
-193.500018
 20
110.250078
 42
0.000000
 10
-193.500018
 20
130.250078
 42
0.000000
 10
-212.500018
 20
130.250078
 42
0.000000
 10
-212.500018
 20
50.250078
 42
0.000000
 10
-79.500018
 20
50.250078
 42
0.000000
 97
     0
 75
     0
 76
     0
 52
0.000000
 41
1.000000
 77
     0
 78
     1
 53
90.000000
 43
-0.000000
 44
0.000000
 45
-13.750000
 46
0.000000
 79
     0
 98
     0
  0
ENDBLK
  5
3E0
100
AcDbEntity
  8
0
100
AcDbBlockEnd
  0
BLOCK
  5
3E1
100
AcDbEntity
  8
Detail
100
AcDbBlockBegin
  2
B-51
 70
    66
 10
0.000000
 20
0.000000
 30
0.000000
  0
LWPOLYLINE
  5
3E2
100
AcDbEntity
  8
Detail
  6
CONTINUOUS
 62
     2
100
AcDbPolyline
 90
     3
 10
-212.500018
 20
-74.749922
 42
0.000000
 10
-202.500018
 20
-74.749922
 42
0.000000
 10
-202.500018
 20
-196.249941
 42
0.000000
  0
ENDBLK
  5
3E6
100
AcDbEntity
  8
0
100
AcDbBlockEnd
  0
BLOCK
  5
3E7
100
AcDbEntity
  8
Detail
100
AcDbBlockBegin
  2
B-52
 70
    66
 10
0.000000
 20
0.000000
 30
0.000000
  0
MTEXT
  5
3E8
100
AcDbEntity
  8
Detail
 62
     7
100
AcDbMText
 10
79.375023
 20
228.749979
 30
0.000000
 40
4.999995
 41
60.059940
 71
     1
 72
     5
  1
Armierungsschicht
  7
Arial
 50
0.000000
  0
ENDBLK
  5
3E9
100
AcDbEntity
  8
0
100
AcDbBlockEnd
  0
BLOCK
  5
3EA
100
AcDbEntity
  8
Detail
100
AcDbBlockBegin
  2
B-53
 70
    66
 10
0.000000
 20
0.000000
 30
0.000000
  0
LWPOLYLINE
  5
3EB
100
AcDbEntity
  8
Detail
  6
CONTINUOUS
 62
     7
100
AcDbPolyline
 90
     3
 10
77.500023
 20
226.250078
 42
0.000000
 10
-63.500018
 20
226.250078
 42
0.000000
 10
-63.500018
 20
132.750078
 42
0.000000
  0
ENDBLK
  5
3EF
100
AcDbEntity
  8
0
100
AcDbBlockEnd
  0
BLOCK
  5
3F0
100
AcDbEntity
  8
SCHRAFF
100
AcDbBlockBegin
  2
B-54
 70
    66
 10
0.000000
 20
0.000000
 30
0.000000
  0
HATCH
  5
3F1
100
AcDbEntity
  8
SCHRAFF
 62
     7
440
     0
100
AcDbHatch
 10
0.000000
 20
0.000000
 30
0.000000
210
0.000000
220
0.000000
230
1.000000
  2
SOLID
 70
     1
 71
     1
 91
     1
 92
    18
 72
     1
 73
     0
 93
     3
 10
-63.000018
 20
132.750078
 42
1.000000
 10
-64.000018
 20
132.750078
 42
1.000000
 10
-63.000018
 20
132.750078
 42
0.000000
 97
     0
 75
     0
 76
     1
 98
     0
  0
CIRCLE
  5
3F2
100
AcDbEntity
  8
Detail
  6
CONTINUOUS
 62
     7
100
AcDbCircle
 10
-63.500018
 20
132.750078
 40
0.500000
  0
ENDBLK
  5
3F3
100
AcDbEntity
  8
0
100
AcDbBlockEnd
  0
BLOCK
  5
3F4
100
AcDbEntity
  8
Detail
100
AcDbBlockBegin
  2
B-55
 70
    66
 10
0.000000
 20
0.000000
 30
0.000000
  0
MTEXT
  5
3F5
100
AcDbEntity
  8
Detail
 62
     7
100
AcDbMText
 10
79.375021
 20
23.749982
 30
0.000000
 40
4.999995
 41
71.872428
 71
     7
 72
     5
  1
Armierungsschicht mit
  7
Arial
 50
0.000000
  0
MTEXT
  5
3F6
100
AcDbEntity
  8
Detail
 62
     7
100
AcDbMText
 10
79.375021
 20
16.249990
 30
0.000000
 40
4.999995
 41
68.827431
 71
     7
 72
     5
  1
Ceratherm Mörtel DP
  7
Arial
 50
0.000000
  0
ENDBLK
  5
3F7
100
AcDbEntity
  8
0
100
AcDbBlockEnd
  0
BLOCK
  5
3F8
100
AcDbEntity
  8
Detail
100
AcDbBlockBegin
  2
B-56
 70
    66
 10
0.000000
 20
0.000000
 30
0.000000
  0
MTEXT
  5
3F9
100
AcDbEntity
  8
Detail
 62
     7
100
AcDbMText
 10
79.375021
 20
-1.250018
 30
0.000000
 40
4.999995
 41
61.109939
 71
     7
 72
     5
  1
Verdübelung durch
  7
Arial
 50
0.000000
  0
MTEXT
  5
3FA
100
AcDbEntity
  8
Detail
 62
     7
100
AcDbMText
 10
79.375021
 20
-8.750010
 30
0.000000
 40
4.999995
 41
59.797440
 71
     7
 72
     5
  1
Gewebearmierung
  7
Arial
 50
0.000000
  0
ENDBLK
  5
3FB
100
AcDbEntity
  8
0
100
AcDbBlockEnd
  0
BLOCK
  5
3FC
100
AcDbEntity
  8
Detail
100
AcDbBlockBegin
  2
B-57
 70
    66
 10
0.000000
 20
0.000000
 30
0.000000
  0
MTEXT
  5
3FD
100
AcDbEntity
  8
Detail
 62
     7
100
AcDbMText
 10
79.375021
 20
-21.250023
 30
0.000000
 40
4.999995
 41
59.482441
 71
     1
 72
     5
  1
WDVS-Dämmstoff
  7
Arial
 50
0.000000
  0
ENDBLK
  5
3FE
100
AcDbEntity
  8
0
100
AcDbBlockEnd
  0
BLOCK
  5
3FF
100
AcDbEntity
  8
Detail
100
AcDbBlockBegin
  2
B-58
 70
    66
 10
0.000000
 20
0.000000
 30
0.000000
  0
MTEXT
  5
400
100
AcDbEntity
  8
Detail
 62
     7
100
AcDbMText
 10
79.375021
 20
-46.250024
 30
0.000000
 40
4.999992
 41
38.902438
 71
     1
 72
     5
  1
Klebemörtel
  7
Arial
 50
0.000000
  0
ENDBLK
  5
401
100
AcDbEntity
  8
0
100
AcDbBlockEnd
  0
BLOCK
  5
402
100
AcDbEntity
  8
SCHRAFF
100
AcDbBlockBegin
  2
B-59
 70
    66
 10
0.000000
 20
0.000000
 30
0.000000
  0
HATCH
  5
403
100
AcDbEntity
  8
SCHRAFF
 62
     7
440
     0
100
AcDbHatch
 10
0.000000
 20
0.000000
 30
0.000000
210
0.000000
220
0.000000
230
1.000000
  2
SOLID
 70
     1
 71
     1
 91
     1
 92
    18
 72
     1
 73
     0
 93
     3
 10
9.999982
 20
-73.749922
 42
1.000000
 10
8.999982
 20
-73.749922
 42
1.000000
 10
9.999982
 20
-73.749922
 42
0.000000
 97
     0
 75
     0
 76
     1
 98
     0
  0
CIRCLE
  5
404
100
AcDbEntity
  8
Detail
  6
CONTINUOUS
 62
     7
100
AcDbCircle
 10
9.499982
 20
-73.749922
 40
0.500000
  0
ENDBLK
  5
405
100
AcDbEntity
  8
0
100
AcDbBlockEnd
  0
BLOCK
  5
406
100
AcDbEntity
  8
Detail
100
AcDbBlockBegin
  2
B-60
 70
    66
 10
0.000000
 20
0.000000
 30
0.000000
  0
MTEXT
  5
407
100
AcDbEntity
  8
Detail
 62
     7
100
AcDbMText
 10
79.375021
 20
-76.250020
 30
0.000000
 40
4.999995
 41
82.267418
 71
     7
 72
     5
  1
Feldbegrenzungsfuge mit
  7
Arial
 50
0.000000
  0
MTEXT
  5
408
100
AcDbEntity
  8
Detail
 62
     7
100
AcDbMText
 10
79.375021
 20
-83.750012
 30
0.000000
 40
4.999995
 41
65.624934
 71
     7
 72
     5
  1
PE-Rundschnur und
  7
Arial
 50
0.000000
  0
MTEXT
  5
409
100
AcDbEntity
  8
Detail
 62
     7
100
AcDbMText
 10
79.375021
 20
-91.250005
 30
0.000000
 40
4.999995
 41
70.979929
 71
     7
 72
     5
  1
elastischem Dichtstoff
  7
Arial
 50
0.000000
  0
ENDBLK
  5
40A
100
AcDbEntity
  8
0
100
AcDbBlockEnd
  0
BLOCK
  5
40B
100
AcDbEntity
  8
Detail
100
AcDbBlockBegin
  2
B-61
 70
    66
 10
0.000000
 20
0.000000
 30
0.000000
  0
LWPOLYLINE
  5
40C
100
AcDbEntity
  8
Detail
  6
CONTINUOUS
 62
     7
100
AcDbPolyline
 90
     2
 10
77.500023
 20
-73.749922
 42
0.000000
 10
9.499982
 20
-73.749922
 42
0.000000
  0
ENDBLK
  5
40F
100
AcDbEntity
  8
0
100
AcDbBlockEnd
  0
BLOCK
  5
410
100
AcDbEntity
  8
Detail
100
AcDbBlockBegin
  2
B-62
 70
    66
 10
0.000000
 20
0.000000
 30
0.000000
  0
MTEXT
  5
411
100
AcDbEntity
  8
Detail
 62
     7
100
AcDbMText
 10
79.375023
 20
203.749980
 30
0.000000
 40
4.999992
 41
30.449951
 71
     1
 72
     5
  1
Deckputz
  7
Arial
 50
0.000000
  0
ENDBLK
  5
412
100
AcDbEntity
  8
0
100
AcDbBlockEnd
  0
BLOCK
  5
413
100
AcDbEntity
  8
Detail
100
AcDbBlockBegin
  2
B-63
 70
    66
 10
0.000000
 20
0.000000
 30
0.000000
  0
LWPOLYLINE
  5
414
100
AcDbEntity
  8
Detail
  6
HIDDEN
 62
     9
100
AcDbPolyline
 90
     2
 10
3.499982
 20
107.000078
 42
0.000000
 10
3.499982
 20
32.000078
 42
0.000000
  0
ENDBLK
  5
417
100
AcDbEntity
  8
0
100
AcDbBlockEnd
  0
BLOCK
  5
418
100
AcDbEntity
  8
Detail
100
AcDbBlockBegin
  2
B-64
 70
    66
 10
0.000000
 20
0.000000
 30
0.000000
  0
LWPOLYLINE
  5
419
100
AcDbEntity
  8
Detail
  6
HIDDEN
 62
     9
100
AcDbPolyline
 90
     2
 10
-20.750018
 20
131.250078
 42
0.000000
 10
-95.750018
 20
131.250078
 42
0.000000
  0
ENDBLK
  5
41C
100
AcDbEntity
  8
0
100
AcDbBlockEnd
  0
BLOCK
  5
41D
100
AcDbEntity
  8
Detail
100
AcDbBlockBegin
  2
B-65
 70
    66
 10
0.000000
 20
0.000000
 30
0.000000
  0
LWPOLYLINE
  5
41E
100
AcDbEntity
  8
Detail
  6
CONTINUOUS
 62
     7
100
AcDbPolyline
 90
     2
 10
77.500023
 20
-23.749922
 42
0.000000
 10
-37.500018
 20
-23.749922
 42
0.000000
  0
ENDBLK
  5
421
100
AcDbEntity
  8
0
100
AcDbBlockEnd
  0
BLOCK
  5
422
100
AcDbEntity
  8
SCHRAFF
100
AcDbBlockBegin
  2
B-66
 70
    66
 10
0.000000
 20
0.000000
 30
0.000000
  0
HATCH
  5
423
100
AcDbEntity
  8
SCHRAFF
 62
     7
440
     0
100
AcDbHatch
 10
0.000000
 20
0.000000
 30
0.000000
210
0.000000
220
0.000000
230
1.000000
  2
SOLID
 70
     1
 71
     1
 91
     1
 92
    18
 72
     1
 73
     0
 93
     3
 10
9.499982
 20
1.250078
 42
1.000000
 10
8.499982
 20
1.250078
 42
1.000000
 10
9.499982
 20
1.250078
 42
0.000000
 97
     0
 75
     0
 76
     1
 98
     0
  0
CIRCLE
  5
424
100
AcDbEntity
  8
Detail
  6
CONTINUOUS
 62
     7
100
AcDbCircle
 10
8.999982
 20
1.250078
 40
0.500000
  0
LWPOLYLINE
  5
425
100
AcDbEntity
  8
Detail
  6
CONTINUOUS
 62
     7
100
AcDbPolyline
 90
     2
 10
77.500023
 20
1.250078
 42
0.000000
 10
8.999982
 20
1.250078
 42
0.000000
  0
ENDBLK
  5
428
100
AcDbEntity
  8
0
100
AcDbBlockEnd
  0
BLOCK
  5
429
100
AcDbEntity
  8
Detail
100
AcDbBlockBegin
  2
B-67
 70
    66
 10
0.000000
 20
0.000000
 30
0.000000
  0
LWPOLYLINE
  5
42A
100
AcDbEntity
  8
Detail
  6
CONTINUOUS
 62
     3
100
AcDbPolyline
 90
     5
 10
-193.500018
 20
130.250078
 42
0.000000
 10
-193.500018
 20
110.250078
 42
0.000000
 10
-133.500018
 20
110.250078
 42
0.000000
 10
-133.500018
 20
130.250078
 42
0.000000
 10
-193.500018
 20
130.250078
 42
0.000000
  0
ENDBLK
  5
430
100
AcDbEntity
  8
0
100
AcDbBlockEnd
  0
BLOCK
  5
431
100
AcDbEntity
  8
Detail
100
AcDbBlockBegin
  2
B-68
 70
    66
 10
0.000000
 20
0.000000
 30
0.000000
  0
LWPOLYLINE
  5
432
100
AcDbEntity
  8
Detail
  6
CONTINUOUS
 62
     9
100
AcDbPolyline
 90
     2
 10
-170.500018
 20
81.750078
 42
0.000000
 10
-156.520605
 20
81.750078
 42
0.000000
  0
LWPOLYLINE
  5
435
100
AcDbEntity
  8
Detail
  6
CONTINUOUS
 62
     9
100
AcDbPolyline
 90
    83
 10
-133.500018
 20
110.250078
 42
0.000000
 10
-133.500018
 20
110.750078
 42
0.000000
 10
-138.500018
 20
111.750078
 42
0.000000
 10
-188.500018
 20
111.750078
 42
0.000000
 10
-193.500018
 20
110.750078
 42
0.000000
 10
-193.500018
 20
110.250078
 42
0.000000
 10
-176.500018
 20
110.250078
 42
0.000000
 10
-172.750018
 20
109.000078
 42
0.000000
 10
-171.500018
 20
105.250078
 42
0.000000
 10
-170.500018
 20
81.750078
 42
0.000000
 10
-168.000018
 20
75.750078
 42
0.000000
 10
-167.460018
 20
33.287881
 42
0.000000
 10
-167.213009
 20
31.921938
 42
0.000000
 10
-167.460018
 20
31.846185
 42
0.000000
 10
-167.460018
 20
29.063881
 42
0.000000
 10
-167.213009
 20
27.697938
 42
0.000000
 10
-167.460018
 20
27.622185
 42
0.000000
 10
-167.460018
 20
24.839881
 42
0.000000
 10
-167.213009
 20
23.473938
 42
0.000000
 10
-167.455218
 20
23.398269
 42
0.000000
 10
-167.460018
 20
20.615881
 42
0.000000
 10
-167.213009
 20
19.249938
 42
0.000000
 10
-167.460018
 20
19.174185
 42
0.000000
 10
-167.460018
 20
16.391881
 42
0.000000
 10
-167.213009
 20
15.025938
 42
0.000000
 10
-167.460018
 20
14.950185
 42
0.000000
 10
-167.460018
 20
12.167881
 42
0.000000
 10
-167.213009
 20
10.801938
 42
0.000000
 10
-167.460018
 20
10.726185
 42
0.000000
 10
-167.460018
 20
7.943881
 42
0.000000
 10
-167.213009
 20
6.577938
 42
0.000000
 10
-167.460018
 20
6.502185
 42
0.000000
 10
-167.460018
 20
3.719881
 42
0.000000
 10
-167.213009
 20
2.353938
 42
0.000000
 10
-167.460018
 20
2.278185
 42
0.000000
 10
-167.460018
 20
-0.504119
 42
0.000000
 10
-167.177586
 20
-1.708276
 42
0.000000
 10
-167.340017
 20
-2.167259
 42
0.000000
 10
-166.905762
 20
-3.144119
 42
0.000000
 10
-166.380018
 20
-3.384119
 42
0.000000
 10
-166.380018
 20
-4.152119
 42
0.000000
 10
-165.839050
 20
-5.670012
 42
0.000000
 10
-164.460018
 20
-6.503629
 42
0.000000
 10
-163.500018
 20
-8.249922
 42
0.000000
 10
-162.540018
 20
-6.503629
 42
0.000000
 10
-161.160986
 20
-5.670012
 42
0.000000
 10
-160.633625
 20
-4.407318
 42
0.000000
 10
-160.620018
 20
-3.384119
 42
0.000000
 10
-160.094274
 20
-3.144119
 42
0.000000
 10
-159.660018
 20
-2.391963
 42
0.000000
 10
-159.660018
 20
-1.942550
 42
0.000000
 10
-159.822450
 20
-1.708276
 42
0.000000
 10
-159.540018
 20
-0.504119
 42
0.000000
 10
-159.540018
 20
2.278185
 42
0.000000
 10
-159.787027
 20
2.353938
 42
0.000000
 10
-159.540018
 20
3.719881
 42
0.000000
 10
-159.540018
 20
6.502185
 42
0.000000
 10
-159.787027
 20
6.577938
 42
0.000000
 10
-159.540018
 20
7.943881
 42
0.000000
 10
-159.540018
 20
10.726185
 42
0.000000
 10
-159.787027
 20
10.801938
 42
0.000000
 10
-159.540018
 20
12.167881
 42
0.000000
 10
-159.540018
 20
14.950185
 42
0.000000
 10
-159.787027
 20
15.025938
 42
0.000000
 10
-159.540018
 20
16.391881
 42
0.000000
 10
-159.540018
 20
19.174185
 42
0.000000
 10
-159.787027
 20
19.249938
 42
0.000000
 10
-159.540018
 20
20.615881
 42
0.000000
 10
-159.544818
 20
23.398269
 42
0.000000
 10
-159.787027
 20
23.473938
 42
0.000000
 10
-159.540018
 20
24.839881
 42
0.000000
 10
-159.540018
 20
27.622185
 42
0.000000
 10
-159.787027
 20
27.697938
 42
0.000000
 10
-159.540018
 20
29.063881
 42
0.000000
 10
-159.540018
 20
31.846185
 42
0.000000
 10
-159.787027
 20
31.921938
 42
0.000000
 10
-159.540018
 20
33.287881
 42
0.000000
 10
-159.000018
 20
75.750078
 42
0.000000
 10
-156.500018
 20
81.750078
 42
0.000000
 10
-155.500018
 20
105.250078
 42
0.000000
 10
-154.250018
 20
109.000078
 42
0.000000
 10
-150.500018
 20
110.250078
 42
0.000000
 10
-133.500018
 20
110.250078
 42
0.000000
  0
LWPOLYLINE
  5
489
100
AcDbEntity
  8
Detail
  6
CONTINUOUS
 62
     9
100
AcDbPolyline
 90
   203
 10
-163.500018
 20
-8.249922
 42
0.000000
 10
-164.375283
 20
-6.136846
 42
0.000000
 10
-165.244036
 20
-5.635271
 42
0.000000
 10
-164.744036
 20
-5.246596
 42
0.000000
 10
-165.191527
 20
-4.166259
 42
0.000000
 10
-166.060281
 20
-3.664684
 42
0.000000
 10
-165.560281
 20
-3.276009
 42
0.000000
 10
-165.800018
 20
-2.697232
 42
0.000000
 10
-165.800018
 20
-2.096194
 42
0.000000
 10
-166.300018
 20
-1.807519
 42
0.000000
 10
-165.800018
 20
-1.418844
 42
0.000000
 10
-165.800018
 20
-0.286194
 42
0.000000
 10
-166.300018
 20
0.002481
 42
0.000000
 10
-165.800018
 20
0.391156
 42
0.000000
 10
-165.800018
 20
1.523806
 42
0.000000
 10
-166.300018
 20
1.812481
 42
0.000000
 10
-165.800018
 20
2.201156
 42
0.000000
 10
-165.800018
 20
3.333806
 42
0.000000
 10
-166.300018
 20
3.622481
 42
0.000000
 10
-165.800018
 20
4.011156
 42
0.000000
 10
-165.800018
 20
5.143806
 42
0.000000
 10
-166.300018
 20
5.432481
 42
0.000000
 10
-165.800018
 20
5.821156
 42
0.000000
 10
-165.800018
 20
6.953806
 42
0.000000
 10
-166.300018
 20
7.242481
 42
0.000000
 10
-165.800018
 20
7.631156
 42
0.000000
 10
-165.800018
 20
8.763806
 42
0.000000
 10
-166.300018
 20
9.052481
 42
0.000000
 10
-165.800018
 20
9.441156
 42
0.000000
 10
-165.800018
 20
10.573806
 42
0.000000
 10
-166.300018
 20
10.862481
 42
0.000000
 10
-165.800018
 20
11.251156
 42
0.000000
 10
-165.800018
 20
12.383806
 42
0.000000
 10
-166.300018
 20
12.672481
 42
0.000000
 10
-165.800018
 20
13.061156
 42
0.000000
 10
-165.800018
 20
14.193806
 42
0.000000
 10
-166.300018
 20
14.482481
 42
0.000000
 10
-165.800018
 20
14.871156
 42
0.000000
 10
-165.800018
 20
16.003806
 42
0.000000
 10
-166.300018
 20
16.292481
 42
0.000000
 10
-165.800018
 20
16.681156
 42
0.000000
 10
-165.800018
 20
17.813806
 42
0.000000
 10
-166.300018
 20
18.102481
 42
0.000000
 10
-165.800018
 20
18.491156
 42
0.000000
 10
-165.800018
 20
19.623806
 42
0.000000
 10
-166.300018
 20
19.912481
 42
0.000000
 10
-165.800018
 20
20.301156
 42
0.000000
 10
-165.800018
 20
21.433806
 42
0.000000
 10
-166.300018
 20
21.722481
 42
0.000000
 10
-165.800018
 20
22.111156
 42
0.000000
 10
-165.800018
 20
23.243806
 42
0.000000
 10
-166.300018
 20
23.532481
 42
0.000000
 10
-165.800018
 20
23.921156
 42
0.000000
 10
-165.800018
 20
25.053806
 42
0.000000
 10
-166.300018
 20
25.342481
 42
0.000000
 10
-165.800018
 20
25.731156
 42
0.000000
 10
-165.800018
 20
26.863806
 42
0.000000
 10
-166.300018
 20
27.152481
 42
0.000000
 10
-165.800018
 20
27.563671
 42
0.000000
 10
-165.800018
 20
28.673806
 42
0.000000
 10
-166.300018
 20
28.962481
 42
0.000000
 10
-165.800018
 20
29.351156
 42
0.000000
 10
-165.800018
 20
30.483806
 42
0.000000
 10
-166.300018
 20
30.772481
 42
0.000000
 10
-165.800018
 20
31.161156
 42
0.000000
 10
-165.800018
 20
32.293806
 42
0.000000
 10
-166.300018
 20
32.582481
 42
0.000000
 10
-165.800018
 20
32.971156
 42
0.000000
 10
-165.800018
 20
34.103806
 42
0.000000
 10
-166.300018
 20
34.392481
 42
0.000000
 10
-165.800018
 20
34.781156
 42
0.000000
 10
-165.800018
 20
35.913806
 42
0.000000
 10
-166.300018
 20
36.202481
 42
0.000000
 10
-165.800018
 20
36.591156
 42
0.000000
 10
-165.800018
 20
37.723806
 42
0.000000
 10
-166.300018
 20
38.012481
 42
0.000000
 10
-165.800018
 20
38.401156
 42
0.000000
 10
-165.800018
 20
39.533806
 42
0.000000
 10
-166.300018
 20
39.822481
 42
0.000000
 10
-165.800018
 20
40.211156
 42
0.000000
 10
-165.800018
 20
41.343806
 42
0.000000
 10
-166.300018
 20
41.632481
 42
0.000000
 10
-165.800018
 20
42.021156
 42
0.000000
 10
-165.800018
 20
43.153806
 42
0.000000
 10
-166.300018
 20
43.442481
 42
0.000000
 10
-165.800018
 20
43.831156
 42
0.000000
 10
-165.800018
 20
44.963806
 42
0.000000
 10
-166.300018
 20
45.252481
 42
0.000000
 10
-165.800018
 20
45.641156
 42
0.000000
 10
-165.800018
 20
46.773806
 42
0.000000
 10
-166.300018
 20
47.062481
 42
0.000000
 10
-165.800018
 20
47.451156
 42
0.000000
 10
-165.800018
 20
48.583806
 42
0.000000
 10
-166.300018
 20
48.872481
 42
0.000000
 10
-165.800018
 20
49.261156
 42
0.000000
 10
-165.800018
 20
50.393806
 42
0.000000
 10
-166.300018
 20
50.682481
 42
0.000000
 10
-165.800018
 20
51.071156
 42
0.000000
 10
-165.800018
 20
51.750078
 42
0.000000
 10
-165.900018
 20
51.923283
 42
0.000000
 10
-168.000018
 20
75.750078
 42
0.000000
 10
-159.000018
 20
75.750078
 42
0.000000
 10
-161.100018
 20
51.923283
 42
0.000000
 10
-161.200018
 20
51.750078
 42
0.000000
 10
-160.700018
 20
51.587481
 42
0.000000
 10
-161.200018
 20
51.298806
 42
0.000000
 10
-161.200018
 20
50.166156
 42
0.000000
 10
-160.700018
 20
49.777481
 42
0.000000
 10
-161.200018
 20
49.488806
 42
0.000000
 10
-161.200018
 20
48.356156
 42
0.000000
 10
-160.700018
 20
47.967481
 42
0.000000
 10
-161.200018
 20
47.678806
 42
0.000000
 10
-161.200018
 20
46.546156
 42
0.000000
 10
-160.700018
 20
46.157481
 42
0.000000
 10
-161.200018
 20
45.868806
 42
0.000000
 10
-161.200018
 20
44.736156
 42
0.000000
 10
-160.700018
 20
44.347481
 42
0.000000
 10
-161.200018
 20
44.058806
 42
0.000000
 10
-161.200018
 20
42.926156
 42
0.000000
 10
-160.700018
 20
42.537481
 42
0.000000
 10
-161.200018
 20
42.248806
 42
0.000000
 10
-161.200018
 20
41.116156
 42
0.000000
 10
-160.700018
 20
40.727481
 42
0.000000
 10
-161.200018
 20
40.438806
 42
0.000000
 10
-161.200018
 20
39.306156
 42
0.000000
 10
-160.700018
 20
38.917481
 42
0.000000
 10
-161.200018
 20
38.628806
 42
0.000000
 10
-161.200018
 20
37.496156
 42
0.000000
 10
-160.700018
 20
37.107481
 42
0.000000
 10
-161.200018
 20
36.818806
 42
0.000000
 10
-161.200018
 20
35.686156
 42
0.000000
 10
-160.700018
 20
35.297481
 42
0.000000
 10
-161.200018
 20
35.008806
 42
0.000000
 10
-161.200018
 20
33.876156
 42
0.000000
 10
-160.700018
 20
33.487481
 42
0.000000
 10
-161.200018
 20
33.198806
 42
0.000000
 10
-161.200018
 20
32.066156
 42
0.000000
 10
-160.700018
 20
31.677481
 42
0.000000
 10
-161.200018
 20
31.388806
 42
0.000000
 10
-161.200018
 20
30.256156
 42
0.000000
 10
-160.700018
 20
29.867481
 42
0.000000
 10
-161.200018
 20
29.578806
 42
0.000000
 10
-161.200018
 20
28.446156
 42
0.000000
 10
-160.700018
 20
28.057481
 42
0.000000
 10
-161.200018
 20
27.768806
 42
0.000000
 10
-161.200018
 20
26.636156
 42
0.000000
 10
-160.700018
 20
26.247481
 42
0.000000
 10
-161.200018
 20
25.958806
 42
0.000000
 10
-161.200018
 20
24.826156
 42
0.000000
 10
-160.700018
 20
24.437481
 42
0.000000
 10
-161.200018
 20
24.148806
 42
0.000000
 10
-161.200018
 20
23.016156
 42
0.000000
 10
-160.700018
 20
22.627481
 42
0.000000
 10
-161.200018
 20
22.338806
 42
0.000000
 10
-161.200018
 20
21.206156
 42
0.000000
 10
-160.700018
 20
20.817481
 42
0.000000
 10
-161.200018
 20
20.528806
 42
0.000000
 10
-161.200018
 20
19.396156
 42
0.000000
 10
-160.700018
 20
19.007481
 42
0.000000
 10
-161.200018
 20
18.718806
 42
0.000000
 10
-161.200018
 20
17.586156
 42
0.000000
 10
-160.700018
 20
17.197481
 42
0.000000
 10
-161.200018
 20
16.908806
 42
0.000000
 10
-161.200018
 20
15.776156
 42
0.000000
 10
-160.700018
 20
15.387481
 42
0.000000
 10
-161.200018
 20
15.098806
 42
0.000000
 10
-161.200018
 20
13.966156
 42
0.000000
 10
-160.700018
 20
13.577481
 42
0.000000
 10
-161.200018
 20
13.288806
 42
0.000000
 10
-161.200018
 20
12.156156
 42
0.000000
 10
-160.700018
 20
11.767481
 42
0.000000
 10
-161.200018
 20
11.478806
 42
0.000000
 10
-161.200018
 20
10.346156
 42
0.000000
 10
-160.700018
 20
9.957481
 42
0.000000
 10
-161.200018
 20
9.668806
 42
0.000000
 10
-161.200018
 20
8.536156
 42
0.000000
 10
-160.700018
 20
8.147481
 42
0.000000
 10
-161.200018
 20
7.858806
 42
0.000000
 10
-161.200018
 20
6.726156
 42
0.000000
 10
-160.700018
 20
6.337481
 42
0.000000
 10
-161.200018
 20
6.048806
 42
0.000000
 10
-161.200018
 20
4.916156
 42
0.000000
 10
-160.700018
 20
4.527481
 42
0.000000
 10
-161.200018
 20
4.238806
 42
0.000000
 10
-161.200018
 20
3.106156
 42
0.000000
 10
-160.700018
 20
2.717481
 42
0.000000
 10
-161.200018
 20
2.428806
 42
0.000000
 10
-161.200018
 20
1.296156
 42
0.000000
 10
-160.700018
 20
0.907481
 42
0.000000
 10
-161.200018
 20
0.618806
 42
0.000000
 10
-161.200018
 20
-0.513844
 42
0.000000
 10
-160.700018
 20
-0.902519
 42
0.000000
 10
-161.200018
 20
-1.191194
 42
0.000000
 10
-161.200018
 20
-2.323844
 42
0.000000
 10
-160.700018
 20
-2.712519
 42
0.000000
 10
-161.365497
 20
-3.096733
 42
0.000000
 10
-161.750243
 20
-4.025593
 42
0.000000
 10
-161.250243
 20
-4.414268
 42
0.000000
 10
-162.118997
 20
-4.915843
 42
0.000000
 10
-162.443477
 20
-5.699207
 42
0.000000
 10
-161.943477
 20
-6.087882
 42
0.000000
 10
-162.812231
 20
-6.589456
 42
0.000000
 10
-163.500018
 20
-8.249922
 42
0.000000
  0
ENDBLK
  5
555
100
AcDbEntity
  8
0
100
AcDbBlockEnd
  0
BLOCK
  5
556
100
AcDbEntity
  8
Detail
100
AcDbBlockBegin
  2
B-70
 70
    66
 10
0.000000
 20
0.000000
 30
0.000000
  0
MTEXT
  5
557
100
AcDbEntity
  8
Detail
 62
     7
100
AcDbMText
 10
-211.093768
 20
-225.937528
 30
0.000000
 40
3.749990
 41
353.428963
 71
     7
 72
     5
  1
Capatect Details sind allgemeine planerische Vorschläge. Sie stellen schematisch die Ausführung dar. Ihnen zugrunde liegen die entsprechenden 
  7
Arial
 50
0.000000
  0
MTEXT
  5
558
100
AcDbEntity
  8
Detail
 62
     7
100
AcDbMText
 10
-211.093768
 20
-231.562513
 30
0.000000
 40
3.749990
 41
392.764473
 71
     7
 72
     5
  1
Produktdatenblätter sowie Systemzulassungen. Die Möglichkeit der Detailanwendung sowie deren Vollständigkeit sind im speziellen Anwendungsfall vom Planer / 
  7
Arial
 50
0.000000
  0
MTEXT
  5
559
100
AcDbEntity
  8
Detail
 62
     7
100
AcDbMText
 10
-211.093768
 20
-237.187498
 30
0.000000
 40
3.749990
 41
107.887184
 71
     7
 72
     5
  1
Unternehmer eigenverantwortlich zu prüfen. 
  7
Arial
 50
0.000000
  0
ENDBLK
  5
55A
100
AcDbEntity
  8
0
100
AcDbBlockEnd
  0
BLOCK
  5
55B
100
AcDbEntity
  8
Detail
100
AcDbBlockBegin
  2
B-71
 70
    66
 10
0.000000
 20
0.000000
 30
0.000000
  0
LWPOLYLINE
  5
55C
100
AcDbEntity
  8
Detail
  6
CONTINUOUS
 62
     6
100
AcDbPolyline
 90
     2
 10
237.500023
 20
-246.249941
 42
0.000000
 10
-237.500018
 20
-246.249941
 42
0.000000
  0
ENDBLK
  5
55F
100
AcDbEntity
  8
0
100
AcDbBlockEnd
  0
BLOCK
  5
560
100
AcDbEntity
  8
Detail
100
AcDbBlockBegin
  2
B-72
 70
    66
 10
0.000000
 20
0.000000
 30
0.000000
  0
MTEXT
  5
561
100
AcDbEntity
  8
Detail
 62
     7
100
AcDbMText
 10
-210.625002
 20
-258.281291
 30
0.000000
 40
5.625000
 41
125.744063
 71
     7
 72
     5
  1
System:	Kombinationsfassade
  7
Arial
 50
0.000000
  0
MTEXT
  5
562
100
AcDbEntity
  8
Detail
 62
     7
100
AcDbMText
 10
-210.625002
 20
-266.718791
 30
0.000000
 40
5.625000
 41
158.287500
 71
     7
 72
     5
  1
	WDVS Putz / WDVS Hartbekleidung 
  7
Arial
 50
0.000000
  0
ENDBLK
  5
563
100
AcDbEntity
  8
0
100
AcDbBlockEnd
  0
BLOCK
  5
564
100
AcDbEntity
  8
Detail
100
AcDbBlockBegin
  2
B-73
 70
    66
 10
0.000000
 20
0.000000
 30
0.000000
  0
MTEXT
  5
565
100
AcDbEntity
  8
Detail
 62
     7
100
AcDbMText
 10
-210.625002
 20
-290.156291
 30
0.000000
 40
5.625000
 41
134.367188
 71
     1
 72
     5
  1
Detail:	Systemübergang  Aussenecke
  7
Arial
 50
0.000000
  0
ENDBLK
  5
566
100
AcDbEntity
  8
0
100
AcDbBlockEnd
  0
BLOCK
  5
567
100
AcDbEntity
  8
Detail
100
AcDbBlockBegin
  2
B-74
 70
    66
 10
0.000000
 20
0.000000
 30
0.000000
  0
MTEXT
  5
568
100
AcDbEntity
  8
Detail
 62
     7
100
AcDbMText
 10
6.314834
 20
-252.500041
 30
0.000000
 40
5.000000
 41
93.712500
 71
     1
 72
     5
  1
Plannummer:	310-0312
  7
Arial
 50
0.000000
  0
ENDBLK
  5
569
100
AcDbEntity
  8
0
100
AcDbBlockEnd
  0
BLOCK
  5
56A
100
AcDbEntity
  8
Detail
100
AcDbBlockBegin
  2
B-75
 70
    66
 10
0.000000
 20
0.000000
 30
0.000000
  0
MTEXT
  5
56B
100
AcDbEntity
  8
Detail
 62
     7
100
AcDbMText
 10
6.314834
 20
-277.500041
 30
0.000000
 40
5.000000
 41
91.035000
 71
     1
 72
     5
  1
Massstab:		ca. 1:2,5
  7
Arial
 50
0.000000
  0
ENDBLK
  5
56C
100
AcDbEntity
  8
0
100
AcDbBlockEnd
  0
BLOCK
  5
56D
100
AcDbEntity
  8
Detail
100
AcDbBlockBegin
  2
B-76
 70
    66
 10
0.000000
 20
0.000000
 30
0.000000
  0
MTEXT
  5
56E
100
AcDbEntity
  8
Detail
 62
     7
100
AcDbMText
 10
6.314834
 20
-302.500041
 30
0.000000
 40
5.000000
 41
99.435000
 71
     1
 72
     5
  1
Aktualisierung:	14.07.2016
  7
Arial
 50
0.000000
  0
ENDBLK
  5
56F
100
AcDbEntity
  8
0
100
AcDbBlockEnd
  0
BLOCK
  5
570
100
AcDbEntity
  8
Detail
100
AcDbBlockBegin
  2
B-77
 70
    66
 10
0.000000
 20
0.000000
 30
0.000000
  0
LWPOLYLINE
  5
571
100
AcDbEntity
  8
Detail
  6
CONTINUOUS
 62
     6
100
AcDbPolyline
 90
     2
 10
-20.560166
 20
-321.249941
 42
0.000000
 10
-20.560166
 20
-246.249941
 42
0.000000
  0
LWPOLYLINE
  5
574
100
AcDbEntity
  8
Detail
  6
CONTINUOUS
 62
     6
100
AcDbPolyline
 90
     2
 10
-237.500018
 20
-321.249941
 42
0.000000
 10
120.969928
 20
-321.249941
 42
0.000000
  0
LWPOLYLINE
  5
577
100
AcDbEntity
  8
Detail
  6
CONTINUOUS
 62
     6
100
AcDbPolyline
 90
     2
 10
-20.560166
 20
-271.249941
 42
0.000000
 10
120.969928
 20
-271.249941
 42
0.000000
  0
LWPOLYLINE
  5
57A
100
AcDbEntity
  8
Detail
  6
CONTINUOUS
 62
     6
100
AcDbPolyline
 90
     2
 10
-20.560166
 20
-296.249941
 42
0.000000
 10
120.969928
 20
-296.249941
 42
0.000000
  0
ENDBLK
  5
57D
100
AcDbEntity
  8
0
100
AcDbBlockEnd
  0
BLOCK
  5
57E
100
AcDbEntity
  8
Detail
100
AcDbBlockBegin
  2
B-78
 70
    66
 10
0.000000
 20
0.000000
 30
0.000000
  0
MTEXT
  5
57F
100
AcDbEntity
  8
Detail
 62
     7
100
AcDbMText
 10
-210.625009
 20
-332.500016
 30
0.000000
 40
4.999980
 41
58.117268
 71
     7
 72
     5
  1
DAW Schweiz AG
  7
Arial
 50
0.000000
  0
MTEXT
  5
580
100
AcDbEntity
  8
Detail
 62
     7
100
AcDbMText
 10
-210.625009
 20
-339.999986
 30
0.000000
 40
4.999980
 41
108.149567
 71
     7
 72
     5
  1
Gewerbestrasse 6, 8606 Nänikon
  7
Arial
 50
0.000000
  0
ENDBLK
  5
581
100
AcDbEntity
  8
0
100
AcDbBlockEnd
  0
BLOCK
  5
582
100
AcDbEntity
  8
Detail
100
AcDbBlockBegin
  2
B-79
 70
    66
 10
0.000000
 20
0.000000
 30
0.000000
  0
LWPOLYLINE
  5
583
100
AcDbEntity
  8
Detail
  6
CONTINUOUS
 62
     6
100
AcDbPolyline
 90
     2
 10
-20.560166
 20
-283.749941
 42
0.000000
 10
-237.500018
 20
-283.749941
 42
0.000000
  0
ENDBLK
  5
586
100
AcDbEntity
  8
0
100
AcDbBlockEnd
  0
BLOCK
  5
587
100
AcDbEntity
  8
Detail
100
AcDbBlockBegin
  2
B-80
 70
    66
 10
0.000000
 20
0.000000
 30
0.000000
  0
MTEXT
  5
588
100
AcDbEntity
  8
Detail
 62
     7
100
AcDbMText
 10
-85.625025
 20
-332.500016
 30
0.000000
 40
4.999980
 41
72.134711
 71
     7
 72
     5
  1
Telefon 043 399 42 22
  7
Arial
 50
0.000000
  0
MTEXT
  5
589
100
AcDbEntity
  8
Detail
 62
     7
100
AcDbMText
 10
-85.625025
 20
-339.999986
 30
0.000000
 40
4.999980
 41
71.767213
 71
     7
 72
     5
  1
Telefax 043 399 42 23
  7
Arial
 50
0.000000
  0
ENDBLK
  5
58A
100
AcDbEntity
  8
0
100
AcDbBlockEnd
  0
BLOCK
  5
58B
100
AcDbEntity
  8
Detail
100
AcDbBlockBegin
  2
B-81
 70
    66
 10
0.000000
 20
0.000000
 30
0.000000
  0
MTEXT
  5
58C
100
AcDbEntity
  8
Detail
 62
     7
100
AcDbMText
 10
39.374975
 20
-332.500019
 30
0.000000
 40
4.999982
 41
51.922313
 71
     7
 72
     5
  1
info@daw.swiss
  7
Arial
 50
0.000000
  0
MTEXT
  5
58D
100
AcDbEntity
  8
Detail
 62
     7
100
AcDbMText
 10
39.374975
 20
-339.999993
 30
0.000000
 40
4.999982
 41
54.599803
 71
     7
 72
     5
  1
www.capatect.ch
  7
Arial
 50
0.000000
  0
ENDBLK
  5
58E
100
AcDbEntity
  8
0
100
AcDbBlockEnd
  0
BLOCK
  5
58F
100
AcDbEntity
  8
Detail
100
AcDbBlockBegin
  2
B-82
 70
    66
 10
0.000000
 20
0.000000
 30
0.000000
  0
LWPOLYLINE
  5
590
100
AcDbEntity
  8
Detail
  6
CONTINUOUS
 62
     6
100
AcDbPolyline
 90
     2
 10
120.969928
 20
-346.249941
 42
0.000000
 10
120.969928
 20
-246.249941
 42
0.000000
  0
ENDBLK
  5
593
100
AcDbEntity
  8
0
100
AcDbBlockEnd
  0
BLOCK
  5
594
100
AcDbEntity
  8
Detail
100
AcDbBlockBegin
  2
B-83
 70
    66
 10
0.000000
 20
0.000000
 30
0.000000
  0
LWPOLYLINE
  5
595
100
AcDbEntity
  8
Detail
  6
CONTINUOUS
 62
     6
100
AcDbPolyline
 90
     5
 10
-237.500018
 20
-346.249941
 42
0.000000
 10
237.500023
 20
-346.249941
 42
0.000000
 10
237.500023
 20
346.250078
 42
0.000000
 10
-237.500018
 20
346.250078
 42
0.000000
 10
-237.500018
 20
-346.249941
 42
0.000000
  0
ENDBLK
  5
59B
100
AcDbEntity
  8
0
100
AcDbBlockEnd
  0
BLOCK
  5
59C
100
AcDbEntity
  8
Detail
100
AcDbBlockBegin
  2
B-84
 70
    66
 10
0.000000
 20
0.000000
 30
0.000000
  0
ENDBLK
  5
59D
100
AcDbEntity
  8
0
100
AcDbBlockEnd
  0
BLOCK
  5
59E
100
AcDbEntity
  8
Detail
100
AcDbBlockBegin
  2
B-85
 70
    66
 10
0.000000
 20
0.000000
 30
0.000000
  0
LWPOLYLINE
  5
59F
100
AcDbEntity
  8
Detail
  6
CONTINUOUS
 62
     9
100
AcDbPolyline
 90
     2
 10
-21.000018
 20
8.250078
 42
0.000000
 10
-21.000018
 20
-5.729335
 42
0.000000
  0
LWPOLYLINE
  5
5A2
100
AcDbEntity
  8
Detail
  6
CONTINUOUS
 62
     9
100
AcDbPolyline
 90
    83
 10
7.499982
 20
-28.749922
 42
0.000000
 10
7.999982
 20
-28.749922
 42
0.000000
 10
8.999982
 20
-23.749922
 42
0.000000
 10
8.999982
 20
26.250078
 42
0.000000
 10
7.999982
 20
31.250078
 42
0.000000
 10
7.499982
 20
31.250078
 42
0.000000
 10
7.499982
 20
14.250078
 42
0.000000
 10
6.249982
 20
10.500078
 42
0.000000
 10
2.499982
 20
9.250078
 42
0.000000
 10
-21.000018
 20
8.250078
 42
0.000000
 10
-27.000018
 20
5.750078
 42
0.000000
 10
-89.462215
 20
5.210078
 42
0.000000
 10
-90.828158
 20
4.963069
 42
0.000000
 10
-90.903911
 20
5.210078
 42
0.000000
 10
-93.686215
 20
5.210078
 42
0.000000
 10
-95.052158
 20
4.963069
 42
0.000000
 10
-95.127911
 20
5.210078
 42
0.000000
 10
-97.910215
 20
5.210078
 42
0.000000
 10
-99.276158
 20
4.963069
 42
0.000000
 10
-99.351827
 20
5.205278
 42
0.000000
 10
-102.134215
 20
5.210078
 42
0.000000
 10
-103.500158
 20
4.963069
 42
0.000000
 10
-103.575911
 20
5.210078
 42
0.000000
 10
-106.358215
 20
5.210078
 42
0.000000
 10
-107.724158
 20
4.963069
 42
0.000000
 10
-107.799911
 20
5.210078
 42
0.000000
 10
-110.582215
 20
5.210078
 42
0.000000
 10
-111.948158
 20
4.963069
 42
0.000000
 10
-112.023911
 20
5.210078
 42
0.000000
 10
-114.806215
 20
5.210078
 42
0.000000
 10
-116.172158
 20
4.963069
 42
0.000000
 10
-116.247911
 20
5.210078
 42
0.000000
 10
-119.030215
 20
5.210078
 42
0.000000
 10
-120.396158
 20
4.963069
 42
0.000000
 10
-120.471911
 20
5.210078
 42
0.000000
 10
-123.254215
 20
5.210078
 42
0.000000
 10
-124.458372
 20
4.927646
 42
0.000000
 10
-124.917355
 20
5.090077
 42
0.000000
 10
-125.894215
 20
4.655822
 42
0.000000
 10
-126.134215
 20
4.130078
 42
0.000000
 10
-126.902215
 20
4.130078
 42
0.000000
 10
-128.420108
 20
3.589110
 42
0.000000
 10
-129.253725
 20
2.210078
 42
0.000000
 10
-131.000018
 20
1.250078
 42
0.000000
 10
-129.253725
 20
0.290078
 42
0.000000
 10
-128.420108
 20
-1.088954
 42
0.000000
 10
-127.157414
 20
-1.616315
 42
0.000000
 10
-126.134215
 20
-1.629922
 42
0.000000
 10
-125.894215
 20
-2.155666
 42
0.000000
 10
-125.142059
 20
-2.589922
 42
0.000000
 10
-124.692646
 20
-2.589922
 42
0.000000
 10
-124.458372
 20
-2.427490
 42
0.000000
 10
-123.254215
 20
-2.709922
 42
0.000000
 10
-120.471911
 20
-2.709922
 42
0.000000
 10
-120.396158
 20
-2.462913
 42
0.000000
 10
-119.030215
 20
-2.709922
 42
0.000000
 10
-116.247911
 20
-2.709922
 42
0.000000
 10
-116.172158
 20
-2.462913
 42
0.000000
 10
-114.806215
 20
-2.709922
 42
0.000000
 10
-112.023911
 20
-2.709922
 42
0.000000
 10
-111.948158
 20
-2.462913
 42
0.000000
 10
-110.582215
 20
-2.709922
 42
0.000000
 10
-107.799911
 20
-2.709922
 42
0.000000
 10
-107.724158
 20
-2.462913
 42
0.000000
 10
-106.358215
 20
-2.709922
 42
0.000000
 10
-103.575911
 20
-2.709922
 42
0.000000
 10
-103.500158
 20
-2.462913
 42
0.000000
 10
-102.134215
 20
-2.709922
 42
0.000000
 10
-99.351827
 20
-2.705122
 42
0.000000
 10
-99.276158
 20
-2.462913
 42
0.000000
 10
-97.910215
 20
-2.709922
 42
0.000000
 10
-95.127911
 20
-2.709922
 42
0.000000
 10
-95.052158
 20
-2.462913
 42
0.000000
 10
-93.686215
 20
-2.709922
 42
0.000000
 10
-90.903911
 20
-2.709922
 42
0.000000
 10
-90.828158
 20
-2.462913
 42
0.000000
 10
-89.462215
 20
-2.709922
 42
0.000000
 10
-27.000018
 20
-3.249922
 42
0.000000
 10
-21.000018
 20
-5.749922
 42
0.000000
 10
2.499982
 20
-6.749922
 42
0.000000
 10
6.249982
 20
-7.999922
 42
0.000000
 10
7.499982
 20
-11.749922
 42
0.000000
 10
7.499982
 20
-28.749922
 42
0.000000
  0
LWPOLYLINE
  5
5F6
100
AcDbEntity
  8
Detail
  6
CONTINUOUS
 62
     9
100
AcDbPolyline
 90
   203
 10
-131.000018
 20
1.250078
 42
0.000000
 10
-128.886942
 20
2.125343
 42
0.000000
 10
-128.385367
 20
2.994096
 42
0.000000
 10
-127.996692
 20
2.494096
 42
0.000000
 10
-126.916355
 20
2.941587
 42
0.000000
 10
-126.414780
 20
3.810341
 42
0.000000
 10
-126.026105
 20
3.310341
 42
0.000000
 10
-125.447328
 20
3.550078
 42
0.000000
 10
-124.846289
 20
3.550078
 42
0.000000
 10
-124.557614
 20
4.050078
 42
0.000000
 10
-124.168939
 20
3.550078
 42
0.000000
 10
-123.036289
 20
3.550078
 42
0.000000
 10
-122.747614
 20
4.050078
 42
0.000000
 10
-122.358939
 20
3.550078
 42
0.000000
 10
-121.226289
 20
3.550078
 42
0.000000
 10
-120.937614
 20
4.050078
 42
0.000000
 10
-120.548939
 20
3.550078
 42
0.000000
 10
-119.416289
 20
3.550078
 42
0.000000
 10
-119.127614
 20
4.050078
 42
0.000000
 10
-118.738939
 20
3.550078
 42
0.000000
 10
-117.606289
 20
3.550078
 42
0.000000
 10
-117.317614
 20
4.050078
 42
0.000000
 10
-116.928939
 20
3.550078
 42
0.000000
 10
-115.796289
 20
3.550078
 42
0.000000
 10
-115.507614
 20
4.050078
 42
0.000000
 10
-115.118939
 20
3.550078
 42
0.000000
 10
-113.986289
 20
3.550078
 42
0.000000
 10
-113.697614
 20
4.050078
 42
0.000000
 10
-113.308939
 20
3.550078
 42
0.000000
 10
-112.176289
 20
3.550078
 42
0.000000
 10
-111.887614
 20
4.050078
 42
0.000000
 10
-111.498939
 20
3.550078
 42
0.000000
 10
-110.366289
 20
3.550078
 42
0.000000
 10
-110.077614
 20
4.050078
 42
0.000000
 10
-109.688939
 20
3.550078
 42
0.000000
 10
-108.556289
 20
3.550078
 42
0.000000
 10
-108.267614
 20
4.050078
 42
0.000000
 10
-107.878939
 20
3.550078
 42
0.000000
 10
-106.746289
 20
3.550078
 42
0.000000
 10
-106.457614
 20
4.050078
 42
0.000000
 10
-106.068939
 20
3.550078
 42
0.000000
 10
-104.936289
 20
3.550078
 42
0.000000
 10
-104.647614
 20
4.050078
 42
0.000000
 10
-104.258939
 20
3.550078
 42
0.000000
 10
-103.126289
 20
3.550078
 42
0.000000
 10
-102.837614
 20
4.050078
 42
0.000000
 10
-102.448939
 20
3.550078
 42
0.000000
 10
-101.316289
 20
3.550078
 42
0.000000
 10
-101.027614
 20
4.050078
 42
0.000000
 10
-100.638939
 20
3.550078
 42
0.000000
 10
-99.506289
 20
3.550078
 42
0.000000
 10
-99.217614
 20
4.050078
 42
0.000000
 10
-98.828939
 20
3.550078
 42
0.000000
 10
-97.696289
 20
3.550078
 42
0.000000
 10
-97.407614
 20
4.050078
 42
0.000000
 10
-97.018939
 20
3.550078
 42
0.000000
 10
-95.886289
 20
3.550078
 42
0.000000
 10
-95.597614
 20
4.050078
 42
0.000000
 10
-95.186425
 20
3.550078
 42
0.000000
 10
-94.076289
 20
3.550078
 42
0.000000
 10
-93.787614
 20
4.050078
 42
0.000000
 10
-93.398939
 20
3.550078
 42
0.000000
 10
-92.266289
 20
3.550078
 42
0.000000
 10
-91.977614
 20
4.050078
 42
0.000000
 10
-91.588939
 20
3.550078
 42
0.000000
 10
-90.456289
 20
3.550078
 42
0.000000
 10
-90.167614
 20
4.050078
 42
0.000000
 10
-89.778939
 20
3.550078
 42
0.000000
 10
-88.646289
 20
3.550078
 42
0.000000
 10
-88.357614
 20
4.050078
 42
0.000000
 10
-87.968939
 20
3.550078
 42
0.000000
 10
-86.836289
 20
3.550078
 42
0.000000
 10
-86.547614
 20
4.050078
 42
0.000000
 10
-86.158939
 20
3.550078
 42
0.000000
 10
-85.026289
 20
3.550078
 42
0.000000
 10
-84.737614
 20
4.050078
 42
0.000000
 10
-84.348939
 20
3.550078
 42
0.000000
 10
-83.216289
 20
3.550078
 42
0.000000
 10
-82.927614
 20
4.050078
 42
0.000000
 10
-82.538939
 20
3.550078
 42
0.000000
 10
-81.406289
 20
3.550078
 42
0.000000
 10
-81.117614
 20
4.050078
 42
0.000000
 10
-80.728939
 20
3.550078
 42
0.000000
 10
-79.596289
 20
3.550078
 42
0.000000
 10
-79.307614
 20
4.050078
 42
0.000000
 10
-78.918939
 20
3.550078
 42
0.000000
 10
-77.786289
 20
3.550078
 42
0.000000
 10
-77.497614
 20
4.050078
 42
0.000000
 10
-77.108939
 20
3.550078
 42
0.000000
 10
-75.976289
 20
3.550078
 42
0.000000
 10
-75.687614
 20
4.050078
 42
0.000000
 10
-75.298939
 20
3.550078
 42
0.000000
 10
-74.166289
 20
3.550078
 42
0.000000
 10
-73.877614
 20
4.050078
 42
0.000000
 10
-73.488939
 20
3.550078
 42
0.000000
 10
-72.356289
 20
3.550078
 42
0.000000
 10
-72.067614
 20
4.050078
 42
0.000000
 10
-71.678939
 20
3.550078
 42
0.000000
 10
-71.000018
 20
3.550078
 42
0.000000
 10
-70.826813
 20
3.650078
 42
0.000000
 10
-27.000018
 20
5.750078
 42
0.000000
 10
-27.000018
 20
-3.249922
 42
0.000000
 10
-70.826813
 20
-1.149922
 42
0.000000
 10
-71.000018
 20
-1.049922
 42
0.000000
 10
-71.162614
 20
-1.549922
 42
0.000000
 10
-71.451289
 20
-1.049922
 42
0.000000
 10
-72.583939
 20
-1.049922
 42
0.000000
 10
-72.972614
 20
-1.549922
 42
0.000000
 10
-73.261289
 20
-1.049922
 42
0.000000
 10
-74.393939
 20
-1.049922
 42
0.000000
 10
-74.782614
 20
-1.549922
 42
0.000000
 10
-75.071289
 20
-1.049922
 42
0.000000
 10
-76.203939
 20
-1.049922
 42
0.000000
 10
-76.592614
 20
-1.549922
 42
0.000000
 10
-76.881289
 20
-1.049922
 42
0.000000
 10
-78.013939
 20
-1.049922
 42
0.000000
 10
-78.402614
 20
-1.549922
 42
0.000000
 10
-78.691289
 20
-1.049922
 42
0.000000
 10
-79.823939
 20
-1.049922
 42
0.000000
 10
-80.212614
 20
-1.549922
 42
0.000000
 10
-80.501289
 20
-1.049922
 42
0.000000
 10
-81.633939
 20
-1.049922
 42
0.000000
 10
-82.022614
 20
-1.549922
 42
0.000000
 10
-82.311289
 20
-1.049922
 42
0.000000
 10
-83.443939
 20
-1.049922
 42
0.000000
 10
-83.832614
 20
-1.549922
 42
0.000000
 10
-84.121289
 20
-1.049922
 42
0.000000
 10
-85.253939
 20
-1.049922
 42
0.000000
 10
-85.642614
 20
-1.549922
 42
0.000000
 10
-85.931289
 20
-1.049922
 42
0.000000
 10
-87.063939
 20
-1.049922
 42
0.000000
 10
-87.452614
 20
-1.549922
 42
0.000000
 10
-87.741289
 20
-1.049922
 42
0.000000
 10
-88.873939
 20
-1.049922
 42
0.000000
 10
-89.262614
 20
-1.549922
 42
0.000000
 10
-89.551289
 20
-1.049922
 42
0.000000
 10
-90.683939
 20
-1.049922
 42
0.000000
 10
-91.072614
 20
-1.549922
 42
0.000000
 10
-91.361289
 20
-1.049922
 42
0.000000
 10
-92.493939
 20
-1.049922
 42
0.000000
 10
-92.882614
 20
-1.549922
 42
0.000000
 10
-93.171289
 20
-1.049922
 42
0.000000
 10
-94.303939
 20
-1.049922
 42
0.000000
 10
-94.692614
 20
-1.549922
 42
0.000000
 10
-94.981289
 20
-1.049922
 42
0.000000
 10
-96.113939
 20
-1.049922
 42
0.000000
 10
-96.502614
 20
-1.549922
 42
0.000000
 10
-96.791289
 20
-1.049922
 42
0.000000
 10
-97.923939
 20
-1.049922
 42
0.000000
 10
-98.312614
 20
-1.549922
 42
0.000000
 10
-98.601289
 20
-1.049922
 42
0.000000
 10
-99.733939
 20
-1.049922
 42
0.000000
 10
-100.122614
 20
-1.549922
 42
0.000000
 10
-100.411289
 20
-1.049922
 42
0.000000
 10
-101.543939
 20
-1.049922
 42
0.000000
 10
-101.932614
 20
-1.549922
 42
0.000000
 10
-102.221289
 20
-1.049922
 42
0.000000
 10
-103.353939
 20
-1.049922
 42
0.000000
 10
-103.742614
 20
-1.549922
 42
0.000000
 10
-104.031289
 20
-1.049922
 42
0.000000
 10
-105.163939
 20
-1.049922
 42
0.000000
 10
-105.552614
 20
-1.549922
 42
0.000000
 10
-105.841289
 20
-1.049922
 42
0.000000
 10
-106.973939
 20
-1.049922
 42
0.000000
 10
-107.362614
 20
-1.549922
 42
0.000000
 10
-107.651289
 20
-1.049922
 42
0.000000
 10
-108.783939
 20
-1.049922
 42
0.000000
 10
-109.172614
 20
-1.549922
 42
0.000000
 10
-109.461289
 20
-1.049922
 42
0.000000
 10
-110.593939
 20
-1.049922
 42
0.000000
 10
-110.982614
 20
-1.549922
 42
0.000000
 10
-111.271289
 20
-1.049922
 42
0.000000
 10
-112.403939
 20
-1.049922
 42
0.000000
 10
-112.792614
 20
-1.549922
 42
0.000000
 10
-113.081289
 20
-1.049922
 42
0.000000
 10
-114.213939
 20
-1.049922
 42
0.000000
 10
-114.602614
 20
-1.549922
 42
0.000000
 10
-114.891289
 20
-1.049922
 42
0.000000
 10
-116.023939
 20
-1.049922
 42
0.000000
 10
-116.412614
 20
-1.549922
 42
0.000000
 10
-116.701289
 20
-1.049922
 42
0.000000
 10
-117.833939
 20
-1.049922
 42
0.000000
 10
-118.222614
 20
-1.549922
 42
0.000000
 10
-118.511289
 20
-1.049922
 42
0.000000
 10
-119.643939
 20
-1.049922
 42
0.000000
 10
-120.032614
 20
-1.549922
 42
0.000000
 10
-120.321289
 20
-1.049922
 42
0.000000
 10
-121.453939
 20
-1.049922
 42
0.000000
 10
-121.842614
 20
-1.549922
 42
0.000000
 10
-122.131289
 20
-1.049922
 42
0.000000
 10
-123.263939
 20
-1.049922
 42
0.000000
 10
-123.652614
 20
-1.549922
 42
0.000000
 10
-123.941289
 20
-1.049922
 42
0.000000
 10
-125.073939
 20
-1.049922
 42
0.000000
 10
-125.462614
 20
-1.549922
 42
0.000000
 10
-125.846829
 20
-0.884443
 42
0.000000
 10
-126.775689
 20
-0.499697
 42
0.000000
 10
-127.164364
 20
-0.999697
 42
0.000000
 10
-127.665938
 20
-0.130943
 42
0.000000
 10
-128.449302
 20
0.193537
 42
0.000000
 10
-128.837977
 20
-0.306463
 42
0.000000
 10
-129.339552
 20
0.562291
 42
0.000000
 10
-131.000018
 20
1.250078
 42
0.000000
  0
ENDBLK
  5
6C2
100
AcDbEntity
  8
0
100
AcDbBlockEnd
  0
BLOCK
  5
6C3
100
AcDbEntity
  8
Detail
100
AcDbBlockBegin
  2
B-87
 70
    66
 10
0.000000
 20
0.000000
 30
0.000000
  0
CIRCLE
  5
6C4
100
AcDbEntity
  8
Detail
  6
CONTINUOUS
 62
     4
100
AcDbCircle
 10
9.499982
 20
-73.749922
 40
5.000000
  0
ENDBLK
  5
6C5
100
AcDbEntity
  8
0
100
AcDbBlockEnd
  0
BLOCK
  5
6C6
100
AcDbEntity
  8
Detail
100
AcDbBlockBegin
  2
B-88
 70
    66
 10
0.000000
 20
0.000000
 30
0.000000
  0
LWPOLYLINE
  5
6C7
100
AcDbEntity
  8
Detail
  6
HIDDEN
 62
     9
100
AcDbPolyline
 90
     2
 10
7.499982
 20
-78.749922
 42
0.000000
 10
7.499982
 20
-196.249941
 42
0.000000
  0
LWPOLYLINE
  5
6CA
100
AcDbEntity
  8
Detail
  6
CONTINUOUS
 62
     6
100
AcDbPolyline
 90
     4
 10
8.499982
 20
-196.249941
 42
0.000000
 10
8.499982
 20
-78.749922
 42
0.000000
 10
2.499982
 20
-78.749922
 42
0.000000
 10
2.499982
 20
-196.249941
 42
0.000000
  0
ENDBLK
  5
6CF
100
AcDbEntity
  8
0
100
AcDbBlockEnd
  0
BLOCK
  5
6D0
100
AcDbEntity
  8
Detail
100
AcDbBlockBegin
  2
B-89
 70
    66
 10
0.000000
 20
0.000000
 30
0.000000
  0
LWPOLYLINE
  5
6D1
100
AcDbEntity
  8
Detail
  6
CONTINUOUS
 62
     6
100
AcDbPolyline
 90
     5
 10
8.499982
 20
-68.749922
 42
0.000000
 10
2.499982
 20
-68.749922
 42
0.000000
 10
2.499982
 20
134.250078
 42
0.000000
 10
8.499982
 20
134.250078
 42
0.000000
 10
8.499982
 20
-68.749922
 42
0.000000
  0
ENDBLK
  5
6D7
100
AcDbEntity
  8
0
100
AcDbBlockEnd
  0
BLOCK
  5
6D8
100
AcDbEntity
  8
Detail
100
AcDbBlockBegin
  2
B-90
 70
    66
 10
0.000000
 20
0.000000
 30
0.000000
  0
LWPOLYLINE
  5
6D9
100
AcDbEntity
  8
Detail
  6
CONTINUOUS
 62
     4
100
AcDbPolyline
 90
     7
 10
-21.500018
 20
134.250078
 42
0.000000
 10
8.499982
 20
134.250078
 42
0.000000
 10
8.499982
 20
136.250078
 42
0.000000
 10
7.249982
 20
136.250078
 42
0.000000
 10
7.249982
 20
135.500078
 42
0.000000
 10
-21.500018
 20
135.500078
 42
0.000000
 10
-21.500018
 20
134.250078
 42
0.000000
  0
ENDBLK
  5
6E1
100
AcDbEntity
  8
0
100
AcDbBlockEnd
  0
BLOCK
  5
6E2
100
AcDbEntity
  8
SCHRAFF
100
AcDbBlockBegin
  2
B-91
 70
    66
 10
0.000000
 20
0.000000
 30
0.000000
  0
HATCH
  5
6E3
100
AcDbEntity
  8
SCHRAFF
 62
   250
440
     0
100
AcDbHatch
 10
0.000000
 20
0.000000
 30
0.000000
210
0.000000
220
0.000000
230
1.000000
  2
SOLID
 70
     1
 71
     1
 91
     1
 92
    18
 72
     1
 73
     0
 93
     8
 10
2.999982
 20
130.750078
 42
0.000000
 10
2.999982
 20
107.000078
 42
0.000000
 10
4.249982
 20
107.000078
 42
0.000000
 10
4.249982
 20
132.000078
 42
0.000000
 10
-20.750018
 20
132.000078
 42
0.000000
 10
-20.750018
 20
130.750078
 42
0.000000
 10
2.976118
 20
130.750078
 42
0.000000
 10
2.999982
 20
130.750078
 42
0.000000
 97
     0
 75
     0
 76
     1
 98
     0
  0
ENDBLK
  5
6E4
100
AcDbEntity
  8
0
100
AcDbBlockEnd
  0
BLOCK
  5
6E5
100
AcDbEntity
  8
Detail
100
AcDbBlockBegin
  2
B-92
 70
    66
 10
0.000000
 20
0.000000
 30
0.000000
  0
POLYLINE
  5
6E6
100
AcDbEntity
  8
Detail
 66
     1
  6
CONTINUOUS
 62
     4
100
AcDb2dPolyline
  0
VERTEX
  5
6E7
100
AcDbEntity
  8
Detail
100
AcDbVertex
100
AcDb2dVertex
 10
2.999982
 20
107.000078
 42
0.000000
  0
VERTEX
  5
6E8
100
AcDbEntity
  8
Detail
100
AcDbVertex
100
AcDb2dVertex
 10
4.249982
 20
107.000078
 42
0.000000
  0
VERTEX
  5
6E9
100
AcDbEntity
  8
Detail
100
AcDbVertex
100
AcDb2dVertex
 10
4.249982
 20
132.000078
 42
0.000000
  0
VERTEX
  5
6EA
100
AcDbEntity
  8
Detail
100
AcDbVertex
100
AcDb2dVertex
 10
-20.750018
 20
132.000078
 42
0.000000
  0
VERTEX
  5
6EB
100
AcDbEntity
  8
Detail
100
AcDbVertex
100
AcDb2dVertex
 10
-20.750018
 20
130.750078
 42
0.000000
  0
VERTEX
  5
6EC
100
AcDbEntity
  8
Detail
100
AcDbVertex
100
AcDb2dVertex
 10
2.999982
 20
130.750078
 42
0.000000
  0
VERTEX
  5
6ED
100
AcDbEntity
  8
Detail
 62
     9
100
AcDbVertex
100
AcDb2dVertex
 10
2.976118
 20
130.750078
 42
0.000000
  0
VERTEX
  5
6EE
100
AcDbEntity
  8
Detail
 62
     9
100
AcDbVertex
100
AcDb2dVertex
 10
2.999982
 20
130.750078
 42
0.000000
  0
VERTEX
  5
6EF
100
AcDbEntity
  8
Detail
100
AcDbVertex
100
AcDb2dVertex
 10
2.999982
 20
107.000078
 42
0.000000
  0
SEQEND
  5
6F0
100
AcDbEntity
  8
Detail
  0
ENDBLK
  5
6F1
100
AcDbEntity
  8
0
100
AcDbBlockEnd
  0
BLOCK
  5
6F2
100
AcDbEntity
  8
SCHRAFF
100
AcDbBlockBegin
  2
B-93
 70
    66
 10
0.000000
 20
0.000000
 30
0.000000
  0
HATCH
  5
6F3
100
AcDbEntity
  8
SCHRAFF
 62
     7
440
     0
100
AcDbHatch
 10
0.000000
 20
0.000000
 30
0.000000
210
0.000000
220
0.000000
230
1.000000
  2
SOLID
 70
     1
 71
     1
 91
     1
 92
    18
 72
     1
 73
     0
 93
     3
 10
4.124982
 20
126.250078
 42
1.000000
 10
3.124982
 20
126.250078
 42
1.000000
 10
4.124982
 20
126.250078
 42
0.000000
 97
     0
 75
     0
 76
     1
 98
     0
  0
ENDBLK
  5
6F4
100
AcDbEntity
  8
0
100
AcDbBlockEnd
  0
BLOCK
  5
6F5
100
AcDbEntity
  8
Detail
100
AcDbBlockBegin
  2
B-94
 70
    66
 10
0.000000
 20
0.000000
 30
0.000000
  0
CIRCLE
  5
6F6
100
AcDbEntity
  8
Detail
  6
CONTINUOUS
 62
     7
100
AcDbCircle
 10
3.624982
 20
126.250078
 40
0.500000
  0
ENDBLK
  5
6F7
100
AcDbEntity
  8
0
100
AcDbBlockEnd
  0
BLOCK
  5
6F8
100
AcDbEntity
  8
Detail
100
AcDbBlockBegin
  2
B-95
 70
    66
 10
0.000000
 20
0.000000
 30
0.000000
  0
LWPOLYLINE
  5
6F9
100
AcDbEntity
  8
Detail
  6
CONTINUOUS
 62
     7
100
AcDbPolyline
 90
     2
 10
77.500023
 20
126.250078
 42
0.000000
 10
3.624982
 20
126.250078
 42
0.000000
  0
ENDBLK
  5
6FC
100
AcDbEntity
  8
0
100
AcDbBlockEnd
  0
BLOCK
  5
6FD
100
AcDbEntity
  8
Detail
100
AcDbBlockBegin
  2
B-96
 70
    66
 10
0.000000
 20
0.000000
 30
0.000000
  0
LWPOLYLINE
  5
6FE
100
AcDbEntity
  8
Detail
  6
CONTINUOUS
 62
     4
100
AcDbPolyline
 90
     2
 10
8.499982
 20
136.250078
 42
0.500000
 10
14.499982
 20
136.250078
 42
0.000000
  0
ENDBLK
  5
701
100
AcDbEntity
  8
0
100
AcDbBlockEnd
  0
BLOCK
  5
702
100
AcDbEntity
  8
Detail
100
AcDbBlockBegin
  2
B-97
 70
    66
 10
0.000000
 20
0.000000
 30
0.000000
  0
LWPOLYLINE
  5
703
100
AcDbEntity
  8
Detail
  6
CONTINUOUS
 62
     3
100
AcDbPolyline
 90
     8
 10
-212.500018
 20
50.250078
 42
0.000000
 10
-79.500018
 20
50.250078
 42
0.000000
 10
-79.500018
 20
130.250078
 42
0.000000
 10
-133.500018
 20
130.250078
 42
0.000000
 10
-133.500018
 20
110.250078
 42
0.000000
 10
-193.500018
 20
110.250078
 42
0.000000
 10
-193.500018
 20
130.250078
 42
0.000000
 10
-212.500018
 20
130.250078
 42
0.000000
  0
LWPOLYLINE
  5
70C
100
AcDbEntity
  8
Detail
  6
CONTINUOUS
 62
     3
100
AcDbPolyline
 90
     4
 10
-77.500018
 20
-196.249941
 42
0.000000
 10
-77.500018
 20
130.250078
 42
0.000000
 10
2.499982
 20
130.250078
 42
0.000000
 10
2.499982
 20
-196.249941
 42
0.000000
  0
ENDBLK
  5
711
100
AcDbEntity
  8
0
100
AcDbBlockEnd
  0
BLOCK
  5
712
100
AcDbEntity
  8
Detail
100
AcDbBlockBegin
  2
B-98
 70
    66
 10
0.000000
 20
0.000000
 30
0.000000
  0
LWPOLYLINE
  5
713
100
AcDbEntity
  8
Detail
  6
CONTINUOUS
 62
     4
100
AcDbPolyline
 90
     2
 10
22.499982
 20
-78.749922
 42
-0.400000
 10
22.499982
 20
-68.749922
 42
0.000000
  0
ENDBLK
  5
716
100
AcDbEntity
  8
0
100
AcDbBlockEnd
  0
ENDSEC
  0
SECTION
  2
ENTITIES
  0
INSERT
  5
717
100
AcDbEntity
  8
0
100
AcDbBlockReference
  2
B
 10
0.000000
 20
0.000000
 30
0.000000
 41
1.000000
 42
1.000000
 43
1.000000
 50
0.000000
  0
INSERT
  5
718
100
AcDbEntity
  8
0
100
AcDbBlockReference
  2
B-2
 10
0.000000
 20
0.000000
 30
0.000000
 41
1.000000
 42
1.000000
 43
1.000000
 50
0.000000
  0
INSERT
  5
719
100
AcDbEntity
  8
0
100
AcDbBlockReference
  2
B-3
 10
0.000000
 20
0.000000
 30
0.000000
 41
1.000000
 42
1.000000
 43
1.000000
 50
0.000000
  0
INSERT
  5
71A
100
AcDbEntity
  8
0
100
AcDbBlockReference
  2
B-4
 10
0.000000
 20
0.000000
 30
0.000000
 41
1.000000
 42
1.000000
 43
1.000000
 50
0.000000
  0
INSERT
  5
71B
100
AcDbEntity
  8
0
100
AcDbBlockReference
  2
B-5
 10
0.000000
 20
0.000000
 30
0.000000
 41
1.000000
 42
1.000000
 43
1.000000
 50
0.000000
  0
INSERT
  5
71C
100
AcDbEntity
  8
0
100
AcDbBlockReference
  2
B-6
 10
0.000000
 20
0.000000
 30
0.000000
 41
1.000000
 42
1.000000
 43
1.000000
 50
0.000000
  0
INSERT
  5
71D
100
AcDbEntity
  8
0
100
AcDbBlockReference
  2
B-7
 10
0.000000
 20
0.000000
 30
0.000000
 41
1.000000
 42
1.000000
 43
1.000000
 50
0.000000
  0
INSERT
  5
71E
100
AcDbEntity
  8
0
100
AcDbBlockReference
  2
B-8
 10
0.000000
 20
0.000000
 30
0.000000
 41
1.000000
 42
1.000000
 43
1.000000
 50
0.000000
  0
INSERT
  5
71F
100
AcDbEntity
  8
Detail
100
AcDbBlockReference
  2
B-9
 10
0.000000
 20
0.000000
 30
0.000000
 41
1.000000
 42
1.000000
 43
1.000000
 50
0.000000
  0
INSERT
  5
720
100
AcDbEntity
  8
0
100
AcDbBlockReference
  2
B-10
 10
0.000000
 20
0.000000
 30
0.000000
 41
1.000000
 42
1.000000
 43
1.000000
 50
0.000000
  0
INSERT
  5
721
100
AcDbEntity
  8
Detail
100
AcDbBlockReference
  2
B-11
 10
0.000000
 20
0.000000
 30
0.000000
 41
1.000000
 42
1.000000
 43
1.000000
 50
0.000000
  0
INSERT
  5
722
100
AcDbEntity
  8
0
100
AcDbBlockReference
  2
B-12
 10
0.000000
 20
0.000000
 30
0.000000
 41
1.000000
 42
1.000000
 43
1.000000
 50
0.000000
  0
INSERT
  5
723
100
AcDbEntity
  8
0
100
AcDbBlockReference
  2
B-13
 10
0.000000
 20
0.000000
 30
0.000000
 41
1.000000
 42
1.000000
 43
1.000000
 50
0.000000
  0
INSERT
  5
724
100
AcDbEntity
  8
Detail
100
AcDbBlockReference
  2
B-14
 10
0.000000
 20
0.000000
 30
0.000000
 41
1.000000
 42
1.000000
 43
1.000000
 50
0.000000
  0
INSERT
  5
725
100
AcDbEntity
  8
0
100
AcDbBlockReference
  2
B-15
 10
0.000000
 20
0.000000
 30
0.000000
 41
1.000000
 42
1.000000
 43
1.000000
 50
0.000000
  0
INSERT
  5
726
100
AcDbEntity
  8
0
100
AcDbBlockReference
  2
B-16
 10
0.000000
 20
0.000000
 30
0.000000
 41
1.000000
 42
1.000000
 43
1.000000
 50
0.000000
  0
INSERT
  5
727
100
AcDbEntity
  8
0
100
AcDbBlockReference
  2
B-17
 10
0.000000
 20
0.000000
 30
0.000000
 41
1.000000
 42
1.000000
 43
1.000000
 50
0.000000
  0
INSERT
  5
728
100
AcDbEntity
  8
0
100
AcDbBlockReference
  2
B-18
 10
0.000000
 20
0.000000
 30
0.000000
 41
1.000000
 42
1.000000
 43
1.000000
 50
0.000000
  0
INSERT
  5
729
100
AcDbEntity
  8
0
100
AcDbBlockReference
  2
B-19
 10
0.000000
 20
0.000000
 30
0.000000
 41
1.000000
 42
1.000000
 43
1.000000
 50
0.000000
  0
INSERT
  5
72A
100
AcDbEntity
  8
0
100
AcDbBlockReference
  2
B-20
 10
0.000000
 20
0.000000
 30
0.000000
 41
1.000000
 42
1.000000
 43
1.000000
 50
0.000000
  0
INSERT
  5
72B
100
AcDbEntity
  8
Detail
100
AcDbBlockReference
  2
B-21
 10
0.000000
 20
0.000000
 30
0.000000
 41
1.000000
 42
1.000000
 43
1.000000
 50
0.000000
  0
INSERT
  5
72C
100
AcDbEntity
  8
Detail
100
AcDbBlockReference
  2
B-22
 10
0.000000
 20
0.000000
 30
0.000000
 41
1.000000
 42
1.000000
 43
1.000000
 50
0.000000
  0
INSERT
  5
72D
100
AcDbEntity
  8
Detail
100
AcDbBlockReference
  2
B-23
 10
0.000000
 20
0.000000
 30
0.000000
 41
1.000000
 42
1.000000
 43
1.000000
 50
0.000000
  0
INSERT
  5
72E
100
AcDbEntity
  8
0
100
AcDbBlockReference
  2
B-24
 10
0.000000
 20
0.000000
 30
0.000000
 41
1.000000
 42
1.000000
 43
1.000000
 50
0.000000
  0
INSERT
  5
72F
100
AcDbEntity
  8
0
100
AcDbBlockReference
  2
B-25
 10
0.000000
 20
0.000000
 30
0.000000
 41
1.000000
 42
1.000000
 43
1.000000
 50
0.000000
  0
INSERT
  5
730
100
AcDbEntity
  8
Detail
100
AcDbBlockReference
  2
B-26
 10
0.000000
 20
0.000000
 30
0.000000
 41
1.000000
 42
1.000000
 43
1.000000
 50
0.000000
  0
INSERT
  5
731
100
AcDbEntity
  8
Detail
100
AcDbBlockReference
  2
B-27
 10
0.000000
 20
0.000000
 30
0.000000
 41
1.000000
 42
1.000000
 43
1.000000
 50
0.000000
  0
INSERT
  5
732
100
AcDbEntity
  8
Detail
100
AcDbBlockReference
  2
B-28
 10
0.000000
 20
0.000000
 30
0.000000
 41
1.000000
 42
1.000000
 43
1.000000
 50
0.000000
  0
INSERT
  5
733
100
AcDbEntity
  8
0
100
AcDbBlockReference
  2
B-29
 10
0.000000
 20
0.000000
 30
0.000000
 41
1.000000
 42
1.000000
 43
1.000000
 50
0.000000
  0
INSERT
  5
734
100
AcDbEntity
  8
0
100
AcDbBlockReference
  2
B-30
 10
0.000000
 20
0.000000
 30
0.000000
 41
1.000000
 42
1.000000
 43
1.000000
 50
0.000000
  0
INSERT
  5
735
100
AcDbEntity
  8
Detail
100
AcDbBlockReference
  2
B-31
 10
0.000000
 20
0.000000
 30
0.000000
 41
1.000000
 42
1.000000
 43
1.000000
 50
0.000000
  0
INSERT
  5
736
100
AcDbEntity
  8
Detail
100
AcDbBlockReference
  2
B-32
 10
0.000000
 20
0.000000
 30
0.000000
 41
1.000000
 42
1.000000
 43
1.000000
 50
0.000000
  0
INSERT
  5
737
100
AcDbEntity
  8
0
100
AcDbBlockReference
  2
B-33
 10
0.000000
 20
0.000000
 30
0.000000
 41
1.000000
 42
1.000000
 43
1.000000
 50
0.000000
  0
INSERT
  5
738
100
AcDbEntity
  8
Detail
100
AcDbBlockReference
  2
B-34
 10
0.000000
 20
0.000000
 30
0.000000
 41
1.000000
 42
1.000000
 43
1.000000
 50
0.000000
  0
INSERT
  5
739
100
AcDbEntity
  8
0
100
AcDbBlockReference
  2
B-35
 10
0.000000
 20
0.000000
 30
0.000000
 41
1.000000
 42
1.000000
 43
1.000000
 50
0.000000
  0
INSERT
  5
73A
100
AcDbEntity
  8
Detail
100
AcDbBlockReference
  2
B-36
 10
0.000000
 20
0.000000
 30
0.000000
 41
1.000000
 42
1.000000
 43
1.000000
 50
0.000000
  0
INSERT
  5
73B
100
AcDbEntity
  8
0
100
AcDbBlockReference
  2
B-37
 10
0.000000
 20
0.000000
 30
0.000000
 41
1.000000
 42
1.000000
 43
1.000000
 50
0.000000
  0
INSERT
  5
73C
100
AcDbEntity
  8
0
100
AcDbBlockReference
  2
B-38
 10
0.000000
 20
0.000000
 30
0.000000
 41
1.000000
 42
1.000000
 43
1.000000
 50
0.000000
  0
INSERT
  5
73D
100
AcDbEntity
  8
Detail
100
AcDbBlockReference
  2
B-39
 10
0.000000
 20
0.000000
 30
0.000000
 41
1.000000
 42
1.000000
 43
1.000000
 50
0.000000
  0
INSERT
  5
73E
100
AcDbEntity
  8
Detail
100
AcDbBlockReference
  2
B-40
 10
0.000000
 20
0.000000
 30
0.000000
 41
1.000000
 42
1.000000
 43
1.000000
 50
0.000000
  0
INSERT
  5
73F
100
AcDbEntity
  8
0
100
AcDbBlockReference
  2
B-41
 10
0.000000
 20
0.000000
 30
0.000000
 41
1.000000
 42
1.000000
 43
1.000000
 50
0.000000
  0
INSERT
  5
740
100
AcDbEntity
  8
Detail
100
AcDbBlockReference
  2
B-42
 10
0.000000
 20
0.000000
 30
0.000000
 41
1.000000
 42
1.000000
 43
1.000000
 50
0.000000
  0
INSERT
  5
741
100
AcDbEntity
  8
0
100
AcDbBlockReference
  2
B-43
 10
0.000000
 20
0.000000
 30
0.000000
 41
1.000000
 42
1.000000
 43
1.000000
 50
0.000000
  0
INSERT
  5
742
100
AcDbEntity
  8
Detail
100
AcDbBlockReference
  2
B-44
 10
0.000000
 20
0.000000
 30
0.000000
 41
1.000000
 42
1.000000
 43
1.000000
 50
0.000000
  0
INSERT
  5
743
100
AcDbEntity
  8
0
100
AcDbBlockReference
  2
B-45
 10
0.000000
 20
0.000000
 30
0.000000
 41
1.000000
 42
1.000000
 43
1.000000
 50
0.000000
  0
INSERT
  5
744
100
AcDbEntity
  8
Detail
100
AcDbBlockReference
  2
B-46
 10
0.000000
 20
0.000000
 30
0.000000
 41
1.000000
 42
1.000000
 43
1.000000
 50
0.000000
  0
INSERT
  5
745
100
AcDbEntity
  8
Detail
100
AcDbBlockReference
  2
B-47
 10
0.000000
 20
0.000000
 30
0.000000
 41
1.000000
 42
1.000000
 43
1.000000
 50
0.000000
  0
INSERT
  5
746
100
AcDbEntity
  8
0
100
AcDbBlockReference
  2
B-48
 10
0.000000
 20
0.000000
 30
0.000000
 41
1.000000
 42
1.000000
 43
1.000000
 50
0.000000
  0
INSERT
  5
747
100
AcDbEntity
  8
0
100
AcDbBlockReference
  2
B-49
 10
0.000000
 20
0.000000
 30
0.000000
 41
1.000000
 42
1.000000
 43
1.000000
 50
0.000000
  0
INSERT
  5
748
100
AcDbEntity
  8
0
100
AcDbBlockReference
  2
B-50
 10
0.000000
 20
0.000000
 30
0.000000
 41
1.000000
 42
1.000000
 43
1.000000
 50
0.000000
  0
INSERT
  5
749
100
AcDbEntity
  8
Detail
100
AcDbBlockReference
  2
B-51
 10
0.000000
 20
0.000000
 30
0.000000
 41
1.000000
 42
1.000000
 43
1.000000
 50
0.000000
  0
INSERT
  5
74A
100
AcDbEntity
  8
Detail
100
AcDbBlockReference
  2
B-52
 10
0.000000
 20
0.000000
 30
0.000000
 41
1.000000
 42
1.000000
 43
1.000000
 50
0.000000
  0
INSERT
  5
74B
100
AcDbEntity
  8
Detail
100
AcDbBlockReference
  2
B-53
 10
0.000000
 20
0.000000
 30
0.000000
 41
1.000000
 42
1.000000
 43
1.000000
 50
0.000000
  0
INSERT
  5
74C
100
AcDbEntity
  8
0
100
AcDbBlockReference
  2
B-54
 10
0.000000
 20
0.000000
 30
0.000000
 41
1.000000
 42
1.000000
 43
1.000000
 50
0.000000
  0
INSERT
  5
74D
100
AcDbEntity
  8
Detail
100
AcDbBlockReference
  2
B-55
 10
0.000000
 20
0.000000
 30
0.000000
 41
1.000000
 42
1.000000
 43
1.000000
 50
0.000000
  0
INSERT
  5
74E
100
AcDbEntity
  8
Detail
100
AcDbBlockReference
  2
B-56
 10
0.000000
 20
0.000000
 30
0.000000
 41
1.000000
 42
1.000000
 43
1.000000
 50
0.000000
  0
INSERT
  5
74F
100
AcDbEntity
  8
Detail
100
AcDbBlockReference
  2
B-57
 10
0.000000
 20
0.000000
 30
0.000000
 41
1.000000
 42
1.000000
 43
1.000000
 50
0.000000
  0
INSERT
  5
750
100
AcDbEntity
  8
Detail
100
AcDbBlockReference
  2
B-58
 10
0.000000
 20
0.000000
 30
0.000000
 41
1.000000
 42
1.000000
 43
1.000000
 50
0.000000
  0
INSERT
  5
751
100
AcDbEntity
  8
0
100
AcDbBlockReference
  2
B-59
 10
0.000000
 20
0.000000
 30
0.000000
 41
1.000000
 42
1.000000
 43
1.000000
 50
0.000000
  0
INSERT
  5
752
100
AcDbEntity
  8
Detail
100
AcDbBlockReference
  2
B-60
 10
0.000000
 20
0.000000
 30
0.000000
 41
1.000000
 42
1.000000
 43
1.000000
 50
0.000000
  0
INSERT
  5
753
100
AcDbEntity
  8
Detail
100
AcDbBlockReference
  2
B-61
 10
0.000000
 20
0.000000
 30
0.000000
 41
1.000000
 42
1.000000
 43
1.000000
 50
0.000000
  0
INSERT
  5
754
100
AcDbEntity
  8
Detail
100
AcDbBlockReference
  2
B-62
 10
0.000000
 20
0.000000
 30
0.000000
 41
1.000000
 42
1.000000
 43
1.000000
 50
0.000000
  0
INSERT
  5
755
100
AcDbEntity
  8
Detail
100
AcDbBlockReference
  2
B-63
 10
0.000000
 20
0.000000
 30
0.000000
 41
1.000000
 42
1.000000
 43
1.000000
 50
0.000000
  0
INSERT
  5
756
100
AcDbEntity
  8
Detail
100
AcDbBlockReference
  2
B-64
 10
0.000000
 20
0.000000
 30
0.000000
 41
1.000000
 42
1.000000
 43
1.000000
 50
0.000000
  0
INSERT
  5
757
100
AcDbEntity
  8
Detail
100
AcDbBlockReference
  2
B-65
 10
0.000000
 20
0.000000
 30
0.000000
 41
1.000000
 42
1.000000
 43
1.000000
 50
0.000000
  0
INSERT
  5
758
100
AcDbEntity
  8
0
100
AcDbBlockReference
  2
B-66
 10
0.000000
 20
0.000000
 30
0.000000
 41
1.000000
 42
1.000000
 43
1.000000
 50
0.000000
  0
INSERT
  5
759
100
AcDbEntity
  8
Detail
100
AcDbBlockReference
  2
B-67
 10
0.000000
 20
0.000000
 30
0.000000
 41
1.000000
 42
1.000000
 43
1.000000
 50
0.000000
  0
INSERT
  5
75A
100
AcDbEntity
  8
Detail
100
AcDbBlockReference
  2
B-68
 10
0.000000
 20
0.000000
 30
0.000000
 41
1.000000
 42
1.000000
 43
1.000000
 50
0.000000
  0
INSERT
  5
75B
100
AcDbEntity
  8
Detail
100
AcDbBlockReference
  2
B-70
 10
0.000000
 20
0.000000
 30
0.000000
 41
1.000000
 42
1.000000
 43
1.000000
 50
0.000000
  0
INSERT
  5
75C
100
AcDbEntity
  8
Detail
100
AcDbBlockReference
  2
B-71
 10
0.000000
 20
0.000000
 30
0.000000
 41
1.000000
 42
1.000000
 43
1.000000
 50
0.000000
  0
INSERT
  5
75D
100
AcDbEntity
  8
Detail
100
AcDbBlockReference
  2
B-72
 10
0.000000
 20
0.000000
 30
0.000000
 41
1.000000
 42
1.000000
 43
1.000000
 50
0.000000
  0
INSERT
  5
75E
100
AcDbEntity
  8
Detail
100
AcDbBlockReference
  2
B-73
 10
0.000000
 20
0.000000
 30
0.000000
 41
1.000000
 42
1.000000
 43
1.000000
 50
0.000000
  0
INSERT
  5
75F
100
AcDbEntity
  8
Detail
100
AcDbBlockReference
  2
B-74
 10
0.000000
 20
0.000000
 30
0.000000
 41
1.000000
 42
1.000000
 43
1.000000
 50
0.000000
  0
INSERT
  5
760
100
AcDbEntity
  8
Detail
100
AcDbBlockReference
  2
B-75
 10
0.000000
 20
0.000000
 30
0.000000
 41
1.000000
 42
1.000000
 43
1.000000
 50
0.000000
  0
INSERT
  5
761
100
AcDbEntity
  8
Detail
100
AcDbBlockReference
  2
B-76
 10
0.000000
 20
0.000000
 30
0.000000
 41
1.000000
 42
1.000000
 43
1.000000
 50
0.000000
  0
INSERT
  5
762
100
AcDbEntity
  8
Detail
100
AcDbBlockReference
  2
B-77
 10
0.000000
 20
0.000000
 30
0.000000
 41
1.000000
 42
1.000000
 43
1.000000
 50
0.000000
  0
INSERT
  5
763
100
AcDbEntity
  8
Detail
100
AcDbBlockReference
  2
B-78
 10
0.000000
 20
0.000000
 30
0.000000
 41
1.000000
 42
1.000000
 43
1.000000
 50
0.000000
  0
INSERT
  5
764
100
AcDbEntity
  8
Detail
100
AcDbBlockReference
  2
B-79
 10
0.000000
 20
0.000000
 30
0.000000
 41
1.000000
 42
1.000000
 43
1.000000
 50
0.000000
  0
INSERT
  5
765
100
AcDbEntity
  8
Detail
100
AcDbBlockReference
  2
B-80
 10
0.000000
 20
0.000000
 30
0.000000
 41
1.000000
 42
1.000000
 43
1.000000
 50
0.000000
  0
INSERT
  5
766
100
AcDbEntity
  8
Detail
100
AcDbBlockReference
  2
B-81
 10
0.000000
 20
0.000000
 30
0.000000
 41
1.000000
 42
1.000000
 43
1.000000
 50
0.000000
  0
INSERT
  5
767
100
AcDbEntity
  8
Detail
100
AcDbBlockReference
  2
B-82
 10
0.000000
 20
0.000000
 30
0.000000
 41
1.000000
 42
1.000000
 43
1.000000
 50
0.000000
  0
INSERT
  5
768
100
AcDbEntity
  8
Detail
100
AcDbBlockReference
  2
B-83
 10
0.000000
 20
0.000000
 30
0.000000
 41
1.000000
 42
1.000000
 43
1.000000
 50
0.000000
  0
INSERT
  5
769
100
AcDbEntity
  8
Detail
100
AcDbBlockReference
  2
B-84
 10
0.000000
 20
0.000000
 30
0.000000
 41
1.000000
 42
1.000000
 43
1.000000
 50
0.000000
  0
INSERT
  5
76A
100
AcDbEntity
  8
Detail
100
AcDbBlockReference
  2
B-85
 10
0.000000
 20
0.000000
 30
0.000000
 41
1.000000
 42
1.000000
 43
1.000000
 50
0.000000
  0
INSERT
  5
76B
100
AcDbEntity
  8
Detail
100
AcDbBlockReference
  2
B-87
 10
0.000000
 20
0.000000
 30
0.000000
 41
1.000000
 42
1.000000
 43
1.000000
 50
0.000000
  0
INSERT
  5
76C
100
AcDbEntity
  8
Detail
100
AcDbBlockReference
  2
B-88
 10
0.000000
 20
0.000000
 30
0.000000
 41
1.000000
 42
1.000000
 43
1.000000
 50
0.000000
  0
INSERT
  5
76D
100
AcDbEntity
  8
Detail
100
AcDbBlockReference
  2
B-89
 10
0.000000
 20
0.000000
 30
0.000000
 41
1.000000
 42
1.000000
 43
1.000000
 50
0.000000
  0
INSERT
  5
76E
100
AcDbEntity
  8
Detail
100
AcDbBlockReference
  2
B-90
 10
0.000000
 20
0.000000
 30
0.000000
 41
1.000000
 42
1.000000
 43
1.000000
 50
0.000000
  0
INSERT
  5
76F
100
AcDbEntity
  8
0
100
AcDbBlockReference
  2
B-91
 10
0.000000
 20
0.000000
 30
0.000000
 41
1.000000
 42
1.000000
 43
1.000000
 50
0.000000
  0
INSERT
  5
770
100
AcDbEntity
  8
Detail
100
AcDbBlockReference
  2
B-92
 10
0.000000
 20
0.000000
 30
0.000000
 41
1.000000
 42
1.000000
 43
1.000000
 50
0.000000
  0
INSERT
  5
771
100
AcDbEntity
  8
0
100
AcDbBlockReference
  2
B-93
 10
0.000000
 20
0.000000
 30
0.000000
 41
1.000000
 42
1.000000
 43
1.000000
 50
0.000000
  0
INSERT
  5
772
100
AcDbEntity
  8
Detail
100
AcDbBlockReference
  2
B-94
 10
0.000000
 20
0.000000
 30
0.000000
 41
1.000000
 42
1.000000
 43
1.000000
 50
0.000000
  0
INSERT
  5
773
100
AcDbEntity
  8
Detail
100
AcDbBlockReference
  2
B-95
 10
0.000000
 20
0.000000
 30
0.000000
 41
1.000000
 42
1.000000
 43
1.000000
 50
0.000000
  0
INSERT
  5
774
100
AcDbEntity
  8
Detail
100
AcDbBlockReference
  2
B-96
 10
0.000000
 20
0.000000
 30
0.000000
 41
1.000000
 42
1.000000
 43
1.000000
 50
0.000000
  0
INSERT
  5
775
100
AcDbEntity
  8
Detail
100
AcDbBlockReference
  2
B-97
 10
0.000000
 20
0.000000
 30
0.000000
 41
1.000000
 42
1.000000
 43
1.000000
 50
0.000000
  0
INSERT
  5
776
100
AcDbEntity
  8
Detail
100
AcDbBlockReference
  2
B-98
 10
0.000000
 20
0.000000
 30
0.000000
 41
1.000000
 42
1.000000
 43
1.000000
 50
0.000000
  0
ENDSEC
  0
SECTION
  2
OBJECTS
  0
DICTIONARY
  5
C
330
0
100
AcDbDictionary
281
     1
  3
ACAD_COLOR
350
6B
  3
ACAD_GROUP
350
D
  3
ACAD_IMAGE_DICT
350
1E2
  3
ACAD_IMAGE_VARS
350
1E3
  3
ACAD_MATERIAL
350
6A
  3
ACAD_MLINESTYLE
350
17
  3
ACAD_PLOTSETTINGS
350
19
  3
ACAD_PLOTSTYLENAME
350
E
  3
ACAD_SCALELIST
350
10C
  3
ACAD_TABLESTYLE
350
7E
  3
ACAD_VISUALSTYLE
350
EF
  3
ACDB_RECOMPOSE_DATA
350
15D
  3
AcDbVariableDictionary
350
5E
  0
DICTIONARY
  5
13C
330
10
100
AcDbDictionary
280
     1
281
     1
  0
DICTIONARY
  5
203
330
202
100
AcDbDictionary
280
     1
281
     1
  0
DICTIONARY
  5
6B
102
{ACAD_REACTORS
330
C
102
}
330
C
100
AcDbDictionary
281
     1
  0
DICTIONARY
  5
D
102
{ACAD_REACTORS
330
C
102
}
330
C
100
AcDbDictionary
281
     1
  0
DICTIONARY
  5
1E2
102
{ACAD_REACTORS
330
C
102
}
330
C
100
AcDbDictionary
281
     1
  3
Kombinationsfassde_Systemübergang Aussenecke_7_1.tif
350
218
  0
RASTERVARIABLES
  5
1E3
102
{ACAD_REACTORS
330
C
102
}
330
C
100
AcDbRasterVariables
 90
        0
 70
     1
 71
     1
 72
     1
  0
DICTIONARY
  5
6A
102
{ACAD_REACTORS
330
C
102
}
330
C
100
AcDbDictionary
281
     1
  3
ByBlock
350
ED
  3
ByLayer
350
EC
  3
Global
350
EE
  0
DICTIONARY
  5
12D
102
{ACAD_REACTORS
330
C
102
}
330
C
100
AcDbDictionary
281
     1
  3
Annotative
350
13B
  3
Standard
350
12E
  0
DICTIONARY
  5
17
102
{ACAD_REACTORS
330
C
102
}
330
C
100
AcDbDictionary
281
     1
  3
Standard
350
18
  0
DICTIONARY
  5
19
102
{ACAD_REACTORS
330
C
102
}
330
C
100
AcDbDictionary
281
     1
  0
ACDBDICTIONARYWDFLT
  5
E
102
{ACAD_REACTORS
330
C
102
}
330
C
100
AcDbDictionary
281
     1
  3
Normal
350
F
100
AcDbDictionaryWithDefault
340
F
  0
DICTIONARY
  5
10C
102
{ACAD_REACTORS
330
C
102
}
330
C
100
AcDbDictionary
281
     1
  3
A0
350
10D
  3
A1
350
1BE
  3
A2
350
1BF
  3
A3
350
1C0
  3
A4
350
1C1
  3
A5
350
1C2
  3
A6
350
1C3
  3
A7
350
1C4
  3
A8
350
1C5
  3
A9
350
1C6
  3
B0
350
1C7
  3
B1
350
1C8
  3
B2
350
1C9
  3
B3
350
1CA
  3
B4
350
1CB
  3
B5
350
1CC
  3
B6
350
1CD
  0
DICTIONARY
  5
7E
102
{ACAD_REACTORS
330
C
102
}
330
C
100
AcDbDictionary
281
     1
  3
Standard
350
7F
  0
DICTIONARY
  5
EF
102
{ACAD_REACTORS
330
C
102
}
330
C
100
AcDbDictionary
281
     1
  3
2dWireframe
350
F5
  3
3D Hidden
350
F7
  3
3dWireframe
350
F6
  3
Basic
350
F4
  3
Brighten
350
FB
  3
ColorChange
350
FF
  3
Conceptual
350
F8
  3
Dim
350
FA
  3
Facepattern
350
FE
  3
Flat
350
F0
  3
FlatWithEdges
350
F1
  3
Gouraud
350
F2
  3
GouraudWithEdges
350
F3
  3
Linepattern
350
FD
  3
Realistic
350
F9
  3
Thicken
350
FC
  0
XRECORD
  5
15D
102
{ACAD_REACTORS
330
C
102
}
330
C
100
AcDbXrecord
280
     1
 90
        1
330
7F
  0
DICTIONARY
  5
5E
102
{ACAD_REACTORS
330
C
102
}
330
C
100
AcDbDictionary
281
     1
  3
CANNOSCALE
350
146
  3
CMLEADERSTYLE
350
145
  3
CTABLESTYLE
350
84
  3
DIMASSOC
350
5F
  3
HIDETEXT
350
63
  3
LAYEREVAL
350
1AE
  3
LAYERNOTIFY
350
1AF
  0
MATERIAL
  5
ED
102
{ACAD_REACTORS
330
6A
102
}
330
6A
100
AcDbMaterial
  1
ByBlock
 94
       63
  0
MATERIAL
  5
EC
102
{ACAD_REACTORS
330
6A
102
}
330
6A
100
AcDbMaterial
  1
ByLayer
 94
       63
  0
MATERIAL
  5
EE
102
{ACAD_XDICTIONARY
360
173
102
}
102
{ACAD_REACTORS
330
6A
102
}
330
6A
100
AcDbMaterial
  1
Global
 43
0.0007999999797903
 43
0.0
 43
0.0
 43
0.0
 43
0.0
 43
0.0007999999797903
 43
0.0
 43
0.0
 43
0.0
 43
0.0
 43
1.0
 43
0.0
 43
0.0
 43
0.0
 43
0.0
 43
1.0
 49
0.0007999999797903
 49
0.0
 49
0.0
 49
0.0
 49
0.0
 49
0.0007999999797903
 49
0.0
 49
0.0
 49
0.0
 49
0.0
 49
1.0
 49
0.0
 49
0.0
 49
0.0
 49
0.0
 49
1.0
142
0.0007999999797903
142
0.0
142
0.0
142
0.0
142
0.0
142
0.0007999999797903
142
0.0
142
0.0
142
0.0
142
0.0
142
1.0
142
0.0
142
0.0
142
0.0
142
0.0
142
1.0
144
0.0007999999797903
144
0.0
144
0.0
144
0.0
144
0.0
144
0.0007999999797903
144
0.0
144
0.0
144
0.0
144
0.0
144
1.0
144
0.0
144
0.0
144
0.0
144
0.0
144
1.0
 94
       63
1001
ACAD
1070
    -1
1070
     3
1070
     0
1000

1071
        0
1070
     0
  0
MLINESTYLE
  5
18
102
{ACAD_REACTORS
330
17
102
}
330
17
100
AcDbMlineStyle
  2
STANDARD
 70
     0
  3

 62
   256
 51
90.0
 52
90.0
 71
     2
 49
0.5
 62
   256
  6
BYLAYER
 49
-0.5
 62
   256
  6
BYLAYER
  0
ACDBPLACEHOLDER
  5
F
102
{ACAD_REACTORS
330
E
102
}
330
E
  0
SCALE
  5
10D
102
{ACAD_REACTORS
330
10C
102
}
330
10C
100
AcDbScale
 70
     0
300
1:1
140
1.0
141
1.0
290
     1
  0
SCALE
  5
1BE
102
{ACAD_REACTORS
330
10C
102
}
330
10C
100
AcDbScale
 70
     0
300
1:2
140
1.0
141
2.0
290
     0
  0
SCALE
  5
1BF
102
{ACAD_REACTORS
330
10C
102
}
330
10C
100
AcDbScale
 70
     0
300
1:4
140
1.0
141
4.0
290
     0
  0
SCALE
  5
1C0
102
{ACAD_REACTORS
330
10C
102
}
330
10C
100
AcDbScale
 70
     0
300
1:5
140
1.0
141
5.0
290
     0
  0
SCALE
  5
1C1
102
{ACAD_REACTORS
330
10C
102
}
330
10C
100
AcDbScale
 70
     0
300
1:8
140
1.0
141
8.0
290
     0
  0
SCALE
  5
1C2
102
{ACAD_REACTORS
330
10C
102
}
330
10C
100
AcDbScale
 70
     0
300
1:10
140
1.0
141
10.0
290
     0
  0
SCALE
  5
1C3
102
{ACAD_REACTORS
330
10C
102
}
330
10C
100
AcDbScale
 70
     0
300
1:16
140
1.0
141
16.0
290
     0
  0
SCALE
  5
1C4
102
{ACAD_REACTORS
330
10C
102
}
330
10C
100
AcDbScale
 70
     0
300
1:20
140
1.0
141
20.0
290
     0
  0
SCALE
  5
1C5
102
{ACAD_REACTORS
330
10C
102
}
330
10C
100
AcDbScale
 70
     0
300
1:30
140
1.0
141
30.0
290
     0
  0
SCALE
  5
1C6
102
{ACAD_REACTORS
330
10C
102
}
330
10C
100
AcDbScale
 70
     0
300
1:40
140
1.0
141
40.0
290
     0
  0
SCALE
  5
1C7
102
{ACAD_REACTORS
330
10C
102
}
330
10C
100
AcDbScale
 70
     0
300
1:50
140
1.0
141
50.0
290
     0
  0
SCALE
  5
1C8
102
{ACAD_REACTORS
330
10C
102
}
330
10C
100
AcDbScale
 70
     0
300
1:100
140
1.0
141
100.0
290
     0
  0
SCALE
  5
1C9
102
{ACAD_REACTORS
330
10C
102
}
330
10C
100
AcDbScale
 70
     0
300
2:1
140
2.0
141
1.0
290
     0
  0
SCALE
  5
1CA
102
{ACAD_REACTORS
330
10C
102
}
330
10C
100
AcDbScale
 70
     0
300
4:1
140
4.0
141
1.0
290
     0
  0
SCALE
  5
1CB
102
{ACAD_REACTORS
330
10C
102
}
330
10C
100
AcDbScale
 70
     0
300
8:1
140
8.0
141
1.0
290
     0
  0
SCALE
  5
1CC
102
{ACAD_REACTORS
330
10C
102
}
330
10C
100
AcDbScale
 70
     0
300
10:1
140
10.0
141
1.0
290
     0
  0
SCALE
  5
1CD
102
{ACAD_REACTORS
330
10C
102
}
330
10C
100
AcDbScale
 70
     0
300
100:1
140
100.0
141
1.0
290
     0
  0
TABLESTYLE
  5
7F
102
{ACAD_XDICTIONARY
360
162
102
}
102
{ACAD_REACTORS
330
7E
102
}
330
7E
100
AcDbTableStyle
  3
Standard
 70
     0
 71
     0
 40
1.5
 41
1.5
280
     0
281
     0
  7
Standard
140
4.5
170
     2
 62
     0
 63
     7
283
     0
 90
      512
 91
        0
  1

274
    -2
284
     1
 64
     0
275
    -2
285
     1
 65
     0
276
    -2
286
     1
 66
     0
277
    -2
287
     1
 67
     0
278
    -2
288
     1
 68
     0
279
    -2
289
     1
 69
     0
  7
Standard
140
6.0
170
     5
 62
     0
 63
     7
283
     0
 90
      512
 91
        0
  1

274
    -2
284
     1
 64
     0
275
    -2
285
     1
 65
     0
276
    -2
286
     1
 66
     0
277
    -2
287
     1
 67
     0
278
    -2
288
     1
 68
     0
279
    -2
289
     1
 69
     0
  7
Standard
140
4.5
170
     5
 62
     0
 63
     7
283
     0
 90
      512
 91
        0
  1

274
    -2
284
     1
 64
     0
275
    -2
285
     1
 65
     0
276
    -2
286
     1
 66
     0
277
    -2
287
     1
 67
     0
278
    -2
288
     1
 68
     0
279
    -2
289
     1
 69
     0
  0
VISUALSTYLE
  5
F5
102
{ACAD_REACTORS
330
EF
102
}
330
EF
100
AcDbVisualStyle
  2
2dWireframe
 70
     4
 71
     0
 72
     2
 73
     1
 90
        0
 40
-0.6
 41
-30.0
 62
     5
 63
     7
421
 16777215
 74
     1
 91
        4
 64
     7
 65
   257
 75
     1
175
     1
 42
1.0
 92
        0
 66
   257
 43
1.0
 76
     1
 77
     6
 78
     2
 67
     7
 79
     5
170
     0
171
     0
290
     0
174
     0
 93
        1
 44
0.0
173
     0
291
     0
 45
0.0
  0
VISUALSTYLE
  5
F7
102
{ACAD_REACTORS
330
EF
102
}
330
EF
100
AcDbVisualStyle
  2
3D Hidden
 70
     6
 71
     1
 72
     2
 73
     2
 90
        0
 40
-0.6
 41
-30.0
 62
     5
 63
     7
421
 16777215
 74
     2
 91
        2
 64
     7
 65
   257
 75
     2
175
     1
 42
40.0
 92
        0
 66
   257
 43
1.0
 76
     1
 77
     6
 78
     2
 67
     7
 79
     3
170
     0
171
     0
290
     0
174
     0
 93
        1
 44
0.0
173
     0
291
     0
 45
0.0
  0
VISUALSTYLE
  5
F6
102
{ACAD_REACTORS
330
EF
102
}
330
EF
100
AcDbVisualStyle
  2
3dWireframe
 70
     5
 71
     0
 72
     2
 73
     1
 90
        0
 40
-0.6
 41
-30.0
 62
     5
 63
     7
421
 16777215
 74
     1
 91
        4
 64
     7
 65
   257
 75
     1
175
     1
 42
1.0
 92
        0
 66
   257
 43
1.0
 76
     1
 77
     6
 78
     2
 67
     7
 79
     5
170
     0
171
     0
290
     0
174
     0
 93
        1
 44
0.0
173
     0
291
     0
 45
0.0
  0
VISUALSTYLE
  5
F4
102
{ACAD_REACTORS
330
EF
102
}
330
EF
100
AcDbVisualStyle
  2
Basic
 70
     7
 71
     1
 72
     0
 73
     1
 90
        0
 40
-0.6
 41
-30.0
 62
     5
 63
     7
421
 16777215
 74
     0
 91
        4
 64
     7
 65
   257
 75
     1
175
     1
 42
1.0
 92
        8
 66
     7
 43
1.0
 76
     1
 77
     6
 78
     2
 67
     7
 79
     5
170
     0
171
     0
290
     0
174
     0
 93
        1
 44
0.0
173
     0
291
     1
 45
0.0
  0
VISUALSTYLE
  5
FB
102
{ACAD_REACTORS
330
EF
102
}
330
EF
100
AcDbVisualStyle
  2
Brighten
 70
    12
 71
     2
 72
     2
 73
     1
 90
        0
 40
-0.6
 41
-30.0
 62
     5
 63
     7
421
 16777215
 74
     1
 91
        4
 64
     7
 65
   257
 75
     1
175
     1
 42
1.0
 92
        8
 66
     7
 43
1.0
 76
     1
 77
     6
 78
     2
 67
     7
 79
     5
170
     0
171
     0
290
     0
174
     0
 93
        1
 44
50.0
173
     0
291
     1
 45
0.0
  0
VISUALSTYLE
  5
FF
102
{ACAD_REACTORS
330
EF
102
}
330
EF
100
AcDbVisualStyle
  2
ColorChange
 70
    16
 71
     2
 72
     2
 73
     3
 90
        0
 40
-0.6
 41
-30.0
 62
     5
 63
     8
421
  8421504
 74
     1
 91
        4
 64
     7
 65
   257
 75
     1
175
     1
 42
1.0
 92
        8
 66
     8
424
  8421504
 43
1.0
 76
     1
 77
     6
 78
     2
 67
     7
 79
     5
170
     0
171
     0
290
     0
174
     0
 93
        1
 44
0.0
173
     0
291
     1
 45
0.0
  0
VISUALSTYLE
  5
F8
102
{ACAD_REACTORS
330
EF
102
}
330
EF
100
AcDbVisualStyle
  2
Conceptual
 70
     9
 71
     3
 72
     2
 73
     1
 90
        0
 40
-0.6
 41
-30.0
 62
     5
 63
     7
421
 16777215
 74
     2
 91
        2
 64
     7
 65
   257
 75
     1
175
     1
 42
40.0
 92
        8
 66
     7
 43
1.0
 76
     1
 77
     6
 78
     2
 67
     7
 79
     3
170
     0
171
     0
290
     0
174
     0
 93
        1
 44
0.0
173
     0
291
     0
 45
0.0
  0
VISUALSTYLE
  5
FA
102
{ACAD_REACTORS
330
EF
102
}
330
EF
100
AcDbVisualStyle
  2
Dim
 70
    11
 71
     2
 72
     2
 73
     1
 90
        0
 40
-0.6
 41
-30.0
 62
     5
 63
     7
421
 16777215
 74
     1
 91
        4
 64
     7
 65
   257
 75
     1
175
     1
 42
1.0
 92
        8
 66
     7
 43
1.0
 76
     1
 77
     6
 78
     2
 67
     7
 79
     5
170
     0
171
     0
290
     0
174
     0
 93
        1
 44
-50.0
173
     0
291
     1
 45
0.0
  0
VISUALSTYLE
  5
FE
102
{ACAD_REACTORS
330
EF
102
}
330
EF
100
AcDbVisualStyle
  2
Facepattern
 70
    15
 71
     2
 72
     2
 73
     1
 90
        0
 40
-0.6
 41
-30.0
 62
     5
 63
     7
421
 16777215
 74
     1
 91
        4
 64
     7
 65
   257
 75
     1
175
     1
 42
1.0
 92
        8
 66
     7
 43
1.0
 76
     1
 77
     6
 78
     2
 67
     7
 79
     5
170
     0
171
     0
290
     0
174
     0
 93
        1
 44
0.0
173
     0
291
     1
 45
0.0
  0
VISUALSTYLE
  5
F0
102
{ACAD_REACTORS
330
EF
102
}
330
EF
100
AcDbVisualStyle
  2
Flat
 70
     0
 71
     2
 72
     1
 73
     1
 90
        2
 40
-0.6
 41
30.0
 62
     5
 63
     7
421
 16777215
 74
     0
 91
        4
 64
     7
 65
   257
 75
     1
175
     1
 42
1.0
 92
        8
 66
     7
 43
1.0
 76
     1
 77
     6
 78
     2
 67
     7
 79
     5
170
     0
171
     0
290
     0
174
     0
 93
        1
 44
0.0
173
     0
291
     1
 45
0.0
  0
VISUALSTYLE
  5
F1
102
{ACAD_REACTORS
330
EF
102
}
330
EF
100
AcDbVisualStyle
  2
FlatWithEdges
 70
     1
 71
     2
 72
     1
 73
     1
 90
        2
 40
-0.6
 41
30.0
 62
     5
 63
     7
421
 16777215
 74
     1
 91
        4
 64
     7
 65
   257
 75
     1
175
     1
 42
1.0
 92
        0
 66
   257
 43
1.0
 76
     1
 77
     6
 78
     2
 67
     7
 79
     5
170
     0
171
     0
290
     0
174
     0
 93
        1
 44
0.0
173
     0
291
     1
 45
0.0
  0
VISUALSTYLE
  5
F2
102
{ACAD_REACTORS
330
EF
102
}
330
EF
100
AcDbVisualStyle
  2
Gouraud
 70
     2
 71
     2
 72
     2
 73
     1
 90
        2
 40
-0.6
 41
30.0
 62
     5
 63
     7
421
 16777215
 74
     0
 91
        4
 64
     7
 65
   257
 75
     1
175
     1
 42
1.0
 92
        0
 66
     7
 43
1.0
 76
     1
 77
     6
 78
     2
 67
     7
 79
     5
170
     0
171
     0
290
     0
174
     0
 93
        1
 44
0.0
173
     0
291
     1
 45
0.0
  0
VISUALSTYLE
  5
F3
102
{ACAD_REACTORS
330
EF
102
}
330
EF
100
AcDbVisualStyle
  2
GouraudWithEdges
 70
     3
 71
     2
 72
     2
 73
     1
 90
        2
 40
-0.6
 41
30.0
 62
     5
 63
     7
421
 16777215
 74
     1
 91
        4
 64
     7
 65
   257
 75
     1
175
     1
 42
1.0
 92
        0
 66
   257
 43
1.0
 76
     1
 77
     6
 78
     2
 67
     7
 79
     5
170
     0
171
     0
290
     0
174
     0
 93
        1
 44
0.0
173
     0
291
     1
 45
0.0
  0
VISUALSTYLE
  5
FD
102
{ACAD_REACTORS
330
EF
102
}
330
EF
100
AcDbVisualStyle
  2
Linepattern
 70
    14
 71
     2
 72
     2
 73
     1
 90
        0
 40
-0.6
 41
-30.0
 62
     5
 63
     7
421
 16777215
 74
     1
 91
        4
 64
     7
 65
   257
 75
     7
175
     7
 42
1.0
 92
        8
 66
     7
 43
1.0
 76
     1
 77
     6
 78
     2
 67
     7
 79
     5
170
     0
171
     0
290
     0
174
     0
 93
        1
 44
0.0
173
     0
291
     1
 45
0.0
  0
VISUALSTYLE
  5
F9
102
{ACAD_REACTORS
330
EF
102
}
330
EF
100
AcDbVisualStyle
  2
Realistic
 70
     8
 71
     2
 72
     2
 73
     1
 90
        0
 40
-0.6
 41
-30.0
 62
     5
 63
     7
421
 16777215
 74
     1
 91
        0
 64
     7
 65
   257
 75
     1
175
     1
 42
1.0
 92
        8
 66
     8
424
  7895160
 43
1.0
 76
     1
 77
     6
 78
     2
 67
     7
 79
     5
170
     0
171
     0
290
     0
174
     0
 93
       13
 44
0.0
173
     0
291
     0
 45
0.0
  0
VISUALSTYLE
  5
FC
102
{ACAD_REACTORS
330
EF
102
}
330
EF
100
AcDbVisualStyle
  2
Thicken
 70
    13
 71
     2
 72
     2
 73
     1
 90
        0
 40
-0.6
 41
-30.0
 62
     5
 63
     7
421
 16777215
 74
     1
 91
        4
 64
     7
 65
   257
 75
     1
175
     1
 42
1.0
 92
       12
 66
     7
 43
1.0
 76
     1
 77
     6
 78
     2
 67
     7
 79
     5
170
     0
171
     0
290
     0
174
     0
 93
        1
 44
0.0
173
     0
291
     1
 45
0.0
  0
DICTIONARYVAR
  5
146
102
{ACAD_REACTORS
330
5E
102
}
330
5E
100
DictionaryVariables
280
     0
  1
1:1
  0
DICTIONARYVAR
  5
145
102
{ACAD_REACTORS
330
5E
102
}
330
5E
100
DictionaryVariables
280
     0
  1
STANDARD
  0
DICTIONARYVAR
  5
84
102
{ACAD_REACTORS
330
5E
102
}
330
5E
100
DictionaryVariables
280
     0
  1
STANDARD
  0
DICTIONARYVAR
  5
5F
102
{ACAD_REACTORS
330
5E
102
}
330
5E
100
DictionaryVariables
280
     0
  1
2
  0
DICTIONARYVAR
  5
63
102
{ACAD_REACTORS
330
5E
102
}
330
5E
100
DictionaryVariables
280
     0
  1
1
  0
DICTIONARYVAR
  5
1AE
102
{ACAD_REACTORS
330
5E
102
}
330
5E
100
DictionaryVariables
280
     0
  1
0
  0
DICTIONARYVAR
  5
1AF
102
{ACAD_REACTORS
330
5E
102
}
330
5E
100
DictionaryVariables
280
     0
  1
0
  0
DICTIONARY
  5
173
330
EE
100
AcDbDictionary
280
     1
281
     1
  3
BUMPTILE
360
175
  3
DIFFUSETILE
360
174
  3
OPACITYTILE
360
176
  3
REFLECTIONTILE
360
177
  0
DICTIONARY
  5
162
330
7F
100
AcDbDictionary
280
     1
281
     1
  3
ACAD_ROUNDTRIP_2008_TABLESTYLE_CELLSTYLEMAP
360
1E7
  0
XRECORD
  5
175
102
{ACAD_REACTORS
330
173
102
}
330
173
100
AcDbXrecord
280
     1
270
     1
271
     1
  0
XRECORD
  5
174
102
{ACAD_REACTORS
330
173
102
}
330
173
100
AcDbXrecord
280
     1
270
     1
271
     1
  0
XRECORD
  5
176
102
{ACAD_REACTORS
330
173
102
}
330
173
100
AcDbXrecord
280
     1
270
     1
271
     1
  0
XRECORD
  5
177
102
{ACAD_REACTORS
330
173
102
}
330
173
100
AcDbXrecord
280
     1
270
     1
271
     1
  0
CELLSTYLEMAP
  5
1E7
102
{ACAD_REACTORS
330
162
102
}
330
162
100
AcDbCellStyleMap
 90
        3
300
CELLSTYLE
  1
TABLEFORMAT_BEGIN
 90
        5
170
     1
 91
        0
 92
    32768
 62
   257
 93
        1
300
CONTENTFORMAT
  1
CONTENTFORMAT_BEGIN
 90
        0
 91
        0
 92
      512
 93
        0
300

 40
0.0
140
1.0
 94
        5
 62
     0
340
11
144
6.0
309
CONTENTFORMAT_END
171
     1
301
MARGIN
  1
CELLMARGIN_BEGIN
 40
1.5
 40
1.5
 40
1.5
 40
1.5
 40
4.5
 40
4.5
309
CELLMARGIN_END
 94
        6
 95
        1
302
GRIDFORMAT
  1
GRIDFORMAT_BEGIN
 90
        0
 91
        1
 62
     0
 92
       -2
340
758
 93
        0
 40
1.125
309
GRIDFORMAT_END
 95
        2
302
GRIDFORMAT
  1
GRIDFORMAT_BEGIN
 90
        0
 91
        1
 62
     0
 92
       -2
340
758
 93
        0
 40
1.125
309
GRIDFORMAT_END
 95
        4
302
GRIDFORMAT
  1
GRIDFORMAT_BEGIN
 90
        0
 91
        1
 62
     0
 92
       -2
340
758
 93
        0
 40
1.125
309
GRIDFORMAT_END
 95
        8
302
GRIDFORMAT
  1
GRIDFORMAT_BEGIN
 90
        0
 91
        1
 62
     0
 92
       -2
340
758
 93
        0
 40
1.125
309
GRIDFORMAT_END
 95
       16
302
GRIDFORMAT
  1
GRIDFORMAT_BEGIN
 90
        0
 91
        1
 62
     0
 92
       -2
340
758
 93
        0
 40
1.125
309
GRIDFORMAT_END
 95
       32
302
GRIDFORMAT
  1
GRIDFORMAT_BEGIN
 90
        0
 91
        1
 62
     0
 92
       -2
340
758
 93
        0
 40
1.125
309
GRIDFORMAT_END
309
TABLEFORMAT_END
  1
CELLSTYLE_BEGIN
 90
        1
 91
        1
300
_TITLE
309
CELLSTYLE_END
300
CELLSTYLE
  1
TABLEFORMAT_BEGIN
 90
        5
170
     1
 91
        0
 92
        0
 62
   257
 93
        1
300
CONTENTFORMAT
  1
CONTENTFORMAT_BEGIN
 90
        0
 91
        0
 92
      512
 93
        0
300

 40
0.0
140
1.0
 94
        5
 62
     0
340
11
144
4.5
309
CONTENTFORMAT_END
171
     1
301
MARGIN
  1
CELLMARGIN_BEGIN
 40
1.5
 40
1.5
 40
1.5
 40
1.5
 40
4.5
 40
4.5
309
CELLMARGIN_END
 94
        6
 95
        1
302
GRIDFORMAT
  1
GRIDFORMAT_BEGIN
 90
        0
 91
        1
 62
     0
 92
       -2
340
758
 93
        0
 40
1.125
309
GRIDFORMAT_END
 95
        2
302
GRIDFORMAT
  1
GRIDFORMAT_BEGIN
 90
        0
 91
        1
 62
     0
 92
       -2
340
758
 93
        0
 40
1.125
309
GRIDFORMAT_END
 95
        4
302
GRIDFORMAT
  1
GRIDFORMAT_BEGIN
 90
        0
 91
        1
 62
     0
 92
       -2
340
758
 93
        0
 40
1.125
309
GRIDFORMAT_END
 95
        8
302
GRIDFORMAT
  1
GRIDFORMAT_BEGIN
 90
        0
 91
        1
 62
     0
 92
       -2
340
758
 93
        0
 40
1.125
309
GRIDFORMAT_END
 95
       16
302
GRIDFORMAT
  1
GRIDFORMAT_BEGIN
 90
        0
 91
        1
 62
     0
 92
       -2
340
758
 93
        0
 40
1.125
309
GRIDFORMAT_END
 95
       32
302
GRIDFORMAT
  1
GRIDFORMAT_BEGIN
 90
        0
 91
        1
 62
     0
 92
       -2
340
758
 93
        0
 40
1.125
309
GRIDFORMAT_END
309
TABLEFORMAT_END
  1
CELLSTYLE_BEGIN
 90
        2
 91
        1
300
_HEADER
309
CELLSTYLE_END
300
CELLSTYLE
  1
TABLEFORMAT_BEGIN
 90
        5
170
     1
 91
        0
 92
        0
 62
   257
 93
        1
300
CONTENTFORMAT
  1
CONTENTFORMAT_BEGIN
 90
        0
 91
        0
 92
      512
 93
        0
300

 40
0.0
140
1.0
 94
        2
 62
     0
340
11
144
4.5
309
CONTENTFORMAT_END
171
     1
301
MARGIN
  1
CELLMARGIN_BEGIN
 40
1.5
 40
1.5
 40
1.5
 40
1.5
 40
4.5
 40
4.5
309
CELLMARGIN_END
 94
        6
 95
        1
302
GRIDFORMAT
  1
GRIDFORMAT_BEGIN
 90
        0
 91
        1
 62
     0
 92
       -2
340
758
 93
        0
 40
1.125
309
GRIDFORMAT_END
 95
        2
302
GRIDFORMAT
  1
GRIDFORMAT_BEGIN
 90
        0
 91
        1
 62
     0
 92
       -2
340
758
 93
        0
 40
1.125
309
GRIDFORMAT_END
 95
        4
302
GRIDFORMAT
  1
GRIDFORMAT_BEGIN
 90
        0
 91
        1
 62
     0
 92
       -2
340
758
 93
        0
 40
1.125
309
GRIDFORMAT_END
 95
        8
302
GRIDFORMAT
  1
GRIDFORMAT_BEGIN
 90
        0
 91
        1
 62
     0
 92
       -2
340
758
 93
        0
 40
1.125
309
GRIDFORMAT_END
 95
       16
302
GRIDFORMAT
  1
GRIDFORMAT_BEGIN
 90
        0
 91
        1
 62
     0
 92
       -2
340
758
 93
        0
 40
1.125
309
GRIDFORMAT_END
 95
       32
302
GRIDFORMAT
  1
GRIDFORMAT_BEGIN
 90
        0
 91
        1
 62
     0
 92
       -2
340
758
 93
        0
 40
1.125
309
GRIDFORMAT_END
309
TABLEFORMAT_END
  1
CELLSTYLE_BEGIN
 90
        3
 91
        2
300
_DATA
309
CELLSTYLE_END
  0
IMAGEDEF_REACTOR
  5
219
330
217
100
AcDbRasterImageDefReactor
 90
     2
330
217
  0
IMAGEDEF
  5
218
102
{ACAD_REACTORS
330
5E
330
219
102
}
330
5E
100
AcDbRasterImageDef
 90
     0
  1
Kombinationsfassde_Systemübergang Aussenecke_7_1.tif
 10
395.000000
 20
405.000000
 11
0.002532
 21
0.002469
280
     1
281
     0
  0
ENDSEC
  0
EOF
